999
DXF file: C:\Users\sesa63760\Dev\_Creo\CAD\MCADID0004819_3D-CAD\drw0001_7.dxf
999
Pro/ENGINEER 2019471 by Parametric Technology Corporation
  0
SECTION
  2
HEADER
  9
$ACADVER
  1
AC1024
  9
$DWGCODEPAGE
  3
ANSI_1252
  9
$EXTMAX
 10
73.5823981731
 20
104.0665345591
 30
0.0
  9
$EXTMIN
 10
0.0
 20
0.0
 30
0.0
  9
$LIMMIN
 10
0.0
 20
0.0
  9
$LIMMAX
 10
73.5823981731
 20
104.0665345591
  9
$VIEWCTR
 10
36.7911990865
 20
52.0332672795
  9
$VIEWSIZE
 40
104.0665345591
  9
$CLAYER
  8
0
  9
$LTSCALE
 40
6.7835963268
  9
$CELTYPE
  6
BYLAYER
  9
$DIMSCALE
 40
1.0
  9
$DIMASZ
 40
0.8759809306
  9
$DIMEXO
 40
1.0
  9
$DIMDLI
 40
4.6868483713
  9
$DIMEXE
 40
1.0
  9
$DIMCEN
 40
1.1100430353
  9
$DIMLFAC
 40
1.0
  9
$DIMBLK
  1
_FILLED
  9
$DIMALT
 70
0
  9
$DIMALTF
 40
0.0393700787
  9
$DIMTXT
 40
1.2263733029
  9
$DIMTOL
 70
1
  9
$DIMLIM
 70
0
  9
$DIMTFAC
 40
1.0
  9
$DIMTP
 40
0.01
  9
$DIMTM
 40
0.01
  9
$DIMGAP
 40
0.625
  9
$DIMDSEP
 70
46
  9
$AUNITS
 70
0
  9
$PDMODE
 70
3
  9
$PDSIZE
 40
0.3125
  9
$HANDSEED
  5
284
  9
$TILEMODE
 70
1
  9
$MEASUREMENT
 70
1
  9
$INSUNITS
 70
4
  0
ENDSEC
  0
SECTION
  2
CLASSES
  0
CLASS
  1
ACDBDICTIONARYWDFLT
  2
AcDbDictionaryWithDefault
  3
AutoCAD 2000
 90
0
 91
1
280
0
281
0
  0
CLASS
  1
ACDBPLACEHOLDER
  2
AcDbPlaceHolder
  3
AutoCAD 2000
 90
0
 91
1
280
0
281
0
  0
CLASS
  1
LAYOUT
  2
AcDbLayout
  3
AutoCAD 2000
 90
0
 91
0
280
0
281
0
  0
ENDSEC
  0
SECTION
  2
TABLES
  0
TABLE
  2
VPORT
  5
8
100
AcDbSymbolTable
 70
2
  0
VPORT
  5
1F4
100
AcDbSymbolTableRecord
100
AcDbViewportTableRecord
  2
*ACTIVE
 70
0
 10
0.0
 20
0.0
 11
1.0
 21
1.0
 12
36.7911990865
 22
52.0332672795
 13
0.0
 23
0.0
 14
1.0
 24
1.0
 15
0.0
 25
0.0
 16
0.0
 26
0.0
 36
1.0
 17
0.0
 27
0.0
 37
0.0
 40
104.0665345591
 41
0.7070707071
 42
50.0
 43
0.0
 44
0.0
 50
0.0
 51
0.0
 71
0
 72
100
 73
1
 74
1
 75
0
 76
0
 77
0
 78
0
  0
ENDTAB
  0
TABLE
  2
LTYPE
  5
5
100
AcDbSymbolTable
 70
6
  0
LTYPE
  5
14
100
AcDbSymbolTableRecord
100
AcDbLinetypeTableRecord
  2
BYBLOCK
 70
0
  3

 72
65
 73
0
 40
0.0
  0
LTYPE
  5
15
100
AcDbSymbolTableRecord
100
AcDbLinetypeTableRecord
  2
BYLAYER
 70
0
  3

 72
65
 73
0
 40
0.0
  0
LTYPE
  5
16
100
AcDbSymbolTableRecord
100
AcDbLinetypeTableRecord
  2
CONTINUOUS
 70
64
  3
Solid line
 72
65
 73
0
 40
0.0
  0
LTYPE
  5
1F5
100
AcDbSymbolTableRecord
100
AcDbLinetypeTableRecord
  2
CENTER
 70
64
  3
____ _ ____ _ ____ _ ____ _ ____ _ ____ _ ____
 72
65
 73
4
 40
0.6
 49
0.375
 74
0
 49
-0.075
 74
0
 49
0.075
 74
0
 49
-0.075
 74
0
  0
LTYPE
  5
1F6
100
AcDbSymbolTableRecord
100
AcDbLinetypeTableRecord
  2
HIDDEN
 70
64
  3
- - - - - - - - - - - - - - - - - - - -
 72
65
 73
2
 40
0.2
 49
0.1
 74
0
 49
-0.1
 74
0
  0
LTYPE
  5
1F7
100
AcDbSymbolTableRecord
100
AcDbLinetypeTableRecord
  2
PHANTOM
 70
64
  3
_____ _ _ _____ _ _ _____ _ _ _____
 72
65
 73
6
 40
0.8
 49
0.45
 74
0
 49
-0.05
 74
0
 49
0.1
 74
0
 49
-0.05
 74
0
 49
0.1
 74
0
 49
-0.05
 74
0
  0
LTYPE
  5
1F8
100
AcDbSymbolTableRecord
100
AcDbLinetypeTableRecord
  2
DOT
 70
64
  3
. . . . . . . . . . . . . . . . . . . .
 72
65
 73
2
 40
0.2
 49
0.1
 74
0
 49
-0.1
 74
0
  0
LTYPE
  5
1F9
100
AcDbSymbolTableRecord
100
AcDbLinetypeTableRecord
  2
DASHED
 70
64
  3
- - - - - - - - - - - - - - - - - - - -
 72
65
 73
2
 40
0.2
 49
0.1
 74
0
 49
-0.1
 74
0
  0
ENDTAB
  0
TABLE
  2
LAYER
  5
2
100
AcDbSymbolTable
 70
36
  0
LAYER
  5
10
100
AcDbSymbolTableRecord
100
AcDbLayerTableRecord
  2
0
 70
0
 62
7
  6
CONTINUOUS
370
-3
390
F
  0
LAYER
  5
1FA
100
AcDbSymbolTableRecord
100
AcDbLayerTableRecord
  2
DEFAULT_1
 70
0
 62
7
  6
CENTER
370
-3
390
F
  0
LAYER
  5
1FB
100
AcDbSymbolTableRecord
100
AcDbLayerTableRecord
  2
DEFAULT_2
 70
0
 62
7
  6
HIDDEN
370
-3
390
F
  0
LAYER
  5
1FC
100
AcDbSymbolTableRecord
100
AcDbLayerTableRecord
  2
DEFAULT_3
 70
0
 62
7
  6
PHANTOM
370
-3
390
F
  0
LAYER
  5
1FD
100
AcDbSymbolTableRecord
100
AcDbLayerTableRecord
  2
00_COMPONENTS
 70
0
 62
7
  6
CONTINUOUS
370
-3
390
F
  0
LAYER
  5
1FE
100
AcDbSymbolTableRecord
100
AcDbLayerTableRecord
  2
01_1_DEFAULT_DATUMS
 70
0
 62
7
  6
CONTINUOUS
370
-3
390
F
  0
LAYER
  5
1FF
100
AcDbSymbolTableRecord
100
AcDbLayerTableRecord
  2
01_PLANES
 70
0
 62
7
  6
CONTINUOUS
370
-3
390
F
  0
LAYER
  5
200
100
AcDbSymbolTableRecord
100
AcDbLayerTableRecord
  2
02_COORD_SYS
 70
0
 62
7
  6
CONTINUOUS
370
-3
390
F
  0
LAYER
  5
201
100
AcDbSymbolTableRecord
100
AcDbLayerTableRecord
  2
03_AXES
 70
0
 62
7
  6
CONTINUOUS
370
-3
390
F
  0
LAYER
  5
202
100
AcDbSymbolTableRecord
100
AcDbLayerTableRecord
  2
04_POINTS
 70
0
 62
7
  6
CONTINUOUS
370
-3
390
F
  0
LAYER
  5
203
100
AcDbSymbolTableRecord
100
AcDbLayerTableRecord
  2
05_CURVES
 70
0
 62
7
  6
CONTINUOUS
370
-3
390
F
  0
LAYER
  5
204
100
AcDbSymbolTableRecord
100
AcDbLayerTableRecord
  2
06_SURFS
 70
0
 62
7
  6
CONTINUOUS
370
-3
390
F
  0
LAYER
  5
205
100
AcDbSymbolTableRecord
100
AcDbLayerTableRecord
  2
07_COSMETICS
 70
0
 62
7
  6
CONTINUOUS
370
-3
390
F
  0
LAYER
  5
206
100
AcDbSymbolTableRecord
100
AcDbLayerTableRecord
  2
10_NOTES
 70
0
 62
7
  6
CONTINUOUS
370
-3
390
F
  0
LAYER
  5
207
100
AcDbSymbolTableRecord
100
AcDbLayerTableRecord
  2
11_NOTES_PUB
 70
0
 62
7
  6
CONTINUOUS
370
-3
390
F
  0
LAYER
  5
208
100
AcDbSymbolTableRecord
100
AcDbLayerTableRecord
  2
13_REF_GTOL
 70
0
 62
7
  6
CONTINUOUS
370
-3
390
F
  0
LAYER
  5
209
100
AcDbSymbolTableRecord
100
AcDbLayerTableRecord
  2
16_MISC
 70
0
 62
7
  6
CONTINUOUS
370
-3
390
F
  0
LAYER
  5
20A
100
AcDbSymbolTableRecord
100
AcDbLayerTableRecord
  2
17_NO_PRINT
 70
0
 62
7
  6
CONTINUOUS
370
-3
390
F
  0
LAYER
  5
20B
100
AcDbSymbolTableRecord
100
AcDbLayerTableRecord
  2
18_DATUM_CAMS_JOINTS
 70
0
 62
7
  6
CONTINUOUS
370
-3
390
F
  0
LAYER
  5
20C
100
AcDbSymbolTableRecord
100
AcDbLayerTableRecord
  2
19_DATUM_FUNCTIONAL
 70
0
 62
7
  6
CONTINUOUS
370
-3
390
F
  0
LAYER
  5
20D
100
AcDbSymbolTableRecord
100
AcDbLayerTableRecord
  2
20_DATUM_KINEMATIC_SCHEME
 70
0
 62
7
  6
CONTINUOUS
370
-3
390
F
  0
ENDTAB
  0
TABLE
  2
STYLE
  5
3
100
AcDbSymbolTable
 70
1
  0
STYLE
  5
11
100
AcDbSymbolTableRecord
100
AcDbTextStyleTableRecord
  2
STANDARD
 70
0
 40
0.0
 41
1.0
 50
0.0
 71
0
 42
0.2
  3
ARIAL.TTF
  4

  0
STYLE
  5
20E
100
AcDbSymbolTableRecord
100
AcDbTextStyleTableRecord
  2
TEXTSTYLE_1
 70
0
 40
0.0
 41
0.8
 50
0.0
 71
0
 42
0.2
  3
gdt
  4

  0
ENDTAB
  0
TABLE
  2
VIEW
  5
6
100
AcDbSymbolTable
 70
0
  0
ENDTAB
  0
TABLE
  2
UCS
  5
7
100
AcDbSymbolTable
 70
0
  0
ENDTAB
  0
TABLE
  2
APPID
  5
9
100
AcDbSymbolTable
 70
1
  0
APPID
  5
20F
100
AcDbSymbolTableRecord
100
AcDbRegAppTableRecord
  2
ACAD
 70
0
  0
ENDTAB
  0
TABLE
  2
BLOCK_RECORD
  5
1
100
AcDbSymbolTable
 70
0
  0
BLOCK_RECORD
  5
210
100
AcDbSymbolTableRecord
100
AcDbBlockTableRecord
  2
*Model_Space
  0
BLOCK_RECORD
  5
211
100
AcDbSymbolTableRecord
100
AcDbBlockTableRecord
  2
*Paper_Space
  0
BLOCK_RECORD
  5
212
100
AcDbSymbolTableRecord
100
AcDbBlockTableRecord
  2
_FILLED
  0
ENDTAB
  0
TABLE
  2
DIMSTYLE
  5
A
100
AcDbSymbolTable
 70
1
100
AcDbDimStyleTable
 71
0
  0
DIMSTYLE
105
213
100
AcDbSymbolTableRecord
100
AcDbDimStyleTableRecord
  2
STANDARD
 70
0
  3

  4

 40
1.0
 41
0.8759809306
 42
1.0
 43
0.38
 44
1.0
 45
0.0
 46
0.0
 47
0.01
 48
0.01
140
1.2263733029
141
0.09
142
0.0
143
25.4
144
1.0
145
0.0
146
1.0
147
0.625
 71
1
 72
0
 73
0
 74
0
 75
0
 76
0
 77
1
 78
8
 79
2
170
0
171
1
172
0
173
0
174
0
175
0
176
0
177
0
178
0
270
2
179
2
271
2
272
2
273
2
274
2
275
0
280
0
281
0
282
0
283
1
284
8
285
0
286
0
287
3
288
0
340
11
278
46
341
212
342
212
343
212
344
212
  0
ENDTAB
  0
ENDSEC
  0
SECTION
  2
BLOCKS
  0
BLOCK
  5
20
100
AcDbEntity
  8
0
100
AcDbBlockBegin
  2
*Model_Space
 70
0
 10
0.0
 20
0.0
 30
0.0
  3
*Model_Space
  1

  0
ENDBLK
  5
21
100
AcDbEntity
  8
0
100
AcDbBlockEnd
  0
BLOCK
  5
1C
100
AcDbEntity
  8
0
100
AcDbBlockBegin
  2
*Paper_Space
 70
0
 10
0.0
 20
0.0
 30
0.0
  3
*Paper_Space
  1

  0
ENDBLK
  5
1D
100
AcDbEntity
  8
0
100
AcDbBlockEnd
  0
BLOCK
  5
214
100
AcDbEntity
  8
0
100
AcDbBlockBegin
  2
_FILLED
 70
64
 10
0.0
 20
0.0
  3
_FILLED
  1

  0
SOLID
  5
215
100
AcDbEntity
  8
0
  6
BYBLOCK
 62
0
100
AcDbTrace
 10
0.0
 20
0.0
 11
-1.0
 21
0.25
 12
-1.0
 22
-0.25
 13
-1.0
 23
-0.25
  0
ENDBLK
  5
216
100
AcDbEntity
  8
0
  6
BYBLOCK
 62
0
100
AcDbBlockEnd
  0
ENDSEC
  0
SECTION
  2
ENTITIES
  0
LINE
  5
217
100
AcDbEntity
  8
0
100
AcDbLine
 62
7
  6
BYLAYER
 10
7.8133445155
 20
75.3339021884
 11
7.8133445155
 21
28.7380201181
  0
LINE
  5
218
100
AcDbEntity
  8
0
100
AcDbLine
 62
7
  6
BYLAYER
 10
7.8133445155
 20
27.5380201181
 11
7.8133445155
 21
28.5380201181
  0
LINE
  5
219
100
AcDbEntity
  8
0
100
AcDbLine
 62
7
  6
BYLAYER
 10
8.5133445155
 20
28.0580309744
 11
8.5133445151
 21
66.7314068296
  0
LINE
  5
21A
100
AcDbEntity
  8
0
100
AcDbLine
 62
7
  6
BYLAYER
 10
8.5133445149
 20
68.3446334064
 11
8.5133445155
 21
75.5862986492
  0
LINE
  5
21B
100
AcDbEntity
  8
0
100
AcDbLine
 62
7
  6
BYLAYER
 10
13.4383445155
 20
75.2333616739
 11
13.4383445155
 21
72.5926785623
  0
LINE
  5
21C
100
AcDbEntity
  8
0
100
AcDbLine
 62
7
  6
BYLAYER
 10
14.0383445155
 20
75.0380201181
 11
14.0383445155
 21
73.5380201181
  0
LINE
  5
21D
100
AcDbEntity
  8
0
100
AcDbLine
 62
7
  6
BYLAYER
 10
39.8533445155
 20
27.0380201181
 11
37.8133445155
 21
27.0380201181
  0
LINE
  5
21E
100
AcDbEntity
  8
0
100
AcDbLine
 62
7
  6
BYLAYER
 10
7.8133445155
 20
27.5380201181
 11
39.8533445155
 21
27.5380201181
  0
LINE
  5
21F
100
AcDbEntity
  8
0
100
AcDbLine
 62
7
  6
BYLAYER
 10
32.8133445155
 20
27.8380201181
 11
9.0133445155
 21
27.8380201181
  0
LINE
  5
220
100
AcDbEntity
  8
0
100
AcDbLine
 62
7
  6
BYLAYER
 10
7.8133445155
 20
28.5380201181
 11
39.8533445155
 21
28.5380201181
  0
LINE
  5
221
100
AcDbEntity
  8
0
100
AcDbLine
 62
7
  6
BYLAYER
 10
36.5063445155
 20
28.8380201181
 11
36.1278286198
 21
28.8380201181
  0
LINE
  5
222
100
AcDbEntity
  8
0
100
AcDbLine
 62
7
  6
BYLAYER
 10
14.8133445155
 20
77.0212629984
 11
14.8133445155
 21
77.5380201181
  0
LINE
  5
223
100
AcDbEntity
  8
0
100
AcDbLine
 62
7
  6
BYLAYER
 10
19.6723252147
 20
72.9595028813
 11
18.8428221162
 21
69.556607416
  0
LINE
  5
224
100
AcDbEntity
  8
0
100
AcDbLine
 62
7
  6
BYLAYER
 10
8.4453571938
 20
75.8784933173
 11
8.5133445155
 21
75.5862986492
  0
LINE
  5
225
100
AcDbEntity
  8
0
100
AcDbLine
 62
7
  6
BYLAYER
 10
19.6723228741
 20
72.9595038807
 11
19.6398562158
 21
73.4110845273
  0
LINE
  5
226
100
AcDbEntity
  8
0
100
AcDbLine
 62
7
  6
BYLAYER
 10
22.8133445283
 20
75.8800237626
 11
22.8133445282
 21
75.0380201181
  0
LINE
  5
227
100
AcDbEntity
  8
0
100
AcDbLine
 62
7
  6
BYLAYER
 10
25.9543661702
 20
72.9595037534
 11
25.9868421698
 21
73.4110338634
  0
LINE
  5
228
100
AcDbEntity
  8
0
100
AcDbLine
 62
7
  6
BYLAYER
 10
30.8133445155
 20
77.0212629984
 11
30.8133445155
 21
77.5380201181
  0
LINE
  5
229
100
AcDbEntity
  8
0
100
AcDbLine
 62
7
  6
BYLAYER
 10
31.5883445155
 20
75.0380201181
 11
31.5883445155
 21
73.5380201181
  0
LINE
  5
22A
100
AcDbEntity
  8
0
100
AcDbLine
 62
7
  6
BYLAYER
 10
37.1813318372
 20
75.8784933173
 11
37.1133445155
 21
75.5862986492
  0
LINE
  5
22B
100
AcDbEntity
  8
0
100
AcDbLine
 62
7
  6
BYLAYER
 10
25.9543538856
 20
72.9594992089
 11
26.783861435
 21
69.5565625863
  0
LINE
  5
22C
100
AcDbEntity
  8
0
100
AcDbLine
 62
7
  6
BYLAYER
 10
32.1883445155
 20
72.5926785623
 11
32.1883445155
 21
75.2333616739
  0
LINE
  5
22D
100
AcDbEntity
  8
0
100
AcDbLine
 62
7
  6
BYLAYER
 10
36.5063445155
 20
28.5380201181
 11
36.5063445155
 21
29.2791463072
  0
LINE
  5
22E
100
AcDbEntity
  8
0
100
AcDbLine
 62
7
  6
BYLAYER
 10
37.1133445155
 20
75.5862986492
 11
37.1133445158
 21
68.344633407
  0
LINE
  5
22F
100
AcDbEntity
  8
0
100
AcDbLine
 62
7
  6
BYLAYER
 10
37.1133445159
 20
66.7314068291
 11
37.1133445155
 21
31.6029295507
  0
LINE
  5
230
100
AcDbEntity
  8
0
100
AcDbLine
 62
7
  6
BYLAYER
 10
37.8133445155
 20
27.0380201181
 11
37.8133445155
 21
28.5380201181
  0
LINE
  5
231
100
AcDbEntity
  8
0
100
AcDbLine
 62
7
  6
BYLAYER
 10
37.8133445155
 20
32.5380380522
 11
37.8133445155
 21
75.3339021884
  0
LINE
  5
232
100
AcDbEntity
  8
0
100
AcDbLine
 62
7
  6
BYLAYER
 10
39.3533445155
 20
28.5380201181
 11
39.3533445155
 21
27.5380201181
  0
LINE
  5
233
100
AcDbEntity
  8
0
100
AcDbLine
 62
7
  6
BYLAYER
 10
39.8533445155
 20
27.0380201181
 11
39.8533445155
 21
28.655044455
  0
LINE
  5
234
100
AcDbEntity
  8
0
100
AcDbLine
 62
7
  6
BYLAYER
 10
8.808201658
 20
68.2893227808
 11
8.5133445151
 21
68.3446334062
  0
LINE
  5
235
100
AcDbEntity
  8
0
100
AcDbLine
 62
7
  6
BYLAYER
 10
54.9941756147
 20
31.8788766694
 11
52.5936394217
 21
38.8786928088
  0
LINE
  5
236
100
AcDbEntity
  8
0
100
AcDbLine
 62
7
  6
BYLAYER
 10
36.8184867541
 20
68.2893260804
 11
37.1133456468
 21
68.3446273773
  0
LINE
  5
237
100
AcDbEntity
  8
0
100
AcDbLine
 62
7
  6
BYLAYER
 10
8.7383487446
 20
67.538019902
 11
8.382090321
 21
67.5380204792
  0
LINE
  5
238
100
AcDbEntity
  8
0
100
AcDbLine
 62
7
  6
BYLAYER
 10
36.8883420738
 20
67.5380203031
 11
37.2445970538
 21
67.5380198309
  0
LINE
  5
239
100
AcDbEntity
  8
0
100
AcDbLine
 62
7
  6
BYLAYER
 10
36.8184873729
 20
66.786717455
 11
37.1133445158
 21
66.7314068295
  0
LINE
  5
23A
100
AcDbEntity
  8
0
100
AcDbLine
 62
7
  6
BYLAYER
 10
62.4763782943
 20
43.235086514
 11
66.0240873134
 21
36.7409537223
  0
LINE
  5
23B
100
AcDbEntity
  8
0
100
AcDbLine
 62
7
  6
BYLAYER
 10
8.808202394
 20
66.7867135319
 11
8.5133431755
 21
66.7314139713
  0
LINE
  5
23C
100
AcDbEntity
  8
0
100
AcDbLine
 62
7
  6
BYLAYER
 10
32.1883445155
 20
72.7880201181
 11
26.5404828402
 21
72.7880201181
  0
LINE
  5
23D
100
AcDbEntity
  8
0
100
AcDbLine
 62
7
  6
BYLAYER
 10
19.0862061908
 20
72.7880201181
 11
13.4383445155
 21
72.7880201181
  0
LINE
  5
23E
100
AcDbEntity
  8
0
100
AcDbLine
 62
7
  6
BYLAYER
 10
13.4383445155
 20
73.5380201181
 11
22.1258713949
 21
73.5380201181
  0
LINE
  5
23F
100
AcDbEntity
  8
0
100
AcDbLine
 62
7
  6
BYLAYER
 10
23.5008176306
 20
73.5380201181
 11
32.1883445155
 21
73.5380201181
  0
LINE
  5
240
100
AcDbEntity
  8
0
100
AcDbLine
 62
7
  6
BYLAYER
 10
13.4383445155
 20
75.0380201181
 11
32.1883445155
 21
75.0380201181
  0
LINE
  5
241
100
AcDbEntity
  8
0
100
AcDbLine
 62
7
  6
BYLAYER
 10
14.8133445155
 20
77.5380201181
 11
30.8133445155
 21
77.5380201181
  0
ARC
  5
242
100
AcDbEntity
  8
0
100
AcDbCircle
 62
7
  6
BYLAYER
 10
13.2406507754
 20
-103.981171439
 40
181.1474035218
100
AcDbArc
 50
82.2897452158
 51
82.4271887237
  0
ARC
  5
243
100
AcDbEntity
  8
0
100
AcDbCircle
 62
7
  6
BYLAYER
 10
22.8077757566
 20
7.5172541495
 40
68.3627698399
100
AcDbArc
 50
82.1131311803
 51
89.995332725
  0
ARC
  5
244
100
AcDbEntity
  8
0
100
AcDbCircle
 62
7
  6
BYLAYER
 10
22.8133445155
 20
14.1280201181
 40
63.4
100
AcDbArc
 50
76.67203841
 51
88.0383176703
  0
ARC
  5
245
100
AcDbEntity
  8
0
100
AcDbCircle
 62
7
  6
BYLAYER
 10
22.8133445155
 20
14.1280201181
 40
63.4
100
AcDbArc
 50
91.9616823297
 51
103.32796159
  0
ARC
  5
246
100
AcDbEntity
  8
0
100
AcDbCircle
 62
7
  6
BYLAYER
 10
22.8133445155
 20
14.1280201181
 40
63.1
100
AcDbArc
 50
76.9015825347
 51
103.0984174653
  0
ARC
  5
247
100
AcDbEntity
  8
0
100
AcDbCircle
 62
7
  6
BYLAYER
 10
12.8133445155
 20
67.5380201181
 40
4.375
100
AcDbArc
 50
190.6243314776
 51
169.3756685259
  0
CIRCLE
  5
248
100
AcDbEntity
  8
0
100
AcDbCircle
 62
7
  6
BYLAYER
 10
12.8133445155
 20
67.5380201181
 40
4.075
  0
CIRCLE
  5
249
100
AcDbEntity
  8
0
100
AcDbCircle
 62
7
  6
BYLAYER
 10
12.8133445155
 20
67.5380201181
 40
2.125
  0
ARC
  5
24A
100
AcDbEntity
  8
0
100
AcDbCircle
 62
7
  6
BYLAYER
 10
9.0852822531
 20
29.5645715283
 40
1.5455958213
100
AcDbArc
 50
221.3786172586
 51
223.3203298461
  0
ARC
  5
24B
100
AcDbEntity
  8
0
100
AcDbCircle
 62
7
  6
BYLAYER
 10
9.0133445155
 20
28.7380201181
 40
1.2
100
AcDbArc
 50
180.0
 51
189.1483317082
  0
ARC
  5
24C
100
AcDbEntity
  8
0
100
AcDbCircle
 62
7
  6
BYLAYER
 10
22.8133614342
 20
246.7541491057
 40
173.3721620731
100
AcDbArc
 50
268.9511629346
 51
271.0488258638
  0
ARC
  5
24D
100
AcDbEntity
  8
0
100
AcDbCircle
 62
7
  6
BYLAYER
 10
22.7744822421
 20
140.6444393081
 40
68.6998065381
100
AcDbArc
 50
273.3636708984
 51
277.8759609769
  0
ARC
  5
24E
100
AcDbEntity
  8
0
100
AcDbCircle
 62
7
  6
BYLAYER
 10
0.4357297467
 20
72.9731709934
 40
18.4081405313
100
AcDbArc
 50
357.1659146195
 51
359.4237075662
  0
ARC
  5
24F
100
AcDbEntity
  8
0
100
AcDbCircle
 62
7
  6
BYLAYER
 10
8.3133445155
 20
75.3339021884
 40
0.5
100
AcDbArc
 50
103.3279615896
 51
180.0
  0
ARC
  5
250
100
AcDbEntity
  8
0
100
AcDbCircle
 62
7
  6
BYLAYER
 10
33.2962860057
 20
-110.765922581
 40
187.9929371711
100
AcDbArc
 50
97.5753023499
 51
97.7077406528
  0
ARC
  5
251
100
AcDbEntity
  8
0
100
AcDbCircle
 62
7
  6
BYLAYER
 10
22.8189132743
 20
7.5172540183
 40
68.3627699695
100
AcDbArc
 50
90.0046672321
 51
97.8868688045
  0
ARC
  5
252
100
AcDbEntity
  8
0
100
AcDbCircle
 62
7
  6
BYLAYER
 10
32.8133445155
 20
32.5380201181
 40
5.0
100
AcDbArc
 50
306.1517201194
 51
0.0001027548
  0
ARC
  5
253
100
AcDbEntity
  8
0
100
AcDbCircle
 62
7
  6
BYLAYER
 10
32.6127407693
 20
32.1604571653
 40
4.5349963964
100
AcDbArc
 50
334.7213941102
 51
352.9382663268
  0
ARC
  5
254
100
AcDbEntity
  8
0
100
AcDbCircle
 62
7
  6
BYLAYER
 10
32.8133445155
 20
67.5380201181
 40
4.375
100
AcDbArc
 50
10.6243314824
 51
349.3756685166
  0
CIRCLE
  5
255
100
AcDbEntity
  8
0
100
AcDbCircle
 62
7
  6
BYLAYER
 10
32.8133445155
 20
67.5380201181
 40
4.075
  0
CIRCLE
  5
256
100
AcDbEntity
  8
0
100
AcDbCircle
 62
7
  6
BYLAYER
 10
32.8133445155
 20
67.5380201181
 40
2.125
  0
ARC
  5
257
100
AcDbEntity
  8
0
100
AcDbCircle
 62
7
  6
BYLAYER
 10
31.9133445155
 20
99.181162929
 40
71.15
100
AcDbArc
 50
288.9290332733
 51
298.6475371423
  0
ARC
  5
258
100
AcDbEntity
  8
0
100
AcDbCircle
 62
7
  6
BYLAYER
 10
22.8353258602
 20
140.4728852371
 40
68.5275578893
100
AcDbArc
 50
262.1183651061
 51
266.6420030186
  0
ARC
  5
259
100
AcDbEntity
  8
0
100
AcDbCircle
 62
7
  6
BYLAYER
 10
31.9133445155
 20
99.181162929
 40
63.75
100
AcDbArc
 50
288.9290332733
 51
298.6475371423
  0
ARC
  5
25A
100
AcDbEntity
  8
0
100
AcDbCircle
 62
7
  6
BYLAYER
 10
36.7533445155
 20
85.0680201181
 40
56.23
100
AcDbArc
 50
272.5831880098
 51
288.9290332733
  0
ARC
  5
25B
100
AcDbEntity
  8
0
100
AcDbCircle
 62
7
  6
BYLAYER
 10
36.7533445155
 20
85.0680201181
 40
48.83
100
AcDbArc
 50
271.0395019662
 51
288.9290332733
  0
ARC
  5
25C
100
AcDbEntity
  8
0
100
AcDbCircle
 62
7
  6
BYLAYER
 10
45.1910084232
 20
72.973185528
 40
18.4081906458
100
AcDbArc
 50
180.5763404133
 51
182.8341263666
  0
ARC
  5
25D
100
AcDbEntity
  8
0
100
AcDbCircle
 62
7
  6
BYLAYER
 10
37.3133445155
 20
75.3339021884
 40
0.5
100
AcDbArc
 50
0.0
 51
76.6720384104
  0
SPLINE
  5
25E
100
AcDbEntity
  8
0
100
AcDbSpline
 62
7
  6
BYLAYER
 70
0
 71
3
 72
11
 73
7
 74
0
 42
0.0000001
 43
0.0000001
 44
0.0000000001
 40
0.0
 40
0.0
 40
0.0
 40
0.0
 40
0.2496330654
 40
0.5000000008
 40
0.7503669354
 40
1.0
 40
1.0
 40
1.0
 40
1.0
 10
22.1258713949
 20
73.5380201181
 30
0.0
 10
22.2402827491
 20
73.5380204372
 30
0.0
 10
22.4694386303
 20
73.5365546545
 30
0.0
 10
22.8133445136
 20
73.5352430059
 30
0.0
 10
23.1572503955
 20
73.5365548281
 30
0.0
 10
23.3864062768
 20
73.5380204358
 30
0.0
 10
23.5008176306
 20
73.5380201181
 30
0.0
  0
SPLINE
  5
25F
100
AcDbEntity
  8
0
100
AcDbSpline
 62
7
  6
BYLAYER
 70
0
 71
3
 72
11
 73
7
 74
0
 42
0.0000001
 43
0.0000001
 44
0.0000000001
 40
0.0
 40
0.0
 40
0.0
 40
0.0
 40
0.3107798422
 40
0.59158137
 40
0.8258623253
 40
1.0
 40
1.0
 40
1.0
 40
1.0
 10
19.6398562158
 20
73.4110845273
 30
0.0
 10
19.5491916162
 20
73.4097942137
 30
0.0
 10
19.376616704
 20
73.4066834125
 30
0.0
 10
19.1357507884
 20
73.3997992312
 30
0.0
 10
18.9348388782
 20
73.3914392942
 30
0.0
 10
18.8158650653
 20
73.3842469073
 30
0.0
 10
18.7652543106
 20
73.3797882256
 30
0.0
  0
SPLINE
  5
260
100
AcDbEntity
  8
0
100
AcDbSpline
 62
7
  6
BYLAYER
 70
0
 71
3
 72
14
 73
10
 74
0
 42
0.0000001
 43
0.0000001
 44
0.0000000001
 40
0.0
 40
0.0
 40
0.0
 40
0.0
 40
0.0924776435
 40
0.1935929183
 40
0.3067070855
 40
0.4323275757
 40
0.5689171905
 40
0.7124788477
 40
1.0
 40
1.0
 40
1.0
 40
1.0
 10
8.1980821944
 20
75.8204354322
 30
0.0
 10
8.1878652389
 20
75.8180149809
 30
0.0
 10
8.167134361
 20
75.8097299086
 30
0.0
 10
8.139276288
 20
75.7881653123
 30
0.0
 10
8.1155273705
 20
75.7573123791
 30
0.0
 10
8.0967777726
 20
75.7187703718
 30
0.0
 10
8.0842148288
 20
75.6742338371
 30
0.0
 10
8.0755021121
 20
75.61022816
 30
0.0
 10
8.0779060258
 20
75.5608119914
 30
0.0
 10
8.0826608912
 20
75.5285154825
 30
0.0
  0
SPLINE
  5
261
100
AcDbEntity
  8
0
100
AcDbSpline
 62
7
  6
BYLAYER
 70
0
 71
3
 72
11
 73
7
 74
0
 42
0.0000001
 43
0.0000001
 44
0.0000000001
 40
0.0
 40
0.0
 40
0.0
 40
0.0
 40
0.2458009103
 40
0.4952668125
 40
0.7470657072
 40
1.0
 40
1.0
 40
1.0
 40
1.0
 10
20.6430910741
 20
77.4908641199
 30
0.0
 10
20.8224240229
 20
77.4970064886
 30
0.0
 10
21.1846227826
 20
77.4834641376
 30
0.0
 10
21.7265230697
 20
77.4204822229
 30
0.0
 10
22.2700251933
 20
77.3316498641
 30
0.0
 10
22.6320666158
 20
77.2631244324
 30
0.0
 10
22.8133445155
 20
77.2280201181
 30
0.0
  0
SPLINE
  5
262
100
AcDbEntity
  8
0
100
AcDbSpline
 62
7
  6
BYLAYER
 70
0
 71
3
 72
9
 73
5
 74
0
 42
0.0000001
 43
0.0000001
 44
0.0000000001
 40
0.0
 40
0.0
 40
0.0
 40
0.0
 40
0.4999997977
 40
1.0
 40
1.0
 40
1.0
 40
1.0
 10
26.5404828402
 20
72.7880201181
 30
0.0
 10
26.5461081383
 20
72.8141729663
 30
0.0
 10
26.5569435357
 20
72.866566273
 30
0.0
 10
26.5679849922
 20
72.9189186064
 30
0.0
 10
26.5731466098
 20
72.9451669265
 30
0.0
  0
SPLINE
  5
263
100
AcDbEntity
  8
0
100
AcDbSpline
 62
7
  6
BYLAYER
 70
0
 71
3
 72
9
 73
5
 74
0
 42
0.0000001
 43
0.0000001
 44
0.0000000001
 40
0.0
 40
0.0
 40
0.0
 40
0.0
 40
0.5003609809
 40
1.0
 40
1.0
 40
1.0
 40
1.0
 10
18.4756022306
 20
73.5380201181
 30
0.0
 10
18.5324801843
 20
73.5380201181
 30
0.0
 10
18.6478100249
 20
73.5097861599
 30
0.0
 10
18.736014102
 20
73.4284789169
 30
0.0
 10
18.7652691147
 20
73.3797971252
 30
0.0
  0
SPLINE
  5
264
100
AcDbEntity
  8
0
100
AcDbSpline
 62
7
  6
BYLAYER
 70
0
 71
3
 72
11
 73
7
 74
0
 42
0.0000001
 43
0.0000001
 44
0.0000000001
 40
0.0
 40
0.0
 40
0.0
 40
0.0
 40
0.2071036898
 40
0.4492476287
 40
0.7168570674
 40
1.0
 40
1.0
 40
1.0
 40
1.0
 10
26.5730900299
 20
72.9451780527
 30
0.0
 10
26.5303905463
 20
72.9466795385
 30
0.0
 10
26.4377297307
 20
72.9487479423
 30
0.0
 10
26.2898939371
 20
72.952659132
 30
0.0
 10
26.1263643382
 20
72.9566110755
 30
0.0
 10
26.0127583663
 20
72.9585068278
 30
0.0
 10
25.9543538856
 20
72.9594992089
 30
0.0
  0
SPLINE
  5
265
100
AcDbEntity
  8
0
100
AcDbSpline
 62
7
  6
BYLAYER
 70
0
 71
3
 72
13
 73
9
 74
0
 42
0.0000001
 43
0.0000001
 44
0.0000000001
 40
0.0
 40
0.0
 40
0.0
 40
0.0
 40
0.0886035889
 40
0.1818597082
 40
0.2839780767
 40
0.3984002478
 40
0.6706235246
 40
1.0
 40
1.0
 40
1.0
 40
1.0
 10
37.8133445155
 20
75.3339034476
 30
0.0
 10
37.8133407518
 20
75.3444836077
 30
0.0
 10
37.81027938
 20
75.366304508
 30
0.0
 10
37.7967326524
 20
75.3977627119
 30
0.0
 10
37.7744192474
 20
75.4276389364
 30
0.0
 10
37.7306611912
 20
75.4667264555
 30
0.0
 10
37.6534666354
 20
75.5063471595
 30
0.0
 10
37.5830044813
 20
75.5232378162
 30
0.0
 10
37.5440294947
 20
75.5285167937
 30
0.0
  0
SPLINE
  5
266
100
AcDbEntity
  8
0
100
AcDbSpline
 62
7
  6
BYLAYER
 70
0
 71
3
 72
9
 73
5
 74
0
 42
0.0000001
 43
0.0000001
 44
0.0000000001
 40
0.0
 40
0.0
 40
0.0
 40
0.0
 40
0.4999828148
 40
1.0
 40
1.0
 40
1.0
 40
1.0
 10
19.0535555764
 20
72.9451499107
 30
0.0
 10
19.0011634454
 20
73.0145468326
 30
0.0
 10
18.9019463379
 20
73.1575637434
 30
0.0
 10
18.8100727971
 20
73.305268354
 30
0.0
 10
18.7652691147
 20
73.3797971252
 30
0.0
  0
SPLINE
  5
267
100
AcDbEntity
  8
0
100
AcDbSpline
 62
7
  6
BYLAYER
 70
0
 71
3
 72
9
 73
5
 74
0
 42
0.0000001
 43
0.0000001
 44
0.0000000001
 40
0.0
 40
0.0
 40
0.0
 40
0.0
 40
0.500456281
 40
1.0
 40
1.0
 40
1.0
 40
1.0
 10
27.1510831366
 20
73.5380201181
 30
0.0
 10
27.0941959337
 20
73.5380201181
 30
0.0
 10
26.9788775908
 20
73.5097546064
 30
0.0
 10
26.8906684382
 20
73.4284671647
 30
0.0
 10
26.8614195693
 20
73.3797961642
 30
0.0
  0
SPLINE
  5
268
100
AcDbEntity
  8
0
100
AcDbSpline
 62
7
  6
BYLAYER
 70
0
 71
3
 72
14
 73
10
 74
0
 42
0.0000001
 43
0.0000001
 44
0.0000000001
 40
0.0
 40
0.0
 40
0.0
 40
0.0
 40
0.0264267763
 40
0.0797562981
 40
0.1634060418
 40
0.2771932851
 40
0.419831927
 40
0.5897336831
 40
1.0
 40
1.0
 40
1.0
 40
1.0
 10
26.0056953536
 20
73.5380201181
 30
0.0
 10
26.004552509
 20
73.5380203054
 30
0.0
 10
26.0019843662
 20
73.534752776
 30
0.0
 10
25.9999353311
 20
73.528385866
 30
0.0
 10
25.9972994347
 20
73.5176530105
 30
0.0
 10
25.9949589216
 20
73.5032075003
 30
0.0
 10
25.9926075797
 20
73.4848894183
 30
0.0
 10
25.9895380396
 20
73.4537924636
 30
0.0
 10
25.9878375174
 20
73.4287484514
 30
0.0
 10
25.9868421294
 20
73.4110341375
 30
0.0
  0
SPLINE
  5
269
100
AcDbEntity
  8
0
100
AcDbSpline
 62
7
  6
BYLAYER
 70
0
 71
3
 72
14
 73
10
 74
0
 42
0.0000001
 43
0.0000001
 44
0.0000000001
 40
0.0
 40
0.0
 40
0.0
 40
0.0
 40
0.0264000276
 40
0.0797240243
 40
0.163362205
 40
0.2771381251
 40
0.4197761761
 40
0.589690681
 40
1.0
 40
1.0
 40
1.0
 40
1.0
 10
19.6210403703
 20
73.538020118
 30
0.0
 10
19.6221819595
 20
73.5380203066
 30
0.0
 10
19.6247456133
 20
73.5347505308
 30
0.0
 10
19.6267951265
 20
73.5283882916
 30
0.0
 10
19.6294212733
 20
73.5176539752
 30
0.0
 10
19.6317439448
 20
73.5032083716
 30
0.0
 10
19.6340791689
 20
73.4848897457
 30
0.0
 10
19.6371445734
 20
73.453792956
 30
0.0
 10
19.6388536704
 20
73.4287492122
 30
0.0
 10
19.6398469546
 20
73.4110344529
 30
0.0
  0
SPLINE
  5
26A
100
AcDbEntity
  8
0
100
AcDbSpline
 62
7
  6
BYLAYER
 70
0
 71
3
 72
11
 73
7
 74
0
 42
0.0000001
 43
0.0000001
 44
0.0000000001
 40
0.0
 40
0.0
 40
0.0
 40
0.0
 40
0.2458002729
 40
0.4952662564
 40
0.7470649232
 40
1.0
 40
1.0
 40
1.0
 40
1.0
 10
24.9835979569
 20
77.4908641199
 30
0.0
 10
24.8042657498
 20
77.4970064632
 30
0.0
 10
24.4420708816
 20
77.4833842345
 30
0.0
 10
23.9001661093
 20
77.4204857348
 30
0.0
 10
23.3566556815
 20
77.3316926503
 30
0.0
 10
22.9946226975
 20
77.2631244871
 30
0.0
 10
22.8133445155
 20
77.2280201181
 30
0.0
  0
SPLINE
  5
26B
100
AcDbEntity
  8
0
100
AcDbSpline
 62
7
  6
BYLAYER
 70
0
 71
3
 72
9
 73
5
 74
0
 42
0.0000001
 43
0.0000001
 44
0.0000000001
 40
0.0
 40
0.0
 40
0.0
 40
0.0
 40
0.500307161
 40
1.0
 40
1.0
 40
1.0
 40
1.0
 10
32.8133445155
 20
27.8380200963
 30
0.0
 10
33.215816518
 20
27.838020608
 30
0.0
 10
34.024041119
 20
27.9444177051
 30
0.0
 10
34.7745803013
 20
28.2651143433
 30
0.0
 10
35.1185172057
 20
28.4731854045
 30
0.0
  0
SPLINE
  5
26C
100
AcDbEntity
  8
0
100
AcDbSpline
 62
7
  6
BYLAYER
 70
0
 71
3
 72
9
 73
5
 74
0
 42
0.0000001
 43
0.0000001
 44
0.0000000001
 40
0.0
 40
0.0
 40
0.0
 40
0.0
 40
0.5015545716
 40
1.0
 40
1.0
 40
1.0
 40
1.0
 10
35.1185172057
 20
28.4731854045
 30
0.0
 10
35.4609448272
 20
28.6803433968
 30
0.0
 10
36.0891561145
 20
29.1918946414
 30
0.0
 10
36.5434752126
 20
29.86435067
 30
0.0
 10
36.7134755563
 20
30.2239217233
 30
0.0
  0
SPLINE
  5
26D
100
AcDbEntity
  8
0
100
AcDbSpline
 62
7
  6
BYLAYER
 70
0
 71
3
 72
9
 73
5
 74
0
 42
0.0000001
 43
0.0000001
 44
0.0000000001
 40
0.0
 40
0.0
 40
0.0
 40
0.0
 40
0.4984166046
 40
1.0
 40
1.0
 40
1.0
 40
1.0
 10
8.646033341
 20
27.9366411821
 30
0.0
 10
8.6994589124
 20
27.9016716774
 30
0.0
 10
8.8203440935
 20
27.8514347497
 30
0.0
 10
8.9490861883
 20
27.8380219556
 30
0.0
 10
9.0133445155
 20
27.8380216188
 30
0.0
  0
SPLINE
  5
26E
100
AcDbEntity
  8
0
100
AcDbSpline
 62
7
  6
BYLAYER
 70
0
 71
3
 72
9
 73
5
 74
0
 42
0.0000001
 43
0.0000001
 44
0.0000000001
 40
0.0
 40
0.0
 40
0.0
 40
0.0
 40
0.2485822785
 40
1.0
 40
1.0
 40
1.0
 40
1.0
 10
8.5133438865
 20
28.0580304531
 30
0.0
 10
8.5228705355
 20
28.0465345597
 30
0.0
 10
8.5624794981
 20
28.001413656
 30
0.0
 10
8.6082708027
 20
27.9613561956
 30
0.0
 10
8.6460320709
 20
27.9366392416
 30
0.0
  0
SPLINE
  5
26F
100
AcDbEntity
  8
0
100
AcDbSpline
 62
7
  6
BYLAYER
 70
0
 71
3
 72
17
 73
13
 74
0
 42
0.0000001
 43
0.0000001
 44
0.0000000001
 40
0.0
 40
0.0
 40
0.0
 40
0.0
 40
0.0258938066
 40
0.060005476
 40
0.1022485347
 40
0.1515833844
 40
0.2671675235
 40
0.3990673196
 40
0.5416561621
 40
0.691072929
 40
0.8445741349
 40
1.0
 40
1.0
 40
1.0
 40
1.0
 10
37.8133445155
 20
32.5380379802
 30
0.0
 10
37.8133444889
 20
32.5279025221
 30
0.0
 10
37.8080596105
 20
32.5045715177
 30
0.0
 10
37.7920458279
 20
32.4678824891
 30
0.0
 10
37.7680609121
 20
32.4248381418
 30
0.0
 10
37.72431644
 20
32.3565426216
 30
0.0
 10
37.6561190748
 20
32.2623915952
 30
0.0
 10
37.5625696009
 20
32.141723579
 30
0.0
 10
37.4583664586
 20
32.0125843045
 30
0.0
 10
37.3472155073
 20
31.8782151594
 30
0.0
 10
37.2316504411
 20
31.7409838104
 30
0.0
 10
37.1529984682
 20
31.6491356867
 30
0.0
 10
37.1133445155
 20
31.6029972479
 30
0.0
  0
SPLINE
  5
270
100
AcDbEntity
  8
0
100
AcDbSpline
 62
7
  6
BYLAYER
 70
0
 71
3
 72
20
 73
16
 74
0
 42
0.0000001
 43
0.0000001
 44
0.0000000001
 40
0.0
 40
0.0
 40
0.0
 40
0.0
 40
0.0087416543
 40
0.015095183
 40
0.0232724122
 40
0.0458732454
 40
0.0776890732
 40
0.1193086971
 40
0.1704376463
 40
0.2305367476
 40
0.2990455177
 40
0.4576990715
 40
0.6352555229
 40
0.8195731709
 40
1.0
 40
1.0
 40
1.0
 40
1.0
 10
37.6991697937
 20
31.4756119435
 30
0.0
 10
37.6995444948
 20
31.4773355688
 30
0.0
 10
37.6982437209
 20
31.4805699614
 30
0.0
 10
37.6949672755
 20
31.483860488
 30
0.0
 10
37.6889453209
 20
31.4884029976
 30
0.0
 10
37.6776662556
 20
31.4941819114
 30
0.0
 10
37.6596591195
 20
31.5013705846
 30
0.0
 10
37.6357507472
 20
31.5091697681
 30
0.0
 10
37.6060727722
 20
31.5175755387
 30
0.0
 10
37.5708969446
 20
31.5264246634
 30
0.0
 10
37.5143672231
 20
31.5392541998
 30
0.0
 10
37.4342161458
 20
31.5549806526
 30
0.0
 10
37.3306836239
 20
31.5727039685
 30
0.0
 10
37.2224552512
 20
31.5888901274
 30
0.0
 10
37.1494877179
 20
31.5985297661
 30
0.0
 10
37.1133563888
 20
31.6029964117
 30
0.0
  0
SPLINE
  5
271
100
AcDbEntity
  8
0
100
AcDbSpline
 62
7
  6
BYLAYER
 70
0
 71
3
 72
9
 73
5
 74
0
 42
0.0000001
 43
0.0000001
 44
0.0000000001
 40
0.0
 40
0.0
 40
0.0
 40
0.0
 40
0.5004488971
 40
1.0
 40
1.0
 40
1.0
 40
1.0
 10
18.8423737463
 20
69.5565645415
 30
0.0
 10
18.8038721064
 20
69.9730955132
 30
0.0
 10
18.7830215057
 20
70.810372435
 30
0.0
 10
18.8113347087
 20
71.6455636675
 30
0.0
 10
18.8213354727
 20
72.0630000729
 30
0.0
  0
SPLINE
  5
272
100
AcDbEntity
  8
0
100
AcDbSpline
 62
7
  6
BYLAYER
 70
0
 71
3
 72
18
 73
14
 74
0
 42
0.0000001
 43
0.0000001
 44
0.0000000001
 40
0.0
 40
0.0
 40
0.0
 40
0.0
 40
0.0089430796
 40
0.0235200672
 40
0.0461641419
 40
0.0779930634
 40
0.1196079691
 40
0.170721368
 40
0.2307982396
 40
0.2992809913
 40
0.4578784939
 40
0.6353788905
 40
1.0
 40
1.0
 40
1.0
 40
1.0
 10
37.1133444587
 20
29.9865499057
 30
0.0
 10
37.1140590205
 20
29.9877541572
 30
0.0
 10
37.1138333036
 20
29.9918909957
 30
0.0
 10
37.1096786785
 20
29.9978663747
 30
0.0
 10
37.1022861845
 20
30.0057868947
 30
0.0
 10
37.0907671885
 20
30.0155042989
 30
0.0
 10
37.0751382373
 20
30.0271754966
 30
0.0
 10
37.0553696319
 20
30.040665483
 30
0.0
 10
37.0316670836
 20
30.0558244156
 30
0.0
 10
36.9932110618
 20
30.0791291175
 30
0.0
 10
36.9380557455
 20
30.110314913
 30
0.0
 10
36.8412162625
 20
30.1619031695
 30
0.0
 10
36.7650507846
 20
30.1994375331
 30
0.0
 10
36.7134374308
 20
30.2238410858
 30
0.0
  0
SPLINE
  5
273
100
AcDbEntity
  8
0
100
AcDbSpline
 62
7
  6
BYLAYER
 70
0
 71
3
 72
37
 73
33
 74
0
 42
0.0000001
 43
0.0000001
 44
0.0000000001
 40
0.0
 40
0.0
 40
0.0
 40
0.0
 40
0.0624931786
 40
0.1249743333
 40
0.1562308964
 40
0.187489273
 40
0.2187464324
 40
0.2500038977
 40
0.2812611713
 40
0.3125175338
 40
0.343772864
 40
0.3750259559
 40
0.4062748094
 40
0.4375161977
 40
0.4687433604
 40
0.4843724048
 40
0.5000002286
 40
0.515628156
 40
0.5312573444
 40
0.5624845479
 40
0.5937259477
 40
0.6249748109
 40
0.6562278952
 40
0.6874832017
 40
0.7187395534
 40
0.749996977
 40
0.7812545601
 40
0.8125115992
 40
0.8437698182
 40
0.8750261952
 40
0.9375068952
 40
1.0
 40
1.0
 40
1.0
 40
1.0
 10
26.7838601612
 20
69.5565624893
 30
0.0
 10
26.7565831464
 20
69.262397291
 30
0.0
 10
26.6739435674
 20
68.6760653868
 30
0.0
 10
26.4797299346
 20
67.960985712
 30
0.0
 10
26.2654320076
 20
67.4098560694
 30
0.0
 10
26.0768223245
 20
67.0083240526
 30
0.0
 10
25.863234896
 20
66.6195532263
 30
0.0
 10
25.6258975996
 20
66.2448048715
 30
0.0
 10
25.3652196232
 20
65.8858761082
 30
0.0
 10
25.0808295282
 20
65.5453685373
 30
0.0
 10
24.7716988026
 20
65.2270391489
 30
0.0
 10
24.4362099927
 20
64.9364179095
 30
0.0
 10
24.072403276
 20
64.6816802908
 30
0.0
 10
23.6789853924
 20
64.474923402
 30
0.0
 10
23.3266595227
 20
64.3571859597
 30
0.0
 10
23.0350839339
 20
64.3067965219
 30
0.0
 10
22.8133186095
 20
64.2937053138
 30
0.0
 10
22.5915530116
 20
64.3068027786
 30
0.0
 10
22.2999772241
 20
64.3571990008
 30
0.0
 10
21.9476533048
 20
64.4749451307
 30
0.0
 10
21.5542391266
 20
64.6817094134
 30
0.0
 10
21.1904360473
 20
64.9364522685
 30
0.0
 10
20.8549508618
 20
65.2270774703
 30
0.0
 10
20.5458229738
 20
65.5454092848
 30
0.0
 10
20.2614346335
 20
65.8859189989
 30
0.0
 10
20.0007591897
 20
66.2448513075
 30
0.0
 10
19.7634280639
 20
66.6196040259
 30
0.0
 10
19.549834495
 20
67.0083710564
 30
0.0
 10
19.3612471551
 20
67.4099108968
 30
0.0
 10
19.1469310103
 20
67.9610291411
 30
0.0
 10
18.9527428435
 20
68.6761135547
 30
0.0
 10
18.870097946
 20
69.2624410286
 30
0.0
 10
18.8428216904
 20
69.5566059467
 30
0.0
  0
SPLINE
  5
274
100
AcDbEntity
  8
0
100
AcDbSpline
 62
7
  6
BYLAYER
 70
0
 71
3
 72
9
 73
5
 74
0
 42
0.0000001
 43
0.0000001
 44
0.0000000001
 40
0.0
 40
0.0
 40
0.0
 40
0.0
 40
0.2647855797
 40
1.0
 40
1.0
 40
1.0
 40
1.0
 10
7.9255323444
 20
28.5428834193
 30
0.0
 10
7.9207114549
 20
28.5483687192
 30
0.0
 10
7.9026797798
 20
28.5692359094
 30
0.0
 10
7.88536859
 20
28.5907410732
 30
0.0
 10
7.8733022045
 20
28.6070370389
 30
0.0
  0
SPLINE
  5
275
100
AcDbEntity
  8
0
100
AcDbSpline
 62
7
  6
BYLAYER
 70
0
 71
3
 72
10
 73
6
 74
0
 42
0.0000001
 43
0.0000001
 44
0.0000000001
 40
0.0
 40
0.0
 40
0.0
 40
0.0
 40
0.3071202539
 40
0.5737617913
 40
1.0
 40
1.0
 40
1.0
 40
1.0
 10
7.8733022045
 20
28.6070370389
 30
0.0
 10
7.8644229443
 20
28.6190287093
 30
0.0
 10
7.8484547532
 20
28.6419867563
 30
0.0
 10
7.8244996124
 20
28.6840278813
 30
0.0
 10
7.8133445155
 20
28.7173117012
 30
0.0
 10
7.8133445155
 20
28.7380201181
 30
0.0
  0
SPLINE
  5
276
100
AcDbEntity
  8
0
100
AcDbSpline
 62
7
  6
BYLAYER
 70
0
 71
3
 72
9
 73
5
 74
0
 42
0.0000001
 43
0.0000001
 44
0.0000000001
 40
0.0
 40
0.0
 40
0.0
 40
0.0
 40
0.4995510546
 40
1.0
 40
1.0
 40
1.0
 40
1.0
 10
26.8053535582
 20
72.0630000729
 30
0.0
 10
26.8153544961
 20
71.6455564021
 30
0.0
 10
26.8436683464
 20
70.8103505692
 30
0.0
 10
26.8228155027
 20
69.9730589142
 30
0.0
 10
26.7843112371
 20
69.5565207924
 30
0.0
  0
SPLINE
  5
277
100
AcDbEntity
  8
0
100
AcDbSpline
 62
7
  6
BYLAYER
 70
0
 71
3
 72
9
 73
5
 74
0
 42
0.0000001
 43
0.0000001
 44
0.0000000001
 40
0.0
 40
0.0
 40
0.0
 40
0.0
 40
0.499992657
 40
1.0
 40
1.0
 40
1.0
 40
1.0
 10
37.2445945157
 20
67.5380201208
 30
0.0
 10
37.2445842993
 20
67.674654065
 30
0.0
 10
37.2219736098
 20
67.9483788652
 30
0.0
 10
37.1559823372
 20
68.2148183555
 30
0.0
 10
37.1133445155
 20
68.3446334073
 30
0.0
  0
SPLINE
  5
278
100
AcDbEntity
  8
0
100
AcDbSpline
 62
7
  6
BYLAYER
 70
0
 71
3
 72
14
 73
10
 74
0
 42
0.0000001
 43
0.0000001
 44
0.0000000001
 40
0.0
 40
0.0
 40
0.0
 40
0.0
 40
0.0902796516
 40
0.1894059808
 40
0.300840238
 40
0.4253862458
 40
0.5619475959
 40
0.7066836357
 40
1.0
 40
1.0
 40
1.0
 40
1.0
 10
37.4286068367
 20
75.8204354322
 30
0.0
 10
37.4385809273
 20
75.8180725169
 30
0.0
 10
37.4588814083
 20
75.8100534748
 30
0.0
 10
37.4863776441
 20
75.7891395498
 30
0.0
 10
37.5101197636
 20
75.7589727872
 30
0.0
 10
37.5291037003
 20
75.7208950064
 30
0.0
 10
37.5420233769
 20
75.6764474413
 30
0.0
 10
37.5512318929
 20
75.6117083221
 30
0.0
 10
37.5488788289
 20
75.561462857
 30
0.0
 10
37.5440281403
 20
75.5285154859
 30
0.0
  0
SPLINE
  5
279
100
AcDbEntity
  8
0
100
AcDbSpline
 62
7
  6
BYLAYER
 70
0
 71
3
 72
9
 73
5
 74
0
 42
0.0000001
 43
0.0000001
 44
0.0000000001
 40
0.0
 40
0.0
 40
0.0
 40
0.0
 40
0.4999952154
 40
1.0
 40
1.0
 40
1.0
 40
1.0
 10
8.3820945153
 20
67.5380201179
 30
0.0
 10
8.3821044788
 20
67.4013851551
 30
0.0
 10
8.4046933557
 20
67.1276572703
 30
0.0
 10
8.4707039719
 20
66.8612205874
 30
0.0
 10
8.5133445155
 20
66.7314068291
 30
0.0
  0
SPLINE
  5
27A
100
AcDbEntity
  8
0
100
AcDbSpline
 62
7
  6
BYLAYER
 70
0
 71
3
 72
13
 73
9
 74
0
 42
0.0000001
 43
0.0000001
 44
0.0000000001
 40
0.0
 40
0.0
 40
0.0
 40
0.0
 40
0.3293729145
 40
0.6016022966
 40
0.716021638
 40
0.8181357837
 40
0.9113910031
 40
1.0
 40
1.0
 40
1.0
 40
1.0
 10
8.0826607134
 20
75.5285171749
 30
0.0
 10
8.0436860333
 20
75.5232385266
 30
0.0
 10
7.9732237146
 20
75.5063466683
 30
0.0
 10
7.8960286824
 20
75.466726952
 30
0.0
 10
7.8522700003
 20
75.4276400674
 30
0.0
 10
7.8299573148
 20
75.3977643319
 30
0.0
 10
7.8164112036
 20
75.366305764
 30
0.0
 10
7.8133492686
 20
75.3444845565
 30
0.0
 10
7.8133445156
 20
75.3339037302
 30
0.0
  0
SPLINE
  5
27B
100
AcDbEntity
  8
0
100
AcDbSpline
 62
7
  6
BYLAYER
 70
0
 71
3
 72
9
 73
5
 74
0
 42
0.0000001
 43
0.0000001
 44
0.0000000001
 40
0.0
 40
0.0
 40
0.0
 40
0.0
 40
0.4999817856
 40
1.0
 40
1.0
 40
1.0
 40
1.0
 10
26.5731466098
 20
72.9451669265
 30
0.0
 10
26.6255394456
 20
73.0145584081
 30
0.0
 10
26.724749279
 20
73.1575717017
 30
0.0
 10
26.8166149131
 20
73.3052721314
 30
0.0
 10
26.8614195693
 20
73.3797961642
 30
0.0
  0
SPLINE
  5
27C
100
AcDbEntity
  8
0
100
AcDbSpline
 62
7
  6
BYLAYER
 70
0
 71
3
 72
11
 73
7
 74
0
 42
0.0000001
 43
0.0000001
 44
0.0000000001
 40
0.0
 40
0.0
 40
0.0
 40
0.0
 40
0.1741316873
 40
0.4084038414
 40
0.6892143315
 40
1.0
 40
1.0
 40
1.0
 40
1.0
 10
26.8614500959
 20
73.3797778112
 30
0.0
 10
26.8108401886
 20
73.384234185
 30
0.0
 10
26.6918687811
 20
73.3914204843
 30
0.0
 10
26.490956399
 20
73.399795414
 30
0.0
 10
26.2500846487
 20
73.4066559125
 30
0.0
 10
26.0775032592
 20
73.4097724224
 30
0.0
 10
25.986835783
 20
73.4110678957
 30
0.0
  0
SPLINE
  5
27D
100
AcDbEntity
  8
0
100
AcDbSpline
 62
7
  6
BYLAYER
 70
0
 71
3
 72
11
 73
7
 74
0
 42
0.0000001
 43
0.0000001
 44
0.0000000001
 40
0.0
 40
0.0
 40
0.0
 40
0.0
 40
0.28313955
 40
0.5507547587
 40
0.7928992781
 40
1.0
 40
1.0
 40
1.0
 40
1.0
 10
19.6723252146
 20
72.9595028812
 30
0.0
 10
19.6139244501
 20
72.9584646273
 30
0.0
 10
19.5003228168
 20
72.9565473145
 30
0.0
 10
19.3367973778
 20
72.9526590828
 30
0.0
 10
19.1889657917
 20
72.948773452
 30
0.0
 10
19.096310134
 20
72.9466632142
 30
0.0
 10
19.0536129072
 20
72.9451611851
 30
0.0
  0
SPLINE
  5
27E
100
AcDbEntity
  8
0
100
AcDbSpline
 62
7
  6
BYLAYER
 70
0
 71
3
 72
9
 73
5
 74
0
 42
0.0000001
 43
0.0000001
 44
0.0000000001
 40
0.0
 40
0.0
 40
0.0
 40
0.0
 40
0.5000047876
 40
1.0
 40
1.0
 40
1.0
 40
1.0
 10
37.1133445155
 20
66.7314068291
 30
0.0
 10
37.1559854165
 20
66.8612204703
 30
0.0
 10
37.2219954454
 20
67.127657343
 30
0.0
 10
37.244584511
 20
67.4013851593
 30
0.0
 10
37.2445945157
 20
67.5380201208
 30
0.0
  0
SPLINE
  5
27F
100
AcDbEntity
  8
0
100
AcDbSpline
 62
7
  6
BYLAYER
 70
0
 71
3
 72
9
 73
5
 74
0
 42
0.0000001
 43
0.0000001
 44
0.0000000001
 40
0.0
 40
0.0
 40
0.0
 40
0.0
 40
0.5000002133
 40
1.0
 40
1.0
 40
1.0
 40
1.0
 10
19.0535555764
 20
72.9451499107
 30
0.0
 10
19.0587168088
 20
72.9189047954
 30
0.0
 10
19.0697436646
 20
72.8665560408
 30
0.0
 10
19.0805815736
 20
72.814169819
 30
0.0
 10
19.0862061908
 20
72.7880201181
 30
0.0
  0
SPLINE
  5
280
100
AcDbEntity
  8
0
100
AcDbSpline
 62
7
  6
BYLAYER
 70
0
 71
3
 72
23
 73
19
 74
0
 42
0.0000001
 43
0.0000001
 44
0.0000000001
 40
0.0
 40
0.0
 40
0.0
 40
0.0
 40
0.0311110879
 40
0.0622969192
 40
0.1247605786
 40
0.1872732074
 40
0.2498057589
 40
0.3123483925
 40
0.3748965132
 40
0.4999998799
 40
0.6251032726
 40
0.6876514123
 40
0.7501940543
 40
0.8127266093
 40
0.875239231
 40
0.9377028467
 40
0.9688886337
 40
1.0
 40
1.0
 40
1.0
 40
1.0
 10
25.9543538851
 20
72.9594992089
 30
0.0
 10
25.8893568785
 20
72.9640922794
 30
0.0
 10
25.7589662103
 20
72.9698346614
 30
0.0
 10
25.4976934825
 20
72.9742388067
 30
0.0
 10
25.1706037991
 20
72.9712546878
 30
0.0
 10
24.7779679271
 20
72.9634891538
 30
0.0
 10
24.3851857798
 20
72.9544550538
 30
0.0
 10
23.9923180449
 20
72.9460114963
 30
0.0
 10
23.4683816863
 20
72.9372260719
 30
0.0
 10
22.8133403543
 20
72.9330999065
 30
0.0
 10
22.15829897
 20
72.9372256981
 30
0.0
 10
21.6343625204
 20
72.9460123563
 30
0.0
 10
21.2414947062
 20
72.9544550561
 30
0.0
 10
20.8487125481
 20
72.9634896044
 30
0.0
 10
20.4560767911
 20
72.9712541272
 30
0.0
 10
20.1289872289
 20
72.9742398265
 30
0.0
 10
19.8677142633
 20
72.9698321389
 30
0.0
 10
19.7373227936
 20
72.9640961252
 30
0.0
 10
19.6723252147
 20
72.9595028813
 30
0.0
  0
SPLINE
  5
281
100
AcDbEntity
  8
0
100
AcDbSpline
 62
7
  6
BYLAYER
 70
0
 71
3
 72
9
 73
5
 74
0
 42
0.0000001
 43
0.0000001
 44
0.0000000001
 40
0.0
 40
0.0
 40
0.0
 40
0.0
 40
0.500005138
 40
1.0
 40
1.0
 40
1.0
 40
1.0
 10
8.5133445155
 20
68.3446334068
 30
0.0
 10
8.4706971334
 20
68.2148220958
 30
0.0
 10
8.4047195004
 20
67.9483782592
 30
0.0
 10
8.3821017737
 20
67.6746546971
 30
0.0
 10
8.3820945153
 20
67.5380201179
 30
0.0
  0
ENDSEC
  0
SECTION
  2
OBJECTS
  0
DICTIONARY
  5
C
100
AcDbDictionary
280
0
281
1
  3
ACAD_GROUP
350
D
  3
ACAD_MLINESTYLE
350
17
  3
ACAD_LAYOUT
350
1A
  3
ACAD_PLOTSETTINGS
350
19
  3
ACAD_PLOTSTYLENAME
350
E
  0
DICTIONARY
  5
D
102
{ACAD_REACTORS
330
C
102
}
100
AcDbDictionary
280
0
281
1
  0
ACDBDICTIONARYWDFLT
  5
E
102
{ACAD_REACTORS
330
C
102
}
100
AcDbDictionary
281
1
  3
Normal
350
F
100
AcDbDictionaryWithDefault
340
F
  0
DICTIONARY
  5
17
102
{ACAD_REACTORS
330
C
102
}
100
AcDbDictionary
280
0
281
1
  3
Standard
350
18
  0
DICTIONARY
  5
19
102
{ACAD_REACTORS
330
C
102
}
100
AcDbDictionary
281
1
  0
DICTIONARY
  5
1A
102
{ACAD_REACTORS
330
C
102
}
100
AcDbDictionary
281
1
  3
Model
350
282
  3
Layout1
350
283
  0
ACDBPLACEHOLDER
  5
F
102
{ACAD_REACTORS
330
E
102
}
  0
MLINESTYLE
  5
18
102
{ACAD_REACTORS
330
17
102
}
100
AcDbMlineStyle
  2
STANDARD
 70
0
  3

 62
256
 51
90.0
 52
90.0
 71
2
 49
0.5
 62
256
  6
BYLAYER
 49
-0.5
 62
256
  6
BYLAYER
  0
LAYOUT
  5
282
102
{ACAD_REACTORS
330
1A
102
}
100
AcDbPlotSettings
  1

  2
none_device
  4

  6

 40
0.0
 41
0.0
 42
0.0
 43
0.0
 44
210.0
 45
297.0
 46
0.0
 47
0.0
 48
0.0
 49
0.0
140
0.0
141
0.0
142
1.0
143
1.0
 70
1024
 72
1
 73
0
 74
0
  7

 75
0
147
1.0
148
0.0
149
0.0
100
AcDbLayout
  1
Model
 70
0
 71
0
 10
0.0
 20
0.0
 11
210.0
 21
297.0
 12
0.0
 22
0.0
 32
0.0
 14
0.0
 24
0.0
 34
0.0
 15
0.0
 25
0.0
 35
0.0
146
0.0
 13
0.0
 23
0.0
 33
0.0
 16
1.0
 26
0.0
 36
0.0
 17
0.0
 27
1.0
 37
0.0
 76
0
330
210
345
0
346
0
  0
LAYOUT
  5
283
102
{ACAD_REACTORS
330
1A
102
}
100
AcDbPlotSettings
  1

  2
none_device
  4

  6

 40
0.0
 41
0.0
 42
0.0
 43
0.0
 44
210.0
 45
297.0
 46
0.0
 47
0.0
 48
0.0
 49
0.0
140
0.0
141
0.0
142
1.0
143
1.0
 70
0
 72
1
 73
0
 74
0
  7

 75
0
147
1.0
148
0.0
149
0.0
100
AcDbLayout
  1
Layout1
 70
0
 71
1
 10
0.0
 20
0.0
 11
210.0
 21
297.0
 12
0.0
 22
0.0
 32
0.0
 14
0.0
 24
0.0
 34
0.0
 15
0.0
 25
0.0
 35
0.0
146
0.0
 13
0.0
 23
0.0
 33
0.0
 16
1.0
 26
0.0
 36
0.0
 17
0.0
 27
1.0
 37
0.0
 76
0
330
211
345
0
346
0
  0
ENDSEC
  0
EOF
