999
DXF file: C:\Users\sesa63760\Dev\_Creo\CAD\MCADID0004831_3D-CAD\drw0001_2.dxf
999
Pro/ENGINEER 2019471 by Parametric Technology Corporation
  0
SECTION
  2
HEADER
  9
$ACADVER
  1
AC1024
  9
$DWGCODEPAGE
  3
ANSI_1252
  9
$EXTMAX
 10
53.394197971
 20
75.5146514161
 30
0.0
  9
$EXTMIN
 10
0.0
 20
0.0
 30
0.0
  9
$LIMMIN
 10
0.0
 20
0.0
  9
$LIMMAX
 10
53.394197971
 20
75.5146514161
  9
$VIEWCTR
 10
26.6970989855
 20
37.7573257081
  9
$VIEWSIZE
 40
75.5146514161
  9
$CLAYER
  8
0
  9
$LTSCALE
 40
4.9224365368
  9
$CELTYPE
  6
BYLAYER
  9
$DIMSCALE
 40
1.0
  9
$DIMASZ
 40
0.6356452139
  9
$DIMEXO
 40
1.0
  9
$DIMDLI
 40
3.4009561527
  9
$DIMEXE
 40
1.0
  9
$DIMCEN
 40
0.8054896151
  9
$DIMLFAC
 40
1.0
  9
$DIMBLK
  1
_FILLED
  9
$DIMALT
 70
0
  9
$DIMALTF
 40
0.0393700787
  9
$DIMTXT
 40
0.8899032995
  9
$DIMTOL
 70
1
  9
$DIMLIM
 70
0
  9
$DIMTFAC
 40
1.0
  9
$DIMTP
 40
0.01
  9
$DIMTM
 40
0.01
  9
$DIMGAP
 40
0.625
  9
$DIMDSEP
 70
46
  9
$AUNITS
 70
0
  9
$PDMODE
 70
3
  9
$PDSIZE
 40
0.3125
  9
$HANDSEED
  5
2C7
  9
$TILEMODE
 70
1
  9
$MEASUREMENT
 70
1
  9
$INSUNITS
 70
4
  0
ENDSEC
  0
SECTION
  2
CLASSES
  0
CLASS
  1
ACDBDICTIONARYWDFLT
  2
AcDbDictionaryWithDefault
  3
AutoCAD 2000
 90
0
 91
1
280
0
281
0
  0
CLASS
  1
ACDBPLACEHOLDER
  2
AcDbPlaceHolder
  3
AutoCAD 2000
 90
0
 91
1
280
0
281
0
  0
CLASS
  1
LAYOUT
  2
AcDbLayout
  3
AutoCAD 2000
 90
0
 91
0
280
0
281
0
  0
ENDSEC
  0
SECTION
  2
TABLES
  0
TABLE
  2
VPORT
  5
8
100
AcDbSymbolTable
 70
2
  0
VPORT
  5
1F4
100
AcDbSymbolTableRecord
100
AcDbViewportTableRecord
  2
*ACTIVE
 70
0
 10
0.0
 20
0.0
 11
1.0
 21
1.0
 12
26.6970989855
 22
37.7573257081
 13
0.0
 23
0.0
 14
1.0
 24
1.0
 15
0.0
 25
0.0
 16
0.0
 26
0.0
 36
1.0
 17
0.0
 27
0.0
 37
0.0
 40
75.5146514161
 41
0.7070707071
 42
50.0
 43
0.0
 44
0.0
 50
0.0
 51
0.0
 71
0
 72
100
 73
1
 74
1
 75
0
 76
0
 77
0
 78
0
  0
ENDTAB
  0
TABLE
  2
LTYPE
  5
5
100
AcDbSymbolTable
 70
6
  0
LTYPE
  5
14
100
AcDbSymbolTableRecord
100
AcDbLinetypeTableRecord
  2
BYBLOCK
 70
0
  3

 72
65
 73
0
 40
0.0
  0
LTYPE
  5
15
100
AcDbSymbolTableRecord
100
AcDbLinetypeTableRecord
  2
BYLAYER
 70
0
  3

 72
65
 73
0
 40
0.0
  0
LTYPE
  5
16
100
AcDbSymbolTableRecord
100
AcDbLinetypeTableRecord
  2
CONTINUOUS
 70
64
  3
Solid line
 72
65
 73
0
 40
0.0
  0
LTYPE
  5
1F5
100
AcDbSymbolTableRecord
100
AcDbLinetypeTableRecord
  2
CENTER
 70
64
  3
____ _ ____ _ ____ _ ____ _ ____ _ ____ _ ____
 72
65
 73
4
 40
0.6
 49
0.375
 74
0
 49
-0.075
 74
0
 49
0.075
 74
0
 49
-0.075
 74
0
  0
LTYPE
  5
1F6
100
AcDbSymbolTableRecord
100
AcDbLinetypeTableRecord
  2
HIDDEN
 70
64
  3
- - - - - - - - - - - - - - - - - - - -
 72
65
 73
2
 40
0.2
 49
0.1
 74
0
 49
-0.1
 74
0
  0
LTYPE
  5
1F7
100
AcDbSymbolTableRecord
100
AcDbLinetypeTableRecord
  2
PHANTOM
 70
64
  3
_____ _ _ _____ _ _ _____ _ _ _____
 72
65
 73
6
 40
0.8
 49
0.45
 74
0
 49
-0.05
 74
0
 49
0.1
 74
0
 49
-0.05
 74
0
 49
0.1
 74
0
 49
-0.05
 74
0
  0
LTYPE
  5
1F8
100
AcDbSymbolTableRecord
100
AcDbLinetypeTableRecord
  2
DOT
 70
64
  3
. . . . . . . . . . . . . . . . . . . .
 72
65
 73
2
 40
0.2
 49
0.1
 74
0
 49
-0.1
 74
0
  0
LTYPE
  5
1F9
100
AcDbSymbolTableRecord
100
AcDbLinetypeTableRecord
  2
DASHED
 70
64
  3
- - - - - - - - - - - - - - - - - - - -
 72
65
 73
2
 40
0.2
 49
0.1
 74
0
 49
-0.1
 74
0
  0
ENDTAB
  0
TABLE
  2
LAYER
  5
2
100
AcDbSymbolTable
 70
36
  0
LAYER
  5
10
100
AcDbSymbolTableRecord
100
AcDbLayerTableRecord
  2
0
 70
0
 62
7
  6
CONTINUOUS
370
-3
390
F
  0
LAYER
  5
1FA
100
AcDbSymbolTableRecord
100
AcDbLayerTableRecord
  2
DEFAULT_1
 70
0
 62
7
  6
CENTER
370
-3
390
F
  0
LAYER
  5
1FB
100
AcDbSymbolTableRecord
100
AcDbLayerTableRecord
  2
DEFAULT_2
 70
0
 62
7
  6
HIDDEN
370
-3
390
F
  0
LAYER
  5
1FC
100
AcDbSymbolTableRecord
100
AcDbLayerTableRecord
  2
DEFAULT_3
 70
0
 62
7
  6
PHANTOM
370
-3
390
F
  0
LAYER
  5
1FD
100
AcDbSymbolTableRecord
100
AcDbLayerTableRecord
  2
00_COMPONENTS
 70
0
 62
7
  6
CONTINUOUS
370
-3
390
F
  0
LAYER
  5
1FE
100
AcDbSymbolTableRecord
100
AcDbLayerTableRecord
  2
01_1_DEFAULT_DATUMS
 70
0
 62
7
  6
CONTINUOUS
370
-3
390
F
  0
LAYER
  5
1FF
100
AcDbSymbolTableRecord
100
AcDbLayerTableRecord
  2
01_PLANES
 70
0
 62
7
  6
CONTINUOUS
370
-3
390
F
  0
LAYER
  5
200
100
AcDbSymbolTableRecord
100
AcDbLayerTableRecord
  2
02_COORD_SYS
 70
0
 62
7
  6
CONTINUOUS
370
-3
390
F
  0
LAYER
  5
201
100
AcDbSymbolTableRecord
100
AcDbLayerTableRecord
  2
03_AXES
 70
0
 62
7
  6
CONTINUOUS
370
-3
390
F
  0
LAYER
  5
202
100
AcDbSymbolTableRecord
100
AcDbLayerTableRecord
  2
04_POINTS
 70
0
 62
7
  6
CONTINUOUS
370
-3
390
F
  0
LAYER
  5
203
100
AcDbSymbolTableRecord
100
AcDbLayerTableRecord
  2
05_CURVES
 70
0
 62
7
  6
CONTINUOUS
370
-3
390
F
  0
LAYER
  5
204
100
AcDbSymbolTableRecord
100
AcDbLayerTableRecord
  2
06_SURFS
 70
0
 62
7
  6
CONTINUOUS
370
-3
390
F
  0
LAYER
  5
205
100
AcDbSymbolTableRecord
100
AcDbLayerTableRecord
  2
07_COSMETICS
 70
0
 62
7
  6
CONTINUOUS
370
-3
390
F
  0
LAYER
  5
206
100
AcDbSymbolTableRecord
100
AcDbLayerTableRecord
  2
10_NOTES
 70
0
 62
7
  6
CONTINUOUS
370
-3
390
F
  0
LAYER
  5
207
100
AcDbSymbolTableRecord
100
AcDbLayerTableRecord
  2
11_NOTES_PUB
 70
0
 62
7
  6
CONTINUOUS
370
-3
390
F
  0
LAYER
  5
208
100
AcDbSymbolTableRecord
100
AcDbLayerTableRecord
  2
13_REF_GTOL
 70
0
 62
7
  6
CONTINUOUS
370
-3
390
F
  0
LAYER
  5
209
100
AcDbSymbolTableRecord
100
AcDbLayerTableRecord
  2
16_MISC
 70
0
 62
7
  6
CONTINUOUS
370
-3
390
F
  0
LAYER
  5
20A
100
AcDbSymbolTableRecord
100
AcDbLayerTableRecord
  2
17_NO_PRINT
 70
0
 62
7
  6
CONTINUOUS
370
-3
390
F
  0
LAYER
  5
20B
100
AcDbSymbolTableRecord
100
AcDbLayerTableRecord
  2
18_DATUM_CAMS_JOINTS
 70
0
 62
7
  6
CONTINUOUS
370
-3
390
F
  0
LAYER
  5
20C
100
AcDbSymbolTableRecord
100
AcDbLayerTableRecord
  2
19_DATUM_FUNCTIONAL
 70
0
 62
7
  6
CONTINUOUS
370
-3
390
F
  0
LAYER
  5
20D
100
AcDbSymbolTableRecord
100
AcDbLayerTableRecord
  2
20_DATUM_KINEMATIC_SCHEME
 70
0
 62
7
  6
CONTINUOUS
370
-3
390
F
  0
ENDTAB
  0
TABLE
  2
STYLE
  5
3
100
AcDbSymbolTable
 70
1
  0
STYLE
  5
11
100
AcDbSymbolTableRecord
100
AcDbTextStyleTableRecord
  2
STANDARD
 70
0
 40
0.0
 41
1.0
 50
0.0
 71
0
 42
0.2
  3
ARIAL.TTF
  4

  0
STYLE
  5
20E
100
AcDbSymbolTableRecord
100
AcDbTextStyleTableRecord
  2
TEXTSTYLE_1
 70
0
 40
0.0
 41
0.8
 50
0.0
 71
0
 42
0.2
  3
gdt
  4

  0
ENDTAB
  0
TABLE
  2
VIEW
  5
6
100
AcDbSymbolTable
 70
0
  0
ENDTAB
  0
TABLE
  2
UCS
  5
7
100
AcDbSymbolTable
 70
0
  0
ENDTAB
  0
TABLE
  2
APPID
  5
9
100
AcDbSymbolTable
 70
1
  0
APPID
  5
20F
100
AcDbSymbolTableRecord
100
AcDbRegAppTableRecord
  2
ACAD
 70
0
  0
ENDTAB
  0
TABLE
  2
BLOCK_RECORD
  5
1
100
AcDbSymbolTable
 70
0
  0
BLOCK_RECORD
  5
210
100
AcDbSymbolTableRecord
100
AcDbBlockTableRecord
  2
*Model_Space
  0
BLOCK_RECORD
  5
211
100
AcDbSymbolTableRecord
100
AcDbBlockTableRecord
  2
*Paper_Space
  0
BLOCK_RECORD
  5
212
100
AcDbSymbolTableRecord
100
AcDbBlockTableRecord
  2
_FILLED
  0
ENDTAB
  0
TABLE
  2
DIMSTYLE
  5
A
100
AcDbSymbolTable
 70
1
100
AcDbDimStyleTable
 71
0
  0
DIMSTYLE
105
213
100
AcDbSymbolTableRecord
100
AcDbDimStyleTableRecord
  2
STANDARD
 70
0
  3

  4

 40
1.0
 41
0.6356452139
 42
1.0
 43
0.38
 44
1.0
 45
0.0
 46
0.0
 47
0.01
 48
0.01
140
0.8899032995
141
0.09
142
0.0
143
25.4
144
1.0
145
0.0
146
1.0
147
0.625
 71
1
 72
0
 73
0
 74
0
 75
0
 76
0
 77
1
 78
8
 79
2
170
0
171
1
172
0
173
0
174
0
175
0
176
0
177
0
178
0
270
2
179
2
271
2
272
2
273
2
274
2
275
0
280
0
281
0
282
0
283
1
284
8
285
0
286
0
287
3
288
0
340
11
278
46
341
212
342
212
343
212
344
212
  0
ENDTAB
  0
ENDSEC
  0
SECTION
  2
BLOCKS
  0
BLOCK
  5
20
100
AcDbEntity
  8
0
100
AcDbBlockBegin
  2
*Model_Space
 70
0
 10
0.0
 20
0.0
 30
0.0
  3
*Model_Space
  1

  0
ENDBLK
  5
21
100
AcDbEntity
  8
0
100
AcDbBlockEnd
  0
BLOCK
  5
1C
100
AcDbEntity
  8
0
100
AcDbBlockBegin
  2
*Paper_Space
 70
0
 10
0.0
 20
0.0
 30
0.0
  3
*Paper_Space
  1

  0
ENDBLK
  5
1D
100
AcDbEntity
  8
0
100
AcDbBlockEnd
  0
BLOCK
  5
214
100
AcDbEntity
  8
0
100
AcDbBlockBegin
  2
_FILLED
 70
64
 10
0.0
 20
0.0
  3
_FILLED
  1

  0
SOLID
  5
215
100
AcDbEntity
  8
0
  6
BYBLOCK
 62
0
100
AcDbTrace
 10
0.0
 20
0.0
 11
-1.0
 21
0.25
 12
-1.0
 22
-0.25
 13
-1.0
 23
-0.25
  0
ENDBLK
  5
216
100
AcDbEntity
  8
0
  6
BYBLOCK
 62
0
100
AcDbBlockEnd
  0
ENDSEC
  0
SECTION
  2
ENTITIES
  0
LINE
  5
217
100
AcDbEntity
  8
0
100
AcDbLine
 62
7
  6
BYLAYER
 10
8.7196037565
 20
36.9741511432
 11
8.7166916107
 21
37.0116717665
  0
LINE
  5
218
100
AcDbEntity
  8
0
100
AcDbLine
 62
7
  6
BYLAYER
 10
8.7166916107
 20
38.2256920679
 11
8.7195854233
 21
38.2630181983
  0
LINE
  5
219
100
AcDbEntity
  8
0
100
AcDbLine
 62
7
  6
BYLAYER
 10
9.0853756504
 20
39.6281194058
 11
9.1014992593
 21
39.6618073752
  0
LINE
  5
21A
100
AcDbEntity
  8
0
100
AcDbLine
 62
7
  6
BYLAYER
 10
9.1014993811
 20
35.5755565096
 11
9.0853903081
 21
35.6092105887
  0
LINE
  5
21B
100
AcDbEntity
  8
0
100
AcDbLine
 62
7
  6
BYLAYER
 10
9.7085088968
 20
40.7131790903
 11
9.729615014
 21
40.7439769027
  0
LINE
  5
21C
100
AcDbEntity
  8
0
100
AcDbLine
 62
7
  6
BYLAYER
 10
9.7295656234
 20
34.4934546692
 11
9.7085091955
 21
34.5241850305
  0
LINE
  5
21D
100
AcDbEntity
  8
0
100
AcDbLine
 62
7
  6
BYLAYER
 10
14.0686771753
 20
42.0891926853
 11
14.1688860194
 21
42.5232448755
  0
LINE
  5
21E
100
AcDbEntity
  8
0
100
AcDbLine
 62
7
  6
BYLAYER
 10
11.6744601169
 20
33.2139206717
 11
11.8047028074
 21
33.6399253171
  0
LINE
  5
21F
100
AcDbEntity
  8
0
100
AcDbLine
 62
7
  6
BYLAYER
 10
10.7290103889
 20
41.7433752807
 11
10.759818655
 21
41.7644887227
  0
LINE
  5
220
100
AcDbEntity
  8
0
100
AcDbLine
 62
7
  6
BYLAYER
 10
10.7598187583
 20
33.4728752407
 11
10.7290430709
 21
33.4939642775
  0
LINE
  5
221
100
AcDbEntity
  8
0
100
AcDbLine
 62
7
  6
BYLAYER
 10
11.8047028074
 20
41.5974385174
 11
11.6744601169
 21
42.0234431627
  0
LINE
  5
222
100
AcDbEntity
  8
0
100
AcDbLine
 62
7
  6
BYLAYER
 10
14.1688860194
 20
32.7141189589
 11
14.0686771753
 21
33.1481711492
  0
LINE
  5
223
100
AcDbEntity
  8
0
100
AcDbLine
 62
7
  6
BYLAYER
 10
13.6399543468
 20
33.1481711492
 11
13.5397455028
 21
32.7141189589
  0
LINE
  5
224
100
AcDbEntity
  8
0
100
AcDbLine
 62
7
  6
BYLAYER
 10
16.0341714053
 20
42.0234431627
 11
15.9039287148
 21
41.5974385174
  0
LINE
  5
225
100
AcDbEntity
  8
0
100
AcDbLine
 62
7
  6
BYLAYER
 10
11.811190356
 20
42.371498281
 11
11.8448448549
 21
42.3876075482
  0
LINE
  5
226
100
AcDbEntity
  8
0
100
AcDbLine
 62
7
  6
BYLAYER
 10
11.844786678
 20
32.8497825749
 11
11.8111904042
 21
32.8658657333
  0
LINE
  5
227
100
AcDbEntity
  8
0
100
AcDbLine
 62
7
  6
BYLAYER
 10
15.9039287148
 20
33.6399253171
 11
16.0341714053
 21
33.2139206717
  0
LINE
  5
228
100
AcDbEntity
  8
0
100
AcDbLine
 62
7
  6
BYLAYER
 10
13.5397455028
 20
42.5232448755
 11
13.6399543468
 21
42.0891926853
  0
LINE
  5
229
100
AcDbEntity
  8
0
100
AcDbLine
 62
7
  6
BYLAYER
 10
16.2752135755
 20
41.3830771031
 11
16.5790230752
 21
41.7088729044
  0
LINE
  5
22A
100
AcDbEntity
  8
0
100
AcDbLine
 62
7
  6
BYLAYER
 10
9.7641247739
 20
34.8939746031
 11
10.0899205752
 21
35.1977841029
  0
LINE
  5
22B
100
AcDbEntity
  8
0
100
AcDbLine
 62
7
  6
BYLAYER
 10
10.0899205752
 20
40.0395797316
 11
9.7641247739
 21
40.3433892313
  0
LINE
  5
22C
100
AcDbEntity
  8
0
100
AcDbLine
 62
7
  6
BYLAYER
 10
16.5790230752
 20
33.52849093
 11
16.2752135755
 21
33.8542867313
  0
LINE
  5
22D
100
AcDbEntity
  8
0
100
AcDbLine
 62
7
  6
BYLAYER
 10
18.9890342032
 20
38.2631517548
 11
18.99193977
 21
38.2256920378
  0
LINE
  5
22E
100
AcDbEntity
  8
0
100
AcDbLine
 62
7
  6
BYLAYER
 10
18.9919392661
 20
37.0116719037
 11
18.9890585671
 21
36.9744449144
  0
LINE
  5
22F
100
AcDbEntity
  8
0
100
AcDbLine
 62
7
  6
BYLAYER
 10
11.4334179467
 20
33.8542867313
 11
11.129608447
 21
33.52849093
  0
LINE
  5
230
100
AcDbEntity
  8
0
100
AcDbLine
 62
7
  6
BYLAYER
 10
17.9445067483
 20
40.3433892313
 11
17.618710947
 21
40.0395797316
  0
LINE
  5
231
100
AcDbEntity
  8
0
100
AcDbLine
 62
7
  6
BYLAYER
 10
17.618710947
 20
35.1977841029
 11
17.9445067483
 21
34.8939746031
  0
LINE
  5
232
100
AcDbEntity
  8
0
100
AcDbLine
 62
7
  6
BYLAYER
 10
11.129608447
 20
41.7088729044
 11
11.4334179467
 21
41.3830771031
  0
LINE
  5
233
100
AcDbEntity
  8
0
100
AcDbLine
 62
7
  6
BYLAYER
 10
20.8543157611
 20
37.3186819172
 11
20.8543157611
 21
37.9186819172
  0
LINE
  5
234
100
AcDbEntity
  8
0
100
AcDbLine
 62
7
  6
BYLAYER
 10
18.6232360467
 20
35.6091998833
 11
18.6071321108
 21
35.5755565079
  0
LINE
  5
235
100
AcDbEntity
  8
0
100
AcDbLine
 62
7
  6
BYLAYER
 10
27.5213056428
 20
31.2896694691
 11
31.8987404348
 21
31.9849405508
  0
LINE
  5
236
100
AcDbEntity
  8
0
100
AcDbLine
 62
7
  6
BYLAYER
 10
14.8478465876
 20
29.6806156227
 11
25.9821519545
 21
31.0741887175
  0
LINE
  5
237
100
AcDbEntity
  8
0
100
AcDbLine
 62
7
  6
BYLAYER
 10
31.7630735038
 20
32.0208058995
 11
40.813176851
 21
33.1535196265
  0
LINE
  5
238
100
AcDbEntity
  8
0
100
AcDbLine
 62
7
  6
BYLAYER
 10
13.2473060859
 20
32.4810595277
 11
13.2101104054
 21
32.4839351411
  0
LINE
  5
239
100
AcDbEntity
  8
0
100
AcDbLine
 62
7
  6
BYLAYER
 10
18.6071320982
 20
39.6618073115
 11
18.6232394539
 21
39.6281574227
  0
LINE
  5
23A
100
AcDbEntity
  8
0
100
AcDbLine
 62
7
  6
BYLAYER
 10
18.0001224133
 20
34.5241849386
 11
17.9790348255
 21
34.4934111075
  0
LINE
  5
23B
100
AcDbEntity
  8
0
100
AcDbLine
 62
7
  6
BYLAYER
 10
17.8330723612
 20
39.6682948709
 11
18.2590770066
 21
39.7985375614
  0
LINE
  5
23C
100
AcDbEntity
  8
0
100
AcDbLine
 62
7
  6
BYLAYER
 10
18.2590770066
 20
35.438826273
 11
17.8330723612
 21
35.5690689635
  0
LINE
  5
23D
100
AcDbEntity
  8
0
100
AcDbLine
 62
7
  6
BYLAYER
 10
17.9790650251
 20
40.7439103676
 11
18.0001223308
 21
40.7131788078
  0
LINE
  5
23E
100
AcDbEntity
  8
0
100
AcDbLine
 62
7
  6
BYLAYER
 10
23.8543157611
 20
37.3186819172
 11
23.8543157611
 21
37.9186819172
  0
LINE
  5
23F
100
AcDbEntity
  8
0
100
AcDbLine
 62
7
  6
BYLAYER
 10
9.875559161
 20
35.5690689635
 11
9.4495545156
 21
35.438826273
  0
LINE
  5
240
100
AcDbEntity
  8
0
100
AcDbLine
 62
7
  6
BYLAYER
 10
14.4984604721
 20
32.4839292158
 11
14.4613253897
 21
32.4810596895
  0
LINE
  5
241
100
AcDbEntity
  8
0
100
AcDbLine
 62
7
  6
BYLAYER
 10
9.3838049931
 20
37.8330433315
 11
8.9497528028
 21
37.9332521755
  0
LINE
  5
242
100
AcDbEntity
  8
0
100
AcDbLine
 62
7
  6
BYLAYER
 10
9.4495545156
 20
39.7985375614
 11
9.875559161
 21
39.6682948709
  0
LINE
  5
243
100
AcDbEntity
  8
0
100
AcDbLine
 62
7
  6
BYLAYER
 10
16.9795449086
 20
33.4939331598
 11
16.9488126538
 21
33.4728753453
  0
LINE
  5
244
100
AcDbEntity
  8
0
100
AcDbLine
 62
7
  6
BYLAYER
 10
18.3248265291
 20
37.404320503
 11
18.7588787194
 21
37.3041116589
  0
LINE
  5
245
100
AcDbEntity
  8
0
100
AcDbLine
 62
7
  6
BYLAYER
 10
16.9488127393
 20
41.7644885678
 11
16.9795859176
 21
41.7434014765
  0
LINE
  5
246
100
AcDbEntity
  8
0
100
AcDbLine
 62
7
  6
BYLAYER
 10
25.9821519545
 20
44.1631751169
 11
25.9821519545
 21
31.0741887175
  0
LINE
  5
247
100
AcDbEntity
  8
0
100
AcDbLine
 62
7
  6
BYLAYER
 10
15.8974411522
 20
32.8658655908
 11
15.8637922896
 21
32.8497586555
  0
LINE
  5
248
100
AcDbEntity
  8
0
100
AcDbLine
 62
7
  6
BYLAYER
 10
20.8543157611
 20
37.3186819172
 11
23.8543157611
 21
37.3186819172
  0
LINE
  5
249
100
AcDbEntity
  8
0
100
AcDbLine
 62
7
  6
BYLAYER
 10
23.8543157611
 20
37.6186819172
 11
20.8543157611
 21
37.6186819172
  0
LINE
  5
24A
100
AcDbEntity
  8
0
100
AcDbLine
 62
7
  6
BYLAYER
 10
15.8638258261
 20
42.3875897257
 11
15.8974411392
 21
42.3714981685
  0
LINE
  5
24B
100
AcDbEntity
  8
0
100
AcDbLine
 62
7
  6
BYLAYER
 10
27.5213056428
 20
31.2896694691
 11
27.5213056428
 21
43.9476943654
  0
LINE
  5
24C
100
AcDbEntity
  8
0
100
AcDbLine
 62
7
  6
BYLAYER
 10
20.8543157611
 20
37.9186819172
 11
23.8543157611
 21
37.9186819172
  0
LINE
  5
24D
100
AcDbEntity
  8
0
100
AcDbLine
 62
7
  6
BYLAYER
 10
18.7588787194
 20
37.9332521755
 11
18.3248265291
 21
37.8330433315
  0
LINE
  5
24E
100
AcDbEntity
  8
0
100
AcDbLine
 62
7
  6
BYLAYER
 10
31.7630735038
 20
43.216557935
 11
31.7630735038
 21
32.0208058995
  0
LINE
  5
24F
100
AcDbEntity
  8
0
100
AcDbLine
 62
7
  6
BYLAYER
 10
31.8987404348
 20
43.2524232836
 11
31.8987404348
 21
43.19957782
  0
LINE
  5
250
100
AcDbEntity
  8
0
100
AcDbLine
 62
7
  6
BYLAYER
 10
31.8987404348
 20
32.0377860144
 11
31.8987404348
 21
31.9849405508
  0
LINE
  5
251
100
AcDbEntity
  8
0
100
AcDbLine
 62
7
  6
BYLAYER
 10
8.9497528028
 20
37.3041116589
 11
9.3838049931
 21
37.404320503
  0
LINE
  5
252
100
AcDbEntity
  8
0
100
AcDbLine
 62
7
  6
BYLAYER
 10
14.4613254306
 20
42.7563042871
 11
14.4985201827
 21
42.7534288105
  0
LINE
  5
253
100
AcDbEntity
  8
0
100
AcDbLine
 62
7
  6
BYLAYER
 10
32.0709042415
 20
32.0593340896
 11
32.0709042415
 21
43.1780297449
  0
LINE
  5
254
100
AcDbEntity
  8
0
100
AcDbLine
 62
7
  6
BYLAYER
 10
13.2101192326
 20
42.7534291685
 11
13.2473060946
 21
42.7563043164
  0
LINE
  5
255
100
AcDbEntity
  8
0
100
AcDbLine
 62
7
  6
BYLAYER
 10
40.813176851
 20
42.0838442079
 11
31.7630735038
 21
43.216557935
  0
LINE
  5
256
100
AcDbEntity
  8
0
100
AcDbLine
 62
7
  6
BYLAYER
 10
25.9821519545
 20
44.1631751169
 11
14.8478465876
 21
45.5567482118
  0
LINE
  5
257
100
AcDbEntity
  8
0
100
AcDbLine
 62
7
  6
BYLAYER
 10
31.8987404348
 20
43.2524232836
 11
27.5213056428
 21
43.9476943654
  0
LINE
  5
258
100
AcDbEntity
  8
0
100
AcDbLine
 62
7
  6
BYLAYER
 10
40.7480135402
 20
43.2972554214
 11
41.555633503
 21
44.6959316422
  0
LINE
  5
259
100
AcDbEntity
  8
0
100
AcDbLine
 62
7
  6
BYLAYER
 10
43.7396393572
 20
43.9073362758
 11
43.4827596116
 21
43.5832995507
  0
LINE
  5
25A
100
AcDbEntity
  8
0
100
AcDbLine
 62
7
  6
BYLAYER
 10
42.3049180446
 20
41.7533794182
 11
42.675218511
 21
42.1845965134
  0
LINE
  5
25B
100
AcDbEntity
  8
0
100
AcDbLine
 62
7
  6
BYLAYER
 10
42.6752170694
 20
33.0527689961
 11
42.3049180446
 21
33.4839844163
  0
LINE
  5
25C
100
AcDbEntity
  8
0
100
AcDbLine
 62
7
  6
BYLAYER
 10
43.7396393572
 20
31.3300275586
 11
43.4827605885
 21
31.6540630373
  0
LINE
  5
25D
100
AcDbEntity
  8
0
100
AcDbLine
 62
7
  6
BYLAYER
 10
41.5556279456
 20
30.5414299925
 11
40.7479958943
 21
31.9401022177
  0
LINE
  5
25E
100
AcDbEntity
  8
0
100
AcDbLine
 62
7
  6
BYLAYER
 10
40.7480616883
 20
43.2972385168
 11
40.5597676927
 21
42.7609424437
  0
LINE
  5
25F
100
AcDbEntity
  8
0
100
AcDbLine
 62
7
  6
BYLAYER
 10
41.7077883932
 20
45.0804259768
 11
41.5556047314
 21
44.6959444747
  0
LINE
  5
260
100
AcDbEntity
  8
0
100
AcDbLine
 62
7
  6
BYLAYER
 10
41.9567841087
 20
44.3655198049
 11
40.8014348253
 21
42.3643961455
  0
LINE
  5
261
100
AcDbEntity
  8
0
100
AcDbLine
 62
7
  6
BYLAYER
 10
41.8406653098
 20
41.7643961455
 11
42.9960145932
 21
43.7655198049
  0
LINE
  5
262
100
AcDbEntity
  8
0
100
AcDbLine
 62
7
  6
BYLAYER
 10
40.8014348253
 20
32.8729676889
 11
41.9567841087
 21
30.8718440295
  0
LINE
  5
263
100
AcDbEntity
  8
0
100
AcDbLine
 62
7
  6
BYLAYER
 10
42.9960145932
 20
31.4718440295
 11
41.8406653098
 21
33.4729676889
  0
LINE
  5
264
100
AcDbEntity
  8
0
100
AcDbLine
 62
7
  6
BYLAYER
 10
41.7077883932
 20
30.1569378576
 11
41.5556042303
 21
30.5414206055
  0
LINE
  5
265
100
AcDbEntity
  8
0
100
AcDbLine
 62
7
  6
BYLAYER
 10
40.5597676927
 20
32.4764213907
 11
40.7479958831
 21
31.9401022157
  0
LINE
  5
266
100
AcDbEntity
  8
0
100
AcDbLine
 62
7
  6
BYLAYER
 10
43.4827396247
 20
43.5833153953
 11
42.6752699717
 21
42.1845494093
  0
LINE
  5
267
100
AcDbEntity
  8
0
100
AcDbLine
 62
7
  6
BYLAYER
 10
42.6752601115
 20
33.0528059577
 11
43.4827310724
 21
31.6540416594
  0
ARC
  5
268
100
AcDbEntity
  8
0
100
AcDbCircle
 62
7
  6
BYLAYER
 10
13.8543157611
 20
37.6186819172
 40
8.0
100
AcDbArc
 50
82.8659401355
 51
277.1340598644
  0
ARC
  5
269
100
AcDbEntity
  8
0
100
AcDbCircle
 62
7
  6
BYLAYER
 10
13.8543157611
 20
37.6186819172
 40
5.175
100
AcDbArc
 50
157.1514203469
 51
172.8475733246
  0
ARC
  5
26A
100
AcDbEntity
  8
0
100
AcDbCircle
 62
7
  6
BYLAYER
 10
13.8543157611
 20
37.6186819172
 40
5.175
100
AcDbArc
 50
187.1545885467
 51
202.8489879331
  0
ARC
  5
26B
100
AcDbEntity
  8
0
100
AcDbCircle
 62
7
  6
BYLAYER
 10
13.8543157611
 20
37.6186819172
 40
5.175
100
AcDbArc
 50
217.1503626954
 51
232.8490190011
  0
ARC
  5
26C
100
AcDbEntity
  8
0
100
AcDbCircle
 62
7
  6
BYLAYER
 10
13.8543157611
 20
37.6186819172
 40
5.175
100
AcDbArc
 50
247.1503105494
 51
262.8490342643
  0
ARC
  5
26D
100
AcDbEntity
  8
0
100
AcDbCircle
 62
7
  6
BYLAYER
 10
13.8543157611
 20
37.6186819172
 40
5.175
100
AcDbArc
 50
277.1502913542
 51
292.8490504092
  0
ARC
  5
26E
100
AcDbEntity
  8
0
100
AcDbCircle
 62
7
  6
BYLAYER
 10
13.8543157611
 20
37.6186819172
 40
5.175
100
AcDbArc
 50
307.1503886867
 51
322.8490451214
  0
ARC
  5
26F
100
AcDbEntity
  8
0
100
AcDbCircle
 62
7
  6
BYLAYER
 10
13.8543157611
 20
37.6186819172
 40
5.175
100
AcDbArc
 50
337.1508806248
 51
352.8486811328
  0
ARC
  5
270
100
AcDbEntity
  8
0
100
AcDbCircle
 62
7
  6
BYLAYER
 10
13.8543157611
 20
37.6186819172
 40
5.175
100
AcDbArc
 50
7.1539102565
 51
22.8490381181
  0
ARC
  5
271
100
AcDbEntity
  8
0
100
AcDbCircle
 62
7
  6
BYLAYER
 10
13.8543157611
 20
37.6186819172
 40
5.175
100
AcDbArc
 50
37.1503791478
 51
52.8490541953
  0
ARC
  5
272
100
AcDbEntity
  8
0
100
AcDbCircle
 62
7
  6
BYLAYER
 10
13.8543157611
 20
37.6186819172
 40
5.175
100
AcDbArc
 50
67.1505409857
 51
82.8490446876
  0
ARC
  5
273
100
AcDbEntity
  8
0
100
AcDbCircle
 62
7
  6
BYLAYER
 10
13.8543157611
 20
37.6186819172
 40
5.175
100
AcDbArc
 50
97.1508681084
 51
112.8489828595
  0
ARC
  5
274
100
AcDbEntity
  8
0
100
AcDbCircle
 62
7
  6
BYLAYER
 10
13.8543157611
 20
37.6186819172
 40
5.175
100
AcDbArc
 50
127.1514317245
 51
142.8487093031
  0
CIRCLE
  5
275
100
AcDbEntity
  8
0
100
AcDbCircle
 62
7
  6
BYLAYER
 10
13.8543157611
 20
37.6186819172
 40
2.0
  0
CIRCLE
  5
276
100
AcDbEntity
  8
0
100
AcDbCircle
 62
7
  6
BYLAYER
 10
13.8543157611
 20
37.6186819172
 40
1.6
  0
CIRCLE
  5
277
100
AcDbEntity
  8
0
100
AcDbCircle
 62
7
  6
BYLAYER
 10
13.8543157611
 20
37.6186819172
 40
1.3979274058
  0
ARC
  5
278
100
AcDbEntity
  8
0
100
AcDbCircle
 62
7
  6
BYLAYER
 10
13.2474344834
 20
32.7816042752
 40
0.3
100
AcDbArc
 50
270.0
 51
347.0
  0
ARC
  5
279
100
AcDbEntity
  8
0
100
AcDbCircle
 62
7
  6
BYLAYER
 10
10.9102023365
 20
33.733090438
 40
0.3
100
AcDbArc
 50
240.0
 51
317.0
  0
ARC
  5
27A
100
AcDbEntity
  8
0
100
AcDbCircle
 62
7
  6
BYLAYER
 10
11.9613515437
 20
33.1262091603
 40
0.3
100
AcDbArc
 50
163.0
 51
240.0
  0
ARC
  5
27B
100
AcDbEntity
  8
0
100
AcDbCircle
 62
7
  6
BYLAYER
 10
9.3618430042
 20
35.7257176998
 40
0.3
100
AcDbArc
 50
210.0
 51
287.0
  0
ARC
  5
27C
100
AcDbEntity
  8
0
100
AcDbCircle
 62
7
  6
BYLAYER
 10
9.9687242819
 20
34.6745684926
 40
0.3
100
AcDbArc
 50
133.0
 51
210.0
  0
ARC
  5
27D
100
AcDbEntity
  8
0
100
AcDbCircle
 62
7
  6
BYLAYER
 10
9.0172381191
 20
38.2255631949
 40
0.3
100
AcDbArc
 50
180.0
 51
257.0
  0
ARC
  5
27E
100
AcDbEntity
  8
0
100
AcDbCircle
 62
7
  6
BYLAYER
 10
9.0172381191
 20
37.0118006395
 40
0.3
100
AcDbArc
 50
103.0
 51
180.0
  0
ARC
  5
27F
100
AcDbEntity
  8
0
100
AcDbCircle
 62
7
  6
BYLAYER
 10
13.8543157611
 20
33.0986819172
 40
0.22
100
AcDbArc
 50
13.0
 51
167.0000000001
  0
ARC
  5
280
100
AcDbEntity
  8
0
100
AcDbCircle
 62
7
  6
BYLAYER
 10
11.5943157611
 20
33.7042470921
 40
0.22
100
AcDbArc
 50
343.0
 51
136.9999999999
  0
ARC
  5
281
100
AcDbEntity
  8
0
100
AcDbCircle
 62
7
  6
BYLAYER
 10
9.939880936
 20
35.3586819172
 40
0.22
100
AcDbArc
 50
312.9999999998
 51
107.0000000002
  0
ARC
  5
282
100
AcDbEntity
  8
0
100
AcDbCircle
 62
7
  6
BYLAYER
 10
9.3343157611
 20
37.6186819172
 40
0.22
100
AcDbArc
 50
283.0
 51
77.0000000001
  0
ARC
  5
283
100
AcDbEntity
  8
0
100
AcDbCircle
 62
7
  6
BYLAYER
 10
19.3577933629
 20
-9.0107693304
 40
53.5849840243
100
AcDbArc
 50
82.0208483446
 51
82.8987334516
  0
ARC
  5
284
100
AcDbEntity
  8
0
100
AcDbCircle
 62
7
  6
BYLAYER
 10
18.6913934031
 20
37.0118006395
 40
0.3
100
AcDbArc
 50
0.0
 51
77.0
  0
ARC
  5
285
100
AcDbEntity
  8
0
100
AcDbCircle
 62
7
  6
BYLAYER
 10
18.6913934031
 20
38.2255631949
 40
0.3
100
AcDbArc
 50
283.0
 51
360.0
  0
ARC
  5
286
100
AcDbEntity
  8
0
100
AcDbCircle
 62
7
  6
BYLAYER
 10
17.7399072403
 20
34.6745684926
 40
0.3
100
AcDbArc
 50
330.0
 51
47.0
  0
ARC
  5
287
100
AcDbEntity
  8
0
100
AcDbCircle
 62
7
  6
BYLAYER
 10
18.346788518
 20
35.7257176998
 40
0.3
100
AcDbArc
 50
253.0
 51
330.0
  0
ARC
  5
288
100
AcDbEntity
  8
0
100
AcDbCircle
 62
7
  6
BYLAYER
 10
15.7472799785
 20
33.1262091603
 40
0.3
100
AcDbArc
 50
300.0
 51
17.0
  0
ARC
  5
289
100
AcDbEntity
  8
0
100
AcDbCircle
 62
7
  6
BYLAYER
 10
16.7984291857
 20
33.733090438
 40
0.3
100
AcDbArc
 50
223.0
 51
300.0
  0
ARC
  5
28A
100
AcDbEntity
  8
0
100
AcDbCircle
 62
7
  6
BYLAYER
 10
14.4611970388
 20
32.7816042752
 40
0.3
100
AcDbArc
 50
193.0
 51
270.0
  0
ARC
  5
28B
100
AcDbEntity
  8
0
100
AcDbCircle
 62
7
  6
BYLAYER
 10
18.3743157611
 20
37.6186819172
 40
0.22
100
AcDbArc
 50
103.0
 51
257.0000000001
  0
ARC
  5
28C
100
AcDbEntity
  8
0
100
AcDbCircle
 62
7
  6
BYLAYER
 10
17.7687505862
 20
35.3586819172
 40
0.22
100
AcDbArc
 50
73.0
 51
226.9999999999
  0
ARC
  5
28D
100
AcDbEntity
  8
0
100
AcDbCircle
 62
7
  6
BYLAYER
 10
16.1143157611
 20
33.7042470921
 40
0.22
100
AcDbArc
 50
42.9999999998
 51
197.0000000002
  0
ARC
  5
28E
100
AcDbEntity
  8
0
100
AcDbCircle
 62
7
  6
BYLAYER
 10
19.0975805542
 20
86.2119724273
 40
55.5659200065
100
AcDbArc
 50
277.1171887226
 51
277.9637752554
  0
ARC
  5
28F
100
AcDbEntity
  8
0
100
AcDbCircle
 62
7
  6
BYLAYER
 10
17.7399072403
 20
40.5627953418
 40
0.3
100
AcDbArc
 50
313.0
 51
30.0
  0
ARC
  5
290
100
AcDbEntity
  8
0
100
AcDbCircle
 62
7
  6
BYLAYER
 10
18.346788518
 20
39.5116461346
 40
0.3
100
AcDbArc
 50
30.0
 51
107.0
  0
ARC
  5
291
100
AcDbEntity
  8
0
100
AcDbCircle
 62
7
  6
BYLAYER
 10
16.7984291857
 20
41.5042733964
 40
0.3
100
AcDbArc
 50
60.0
 51
137.0
  0
ARC
  5
292
100
AcDbEntity
  8
0
100
AcDbCircle
 62
7
  6
BYLAYER
 10
15.7472799785
 20
42.1111546741
 40
0.3
100
AcDbArc
 50
343.0
 51
60.0
  0
ARC
  5
293
100
AcDbEntity
  8
0
100
AcDbCircle
 62
7
  6
BYLAYER
 10
14.4611970388
 20
42.4557595592
 40
0.3
100
AcDbArc
 50
90.0
 51
167.0
  0
ARC
  5
294
100
AcDbEntity
  8
0
100
AcDbCircle
 62
7
  6
BYLAYER
 10
13.2474344834
 20
42.4557595592
 40
0.3
100
AcDbArc
 50
13.0
 51
90.0
  0
ARC
  5
295
100
AcDbEntity
  8
0
100
AcDbCircle
 62
7
  6
BYLAYER
 10
9.3618430042
 20
39.5116461346
 40
0.3
100
AcDbArc
 50
73.0
 51
150.0
  0
ARC
  5
296
100
AcDbEntity
  8
0
100
AcDbCircle
 62
7
  6
BYLAYER
 10
9.9687242819
 20
40.5627953418
 40
0.3
100
AcDbArc
 50
150.0
 51
227.0
  0
ARC
  5
297
100
AcDbEntity
  8
0
100
AcDbCircle
 62
7
  6
BYLAYER
 10
11.9613515437
 20
42.1111546741
 40
0.3
100
AcDbArc
 50
120.0
 51
197.0
  0
ARC
  5
298
100
AcDbEntity
  8
0
100
AcDbCircle
 62
7
  6
BYLAYER
 10
10.9102023365
 20
41.5042733964
 40
0.3
100
AcDbArc
 50
43.0
 51
120.0
  0
ARC
  5
299
100
AcDbEntity
  8
0
100
AcDbCircle
 62
7
  6
BYLAYER
 10
17.7687505862
 20
39.8786819172
 40
0.22
100
AcDbArc
 50
132.9999999998
 51
287.0000000002
  0
ARC
  5
29A
100
AcDbEntity
  8
0
100
AcDbCircle
 62
7
  6
BYLAYER
 10
16.1143157611
 20
41.5331167423
 40
0.22
100
AcDbArc
 50
163.0
 51
316.9999999999
  0
ARC
  5
29B
100
AcDbEntity
  8
0
100
AcDbCircle
 62
7
  6
BYLAYER
 10
13.8543157611
 20
42.1386819172
 40
0.22
100
AcDbArc
 50
193.0
 51
347.0000000001
  0
ARC
  5
29C
100
AcDbEntity
  8
0
100
AcDbCircle
 62
7
  6
BYLAYER
 10
9.939880936
 20
39.8786819172
 40
0.22
100
AcDbArc
 50
253.0
 51
46.9999999999
  0
ARC
  5
29D
100
AcDbEntity
  8
0
100
AcDbCircle
 62
7
  6
BYLAYER
 10
11.5943157611
 20
41.5331167423
 40
0.22
100
AcDbArc
 50
222.9999999998
 51
17.0000000002
  0
ARC
  5
29E
100
AcDbEntity
  8
0
100
AcDbCircle
 62
7
  6
BYLAYER
 10
40.3684221234
 20
32.6229676889
 40
0.5
100
AcDbArc
 50
29.9999999999
 51
84.8984767523
  0
ARC
  5
29F
100
AcDbEntity
  8
0
100
AcDbCircle
 62
7
  6
BYLAYER
 10
40.7254054846
 20
32.0046543699
 40
0.5
100
AcDbArc
 50
30.0000000005
 51
109.2314057616
  0
ARC
  5
2A0
100
AcDbEntity
  8
0
100
AcDbCircle
 62
7
  6
BYLAYER
 10
38.7543157611
 20
37.6186819172
 40
9.525
100
AcDbArc
 50
219.8665234849
 51
140.125900891
  0
ARC
  5
2A1
100
AcDbEntity
  8
0
100
AcDbCircle
 62
7
  6
BYLAYER
 10
38.7543157611
 20
37.6186819172
 40
8.025
100
AcDbArc
 50
223.0591216251
 51
291.5928811597
  0
ARC
  5
2A2
100
AcDbEntity
  8
0
100
AcDbCircle
 62
7
  6
BYLAYER
 10
38.7543157611
 20
37.6186819172
 40
8.025
100
AcDbArc
 50
308.4071188027
 51
51.5928818013
  0
ARC
  5
2A3
100
AcDbEntity
  8
0
100
AcDbCircle
 62
7
  6
BYLAYER
 10
38.7543157611
 20
37.6186819172
 40
8.025
100
AcDbArc
 50
68.4071184434
 51
136.9407901963
  0
ARC
  5
2A4
100
AcDbEntity
  8
0
100
AcDbCircle
 62
7
  6
BYLAYER
 10
38.7543157611
 20
37.6186819172
 40
7.6114942529
100
AcDbArc
 50
308.4053075641
 51
51.5946102841
  0
ARC
  5
2A5
100
AcDbEntity
  8
0
100
AcDbCircle
 62
7
  6
BYLAYER
 10
38.7543157611
 20
37.6186819172
 40
7.6114942529
100
AcDbArc
 50
225.2408851437
 51
291.5946102841
  0
ARC
  5
2A6
100
AcDbEntity
  8
0
100
AcDbCircle
 62
7
  6
BYLAYER
 10
38.7543157611
 20
37.6186819172
 40
7.6114942529
100
AcDbArc
 50
68.4053447242
 51
134.347109641
  0
ARC
  5
2A7
100
AcDbEntity
  8
0
100
AcDbCircle
 62
7
  6
BYLAYER
 10
38.7543157611
 20
37.6186819172
 40
6.0183908046
100
AcDbArc
 50
310.6537834745
 51
49.3462165255
  0
ARC
  5
2A8
100
AcDbEntity
  8
0
100
AcDbCircle
 62
7
  6
BYLAYER
 10
38.7543157611
 20
37.6186819172
 40
6.0183908046
100
AcDbArc
 50
242.0167995557
 51
289.3462165255
  0
ARC
  5
2A9
100
AcDbEntity
  8
0
100
AcDbCircle
 62
7
  6
BYLAYER
 10
38.7543157611
 20
37.6186819172
 40
6.0183908046
100
AcDbArc
 50
70.6537834745
 51
124.7087730807
  0
ARC
  5
2AA
100
AcDbEntity
  8
0
100
AcDbCircle
 62
7
  6
BYLAYER
 10
38.7543157611
 20
37.6186819172
 40
5.45
100
AcDbArc
 50
36.9953336038
 51
49.3596222282
  0
ARC
  5
2AB
100
AcDbEntity
  8
0
100
AcDbCircle
 62
7
  6
BYLAYER
 10
38.7543157611
 20
37.6186819172
 40
5.45
100
AcDbArc
 50
70.654627015
 51
110.3786511949
  0
ARC
  5
2AC
100
AcDbEntity
  8
0
100
AcDbCircle
 62
7
  6
BYLAYER
 10
38.7543157611
 20
37.6186819172
 40
5.45
100
AcDbArc
 50
249.6212546656
 51
289.3567486413
  0
ARC
  5
2AD
100
AcDbEntity
  8
0
100
AcDbCircle
 62
7
  6
BYLAYER
 10
38.7543157611
 20
37.6186819172
 40
4.75
100
AcDbArc
 50
76.8424495759
 51
91.7188880922
  0
ARC
  5
2AE
100
AcDbEntity
  8
0
100
AcDbCircle
 62
7
  6
BYLAYER
 10
38.7543157611
 20
37.6186819172
 40
4.75
100
AcDbArc
 50
268.0528521469
 51
283.3195666446
  0
ARC
  5
2AF
100
AcDbEntity
  8
0
100
AcDbCircle
 62
7
  6
BYLAYER
 10
40.2543157611
 20
37.6186819172
 40
4.5
100
AcDbArc
 50
277.1340598641
 51
82.8659401359
  0
CIRCLE
  5
2B0
100
AcDbEntity
  8
0
100
AcDbCircle
 62
7
  6
BYLAYER
 10
38.7543157611
 20
37.6186819172
 40
2.1
  0
CIRCLE
  5
2B1
100
AcDbEntity
  8
0
100
AcDbCircle
 62
7
  6
BYLAYER
 10
38.7543157611
 20
37.6186819172
 40
2.05
  0
CIRCLE
  5
2B2
100
AcDbEntity
  8
0
100
AcDbCircle
 62
7
  6
BYLAYER
 10
38.7543157611
 20
37.6186819172
 40
1.3
  0
ARC
  5
2B3
100
AcDbEntity
  8
0
100
AcDbCircle
 62
7
  6
BYLAYER
 10
41.5237714068
 20
30.6218440295
 40
0.5
100
AcDbArc
 50
291.5697473387
 51
29.9999999999
  0
ARC
  5
2B4
100
AcDbEntity
  8
0
100
AcDbCircle
 62
7
  6
BYLAYER
 10
43.4290272951
 20
31.7218440295
 40
0.5
100
AcDbArc
 50
209.9999999998
 51
308.430252058
  0
ARC
  5
2B5
100
AcDbEntity
  8
0
100
AcDbCircle
 62
7
  6
BYLAYER
 10
42.6306613729
 20
33.1046543699
 40
0.5
100
AcDbArc
 50
130.6124746052
 51
209.9999999998
  0
ARC
  5
2B6
100
AcDbEntity
  8
0
100
AcDbCircle
 62
7
  6
BYLAYER
 10
43.4290272951
 20
43.5155198049
 40
0.5
100
AcDbArc
 50
51.5697576361
 51
150.0000000005
  0
ARC
  5
2B7
100
AcDbEntity
  8
0
100
AcDbCircle
 62
7
  6
BYLAYER
 10
40.3684221234
 20
42.6143961455
 40
0.5
100
AcDbArc
 50
275.1063944053
 51
329.9999999998
  0
ARC
  5
2B8
100
AcDbEntity
  8
0
100
AcDbCircle
 62
7
  6
BYLAYER
 10
41.5237714068
 20
44.6155198049
 40
0.5
100
AcDbArc
 50
330.0000000004
 51
68.4302462916
  0
ARC
  5
2B9
100
AcDbEntity
  8
0
100
AcDbCircle
 62
7
  6
BYLAYER
 10
42.6306613729
 20
42.1327094645
 40
0.5
100
AcDbArc
 50
149.9999999998
 51
229.200068556
  0
ARC
  5
2BA
100
AcDbEntity
  8
0
100
AcDbCircle
 62
7
  6
BYLAYER
 10
40.7254054846
 20
43.2327094645
 40
0.5
100
AcDbArc
 50
250.6445897626
 51
329.9999999998
  0
SPLINE
  5
2BB
100
AcDbEntity
  8
0
100
AcDbSpline
 62
7
  6
BYLAYER
 70
0
 71
3
 72
18
 73
14
 74
0
 42
0.0000001
 43
0.0000001
 44
0.0000000001
 40
0.0
 40
0.0
 40
0.0
 40
0.0
 40
0.0316341851
 40
0.0438979717
 40
0.0581562837
 40
0.0927822935
 40
0.1355428953
 40
0.1862378245
 40
0.2444650046
 40
0.30972225
 40
0.4588886274
 40
0.6280561532
 40
1.0
 40
1.0
 40
1.0
 40
1.0
 10
41.1584192223
 20
32.2546524897
 30
0.0
 10
41.1611874934
 20
32.24985745
 30
0.0
 10
41.1581989935
 20
32.240804665
 30
0.0
 10
41.1532346106
 20
32.2322427689
 30
0.0
 10
41.1470936681
 20
32.2233673962
 30
0.0
 10
41.1366924714
 20
32.2111790707
 30
0.0
 10
41.1209012928
 20
32.195225411
 30
0.0
 10
41.1012286875
 20
32.1773927758
 30
0.0
 10
41.0778512005
 20
32.1578137233
 30
0.0
 10
41.0403235872
 20
32.1283275616
 30
0.0
 10
40.9859361657
 20
32.0889208498
 30
0.0
 10
40.8855854556
 20
32.0216193019
 30
0.0
 10
40.8045425131
 20
31.9724813681
 30
0.0
 10
40.7480492167
 20
31.9401327803
 30
0.0
  0
SPLINE
  5
2BC
100
AcDbEntity
  8
0
100
AcDbSpline
 62
7
  6
BYLAYER
 70
0
 71
3
 72
18
 73
14
 74
0
 42
0.0000001
 43
0.0000001
 44
0.0000000001
 40
0.0
 40
0.0
 40
0.0
 40
0.0
 40
0.0316341733
 40
0.0438979872
 40
0.0581563161
 40
0.092782322
 40
0.1355429042
 40
0.1862378362
 40
0.244465022
 40
0.3097222421
 40
0.4588885695
 40
0.6280562321
 40
1.0
 40
1.0
 40
1.0
 40
1.0
 10
42.1976497813
 20
42.3827113017
 30
0.0
 10
42.2004181674
 20
42.3875062733
 30
0.0
 10
42.2097524669
 20
42.3894445399
 30
0.0
 10
42.2196494668
 20
42.3894261604
 30
0.0
 10
42.2304062465
 20
42.3885456093
 30
0.0
 10
42.246162239
 20
42.3856320612
 30
0.0
 10
42.2678741063
 20
42.3799333468
 30
0.0
 10
42.2931539437
 20
42.3718127488
 30
0.0
 10
42.3217986545
 20
42.3613568075
 30
0.0
 10
42.3660981933
 20
42.3435999325
 30
0.0
 10
42.427418689
 20
42.3162015458
 30
0.0
 10
42.5358814285
 20
42.262950776
 30
0.0
 10
42.6189502271
 20
42.2173215749
 30
0.0
 10
42.6752168425
 20
42.1845803066
 30
0.0
  0
SPLINE
  5
2BD
100
AcDbEntity
  8
0
100
AcDbSpline
 62
7
  6
BYLAYER
 70
0
 71
3
 72
19
 73
15
 74
0
 42
0.0000001
 43
0.0000001
 44
0.0000000001
 40
0.0
 40
0.0
 40
0.0
 40
0.0
 40
0.1866372187
 40
0.3671229877
 40
0.5342976109
 40
0.682047241
 40
0.7468771747
 40
0.8049147957
 40
0.8556794139
 40
0.8988441894
 40
0.9342926232
 40
0.962172963
 40
0.9833248941
 40
1.0
 40
1.0
 40
1.0
 40
1.0
 10
43.4827594838
 20
43.5832993372
 30
0.0
 10
43.4541689296
 20
43.5999715843
 30
0.0
 10
43.397370704
 20
43.6318175574
 30
0.0
 10
43.3131626303
 20
43.675292098
 30
0.0
 10
43.2335851437
 20
43.7125640739
 30
0.0
 10
43.1713222585
 20
43.7383225505
 30
0.0
 10
43.1261203688
 20
43.7544667189
 30
0.0
 10
43.0967338077
 20
43.7636889426
 30
0.0
 10
43.0706414839
 20
43.7704877312
 30
0.0
 10
43.048087567
 20
43.7747989616
 30
0.0
 10
43.0292484522
 20
43.7766389915
 30
0.0
 10
43.0142191506
 20
43.7759372833
 30
0.0
 10
43.0028219421
 20
43.7727483874
 30
0.0
 10
42.9974930711
 20
43.7680804183
 30
0.0
 10
42.9960145627
 20
43.7655195692
 30
0.0
  0
SPLINE
  5
2BE
100
AcDbEntity
  8
0
100
AcDbSpline
 62
7
  6
BYLAYER
 70
0
 71
3
 72
18
 73
14
 74
0
 42
0.0000001
 43
0.0000001
 44
0.0000000001
 40
0.0
 40
0.0
 40
0.0
 40
0.0
 40
0.0316334985
 40
0.0438989484
 40
0.0581607953
 40
0.0927985529
 40
0.1355717282
 40
0.1862785729
 40
0.2445214175
 40
0.3097860281
 40
0.4589627777
 40
0.6281274683
 40
1.0
 40
1.0
 40
1.0
 40
1.0
 10
41.1584210515
 20
42.982714427
 30
0.0
 10
41.1611893107
 20
42.9875092524
 30
0.0
 10
41.1582013746
 20
42.9965622776
 30
0.0
 10
41.1532362153
 20
43.0051244738
 30
0.0
 10
41.1470932351
 20
43.0140019064
 30
0.0
 10
41.1366884386
 20
43.0261932719
 30
0.0
 10
41.1208929737
 20
43.0421511963
 30
0.0
 10
41.1012151277
 20
43.05998804
 30
0.0
 10
41.077832027
 20
43.0795692946
 30
0.0
 10
41.040300437
 20
43.1090588404
 30
0.0
 10
40.9859102617
 20
43.1484647578
 30
0.0
 10
40.885569291
 20
43.2157580468
 30
0.0
 10
40.8045381956
 20
43.2648874204
 30
0.0
 10
40.7480616883
 20
43.2972385168
 30
0.0
  0
SPLINE
  5
2BF
100
AcDbEntity
  8
0
100
AcDbSpline
 62
7
  6
BYLAYER
 70
0
 71
3
 72
19
 73
15
 74
0
 42
0.0000001
 43
0.0000001
 44
0.0000000001
 40
0.0
 40
0.0
 40
0.0
 40
0.0
 40
0.0166732703
 40
0.0378177003
 40
0.0656859583
 40
0.1011111316
 40
0.1442512986
 40
0.1949973212
 40
0.253008293
 40
0.3178255136
 40
0.4655673956
 40
0.6327765596
 40
0.8133363248
 40
1.0
 40
1.0
 40
1.0
 40
1.0
 10
41.9567847206
 20
44.3655209702
 30
0.0
 10
41.958263057
 20
44.3680815297
 30
0.0
 10
41.9596425964
 20
44.3750280909
 30
0.0
 10
41.9567087577
 20
44.3864899691
 30
0.0
 10
41.9498043945
 20
44.3998492543
 30
0.0
 10
41.938800482
 20
44.4152375529
 30
0.0
 10
41.9237991386
 20
44.432606667
 30
0.0
 10
41.9048746372
 20
44.451795699
 30
0.0
 10
41.8822058246
 20
44.4726308732
 30
0.0
 10
41.8456304567
 20
44.5036997023
 30
0.0
 10
41.7921932637
 20
44.5447475608
 30
0.0
 10
41.7201115676
 20
44.5950377923
 30
0.0
 10
41.6403389569
 20
44.6462415023
 30
0.0
 10
41.5843470623
 20
44.6795192009
 30
0.0
 10
41.5556092371
 20
44.6959454976
 30
0.0
  0
SPLINE
  5
2C0
100
AcDbEntity
  8
0
100
AcDbSpline
 62
7
  6
BYLAYER
 70
0
 71
3
 72
19
 73
15
 74
0
 42
0.0000001
 43
0.0000001
 44
0.0000000001
 40
0.0
 40
0.0
 40
0.0
 40
0.0
 40
0.0166732739
 40
0.0378177037
 40
0.0656859583
 40
0.1011111254
 40
0.1442512832
 40
0.1949972942
 40
0.2530082545
 40
0.3178254665
 40
0.4655673348
 40
0.6327764828
 40
0.8133362784
 40
1.0
 40
1.0
 40
1.0
 40
1.0
 10
42.9960154067
 20
31.4718427082
 30
0.0
 10
42.9974937467
 20
31.4692821529
 30
0.0
 10
43.0028198696
 20
31.4646141579
 30
0.0
 10
43.0142130558
 20
31.4614239957
 30
0.0
 10
43.029234703
 20
31.4607237022
 30
0.0
 10
43.0480632983
 20
31.4625592127
 30
0.0
 10
43.0706060413
 20
31.4668661908
 30
0.0
 10
43.0966864541
 20
31.4736607649
 30
0.0
 10
43.1260646212
 20
31.482874933
 30
0.0
 10
43.1712586613
 20
31.4990156861
 30
0.0
 10
43.2335257098
 20
31.5247696491
 30
0.0
 10
43.3131190418
 20
31.5620492259
 30
0.0
 10
43.3973490946
 20
31.6055322438
 30
0.0
 10
43.4541645301
 20
31.6373834423
 30
0.0
 10
43.4827590177
 20
31.6540579675
 30
0.0
  0
SPLINE
  5
2C1
100
AcDbEntity
  8
0
100
AcDbSpline
 62
7
  6
BYLAYER
 70
0
 71
3
 72
18
 73
14
 74
0
 42
0.0000001
 43
0.0000001
 44
0.0000000001
 40
0.0
 40
0.0
 40
0.0
 40
0.0
 40
0.3718440566
 40
0.5409763924
 40
0.6901506409
 40
0.7554206755
 40
0.8136749207
 40
0.8643884972
 40
0.9071737903
 40
0.9418230375
 40
0.9560877207
 40
0.968356634
 40
1.0
 40
1.0
 40
1.0
 40
1.0
 10
42.6752182336
 20
33.0527669795
 30
0.0
 10
42.6189675085
 20
33.0200350079
 30
0.0
 10
42.5359105412
 20
32.9744365752
 30
0.0
 10
42.4274740625
 20
32.9211873827
 30
0.0
 10
42.3661576712
 20
32.8937881913
 30
0.0
 10
42.3218510823
 20
32.876028434
 30
0.0
 10
42.2931985746
 20
32.8655652984
 30
0.0
 10
42.2679076245
 20
32.8574401561
 30
0.0
 10
42.2461852372
 20
32.8517370978
 30
0.0
 10
42.2304205592
 20
32.8488194554
 30
0.0
 10
42.2196577118
 20
32.847938751
 30
0.0
 10
42.2097576328
 20
32.847920511
 30
0.0
 10
42.2004189603
 20
32.8498560769
 30
0.0
 10
42.1976498171
 20
32.8546523751
 30
0.0
  0
SPLINE
  5
2C2
100
AcDbEntity
  8
0
100
AcDbSpline
 62
7
  6
BYLAYER
 70
0
 71
3
 72
19
 73
15
 74
0
 42
0.0000001
 43
0.0000001
 44
0.0000000001
 40
0.0
 40
0.0
 40
0.0
 40
0.0
 40
0.0166730629
 40
0.0378174567
 40
0.065690567
 40
0.1011270452
 40
0.1442792917
 40
0.1950365163
 40
0.2530621393
 40
0.3178859547
 40
0.4656368905
 40
0.6328430958
 40
0.8133606341
 40
1.0
 40
1.0
 40
1.0
 40
1.0
 10
41.9567839957
 20
30.8718442253
 30
0.0
 10
41.9582622242
 20
30.8692838542
 30
0.0
 10
41.9596424723
 20
30.862338005
 30
0.0
 10
41.9567087609
 20
30.85087577
 30
0.0
 10
41.94980287
 20
30.8375150964
 30
0.0
 10
41.9387961068
 20
30.8221241013
 30
0.0
 10
41.9237918251
 20
30.8047512924
 30
0.0
 10
41.9048635887
 20
30.7855587495
 30
0.0
 10
41.8821904924
 20
30.7647225162
 30
0.0
 10
41.8456136492
 20
30.73365168
 30
0.0
 10
41.79217665
 20
30.6926065215
 30
0.0
 10
41.7201040005
 20
30.6423239943
 30
0.0
 10
41.6403477159
 20
30.5911284099
 30
0.0
 10
41.5843701349
 20
30.5578574735
 30
0.0
 10
41.5556380011
 20
30.5414339731
 30
0.0
  0
SPLINE
  5
2C3
100
AcDbEntity
  8
0
100
AcDbSpline
 62
7
  6
BYLAYER
 70
0
 71
3
 72
9
 73
5
 74
0
 42
0.0000001
 43
0.0000001
 44
0.0000000001
 40
0.0
 40
0.0
 40
0.0
 40
0.0
 40
0.4778894618
 40
1.0
 40
1.0
 40
1.0
 40
1.0
 10
27.5213056428
 20
43.9477118768
 30
0.0
 10
27.4059558888
 20
43.9660329602
 30
0.0
 10
27.1643355705
 20
44.0028161468
 30
0.0
 10
26.9224258098
 20
44.037619806
 30
0.0
 10
26.7960729262
 20
44.0554394095
 30
0.0
  0
SPLINE
  5
2C4
100
AcDbEntity
  8
0
100
AcDbSpline
 62
7
  6
BYLAYER
 70
0
 71
3
 72
9
 73
5
 74
0
 42
0.0000001
 43
0.0000001
 44
0.0000000001
 40
0.0
 40
0.0
 40
0.0
 40
0.0
 40
0.5221106534
 40
1.0
 40
1.0
 40
1.0
 40
1.0
 10
26.7960712425
 20
31.1819378344
 30
0.0
 10
26.9224245465
 20
31.1997574894
 30
0.0
 10
27.1643340166
 20
31.2345684355
 30
0.0
 10
27.4059555587
 20
31.2713485087
 30
0.0
 10
27.5213056428
 20
31.2896696409
 30
0.0
  0
ENDSEC
  0
SECTION
  2
OBJECTS
  0
DICTIONARY
  5
C
100
AcDbDictionary
280
0
281
1
  3
ACAD_GROUP
350
D
  3
ACAD_MLINESTYLE
350
17
  3
ACAD_LAYOUT
350
1A
  3
ACAD_PLOTSETTINGS
350
19
  3
ACAD_PLOTSTYLENAME
350
E
  0
DICTIONARY
  5
D
102
{ACAD_REACTORS
330
C
102
}
100
AcDbDictionary
280
0
281
1
  0
ACDBDICTIONARYWDFLT
  5
E
102
{ACAD_REACTORS
330
C
102
}
100
AcDbDictionary
281
1
  3
Normal
350
F
100
AcDbDictionaryWithDefault
340
F
  0
DICTIONARY
  5
17
102
{ACAD_REACTORS
330
C
102
}
100
AcDbDictionary
280
0
281
1
  3
Standard
350
18
  0
DICTIONARY
  5
19
102
{ACAD_REACTORS
330
C
102
}
100
AcDbDictionary
281
1
  0
DICTIONARY
  5
1A
102
{ACAD_REACTORS
330
C
102
}
100
AcDbDictionary
281
1
  3
Model
350
2C5
  3
Layout1
350
2C6
  0
ACDBPLACEHOLDER
  5
F
102
{ACAD_REACTORS
330
E
102
}
  0
MLINESTYLE
  5
18
102
{ACAD_REACTORS
330
17
102
}
100
AcDbMlineStyle
  2
STANDARD
 70
0
  3

 62
256
 51
90.0
 52
90.0
 71
2
 49
0.5
 62
256
  6
BYLAYER
 49
-0.5
 62
256
  6
BYLAYER
  0
LAYOUT
  5
2C5
102
{ACAD_REACTORS
330
1A
102
}
100
AcDbPlotSettings
  1

  2
none_device
  4

  6

 40
0.0
 41
0.0
 42
0.0
 43
0.0
 44
210.0
 45
297.0
 46
0.0
 47
0.0
 48
0.0
 49
0.0
140
0.0
141
0.0
142
1.0
143
1.0
 70
1024
 72
1
 73
0
 74
0
  7

 75
0
147
1.0
148
0.0
149
0.0
100
AcDbLayout
  1
Model
 70
0
 71
0
 10
0.0
 20
0.0
 11
210.0
 21
297.0
 12
0.0
 22
0.0
 32
0.0
 14
0.0
 24
0.0
 34
0.0
 15
0.0
 25
0.0
 35
0.0
146
0.0
 13
0.0
 23
0.0
 33
0.0
 16
1.0
 26
0.0
 36
0.0
 17
0.0
 27
1.0
 37
0.0
 76
0
330
210
345
0
346
0
  0
LAYOUT
  5
2C6
102
{ACAD_REACTORS
330
1A
102
}
100
AcDbPlotSettings
  1

  2
none_device
  4

  6

 40
0.0
 41
0.0
 42
0.0
 43
0.0
 44
210.0
 45
297.0
 46
0.0
 47
0.0
 48
0.0
 49
0.0
140
0.0
141
0.0
142
1.0
143
1.0
 70
0
 72
1
 73
0
 74
0
  7

 75
0
147
1.0
148
0.0
149
0.0
100
AcDbLayout
  1
Layout1
 70
0
 71
1
 10
0.0
 20
0.0
 11
210.0
 21
297.0
 12
0.0
 22
0.0
 32
0.0
 14
0.0
 24
0.0
 34
0.0
 15
0.0
 25
0.0
 35
0.0
146
0.0
 13
0.0
 23
0.0
 33
0.0
 16
1.0
 26
0.0
 36
0.0
 17
0.0
 27
1.0
 37
0.0
 76
0
330
211
345
0
346
0
  0
ENDSEC
  0
EOF
