999
DXF file: C:\Users\sesa63760\Dev\_Creo\CAD\MCADID0004334_3D-CAD\drw0001_2.dxf
999
Pro/ENGINEER 2019471 by Parametric Technology Corporation
  0
SECTION
  2
HEADER
  9
$ACADVER
  1
AC1024
  9
$DWGCODEPAGE
  3
ANSI_1252
  9
$EXTMAX
 10
92.8883904029
 20
131.3707235699
 30
0.0
  9
$EXTMIN
 10
0.0
 20
0.0
 30
0.0
  9
$LIMMIN
 10
0.0
 20
0.0
  9
$LIMMAX
 10
92.8883904029
 20
131.3707235699
  9
$VIEWCTR
 10
46.4441952015
 20
65.6853617849
  9
$VIEWSIZE
 40
131.3707235699
  9
$CLAYER
  8
0
  9
$LTSCALE
 40
8.5634249438
  9
$CELTYPE
  6
BYLAYER
  9
$DIMSCALE
 40
1.0
  9
$DIMASZ
 40
1.1058141715
  9
$DIMEXO
 40
1.0
  9
$DIMDLI
 40
5.916548143
  9
$DIMEXE
 40
1.0
  9
$DIMCEN
 40
1.4012877181
  9
$DIMLFAC
 40
1.0
  9
$DIMBLK
  1
_FILLED
  9
$DIMALT
 70
0
  9
$DIMALTF
 40
0.0393700787
  9
$DIMTXT
 40
1.54813984
  9
$DIMTOL
 70
1
  9
$DIMLIM
 70
0
  9
$DIMTFAC
 40
1.0
  9
$DIMTP
 40
0.01
  9
$DIMTM
 40
0.01
  9
$DIMGAP
 40
0.625
  9
$DIMDSEP
 70
46
  9
$AUNITS
 70
0
  9
$PDMODE
 70
3
  9
$PDSIZE
 40
0.3125
  9
$HANDSEED
  5
2D2
  9
$TILEMODE
 70
1
  9
$MEASUREMENT
 70
1
  9
$INSUNITS
 70
4
  0
ENDSEC
  0
SECTION
  2
CLASSES
  0
CLASS
  1
ACDBDICTIONARYWDFLT
  2
AcDbDictionaryWithDefault
  3
AutoCAD 2000
 90
0
 91
1
280
0
281
0
  0
CLASS
  1
ACDBPLACEHOLDER
  2
AcDbPlaceHolder
  3
AutoCAD 2000
 90
0
 91
1
280
0
281
0
  0
CLASS
  1
LAYOUT
  2
AcDbLayout
  3
AutoCAD 2000
 90
0
 91
0
280
0
281
0
  0
ENDSEC
  0
SECTION
  2
TABLES
  0
TABLE
  2
VPORT
  5
8
100
AcDbSymbolTable
 70
2
  0
VPORT
  5
1F4
100
AcDbSymbolTableRecord
100
AcDbViewportTableRecord
  2
*ACTIVE
 70
0
 10
0.0
 20
0.0
 11
1.0
 21
1.0
 12
46.4441952015
 22
65.6853617849
 13
0.0
 23
0.0
 14
1.0
 24
1.0
 15
0.0
 25
0.0
 16
0.0
 26
0.0
 36
1.0
 17
0.0
 27
0.0
 37
0.0
 40
131.3707235699
 41
0.7070707071
 42
50.0
 43
0.0
 44
0.0
 50
0.0
 51
0.0
 71
0
 72
100
 73
1
 74
1
 75
0
 76
0
 77
0
 78
0
  0
ENDTAB
  0
TABLE
  2
LTYPE
  5
5
100
AcDbSymbolTable
 70
6
  0
LTYPE
  5
14
100
AcDbSymbolTableRecord
100
AcDbLinetypeTableRecord
  2
BYBLOCK
 70
0
  3

 72
65
 73
0
 40
0.0
  0
LTYPE
  5
15
100
AcDbSymbolTableRecord
100
AcDbLinetypeTableRecord
  2
BYLAYER
 70
0
  3

 72
65
 73
0
 40
0.0
  0
LTYPE
  5
16
100
AcDbSymbolTableRecord
100
AcDbLinetypeTableRecord
  2
CONTINUOUS
 70
64
  3
Solid line
 72
65
 73
0
 40
0.0
  0
LTYPE
  5
1F5
100
AcDbSymbolTableRecord
100
AcDbLinetypeTableRecord
  2
CENTER
 70
64
  3
____ _ ____ _ ____ _ ____ _ ____ _ ____ _ ____
 72
65
 73
4
 40
0.6
 49
0.375
 74
0
 49
-0.075
 74
0
 49
0.075
 74
0
 49
-0.075
 74
0
  0
LTYPE
  5
1F6
100
AcDbSymbolTableRecord
100
AcDbLinetypeTableRecord
  2
HIDDEN
 70
64
  3
- - - - - - - - - - - - - - - - - - - -
 72
65
 73
2
 40
0.2
 49
0.1
 74
0
 49
-0.1
 74
0
  0
LTYPE
  5
1F7
100
AcDbSymbolTableRecord
100
AcDbLinetypeTableRecord
  2
PHANTOM
 70
64
  3
_____ _ _ _____ _ _ _____ _ _ _____
 72
65
 73
6
 40
0.8
 49
0.45
 74
0
 49
-0.05
 74
0
 49
0.1
 74
0
 49
-0.05
 74
0
 49
0.1
 74
0
 49
-0.05
 74
0
  0
LTYPE
  5
1F8
100
AcDbSymbolTableRecord
100
AcDbLinetypeTableRecord
  2
DOT
 70
64
  3
. . . . . . . . . . . . . . . . . . . .
 72
65
 73
2
 40
0.2
 49
0.1
 74
0
 49
-0.1
 74
0
  0
LTYPE
  5
1F9
100
AcDbSymbolTableRecord
100
AcDbLinetypeTableRecord
  2
DASHED
 70
64
  3
- - - - - - - - - - - - - - - - - - - -
 72
65
 73
2
 40
0.2
 49
0.1
 74
0
 49
-0.1
 74
0
  0
ENDTAB
  0
TABLE
  2
LAYER
  5
2
100
AcDbSymbolTable
 70
36
  0
LAYER
  5
10
100
AcDbSymbolTableRecord
100
AcDbLayerTableRecord
  2
0
 70
0
 62
7
  6
CONTINUOUS
370
-3
390
F
  0
LAYER
  5
1FA
100
AcDbSymbolTableRecord
100
AcDbLayerTableRecord
  2
DEFAULT_1
 70
0
 62
7
  6
CENTER
370
-3
390
F
  0
LAYER
  5
1FB
100
AcDbSymbolTableRecord
100
AcDbLayerTableRecord
  2
DEFAULT_2
 70
0
 62
7
  6
HIDDEN
370
-3
390
F
  0
LAYER
  5
1FC
100
AcDbSymbolTableRecord
100
AcDbLayerTableRecord
  2
DEFAULT_3
 70
0
 62
7
  6
PHANTOM
370
-3
390
F
  0
LAYER
  5
1FD
100
AcDbSymbolTableRecord
100
AcDbLayerTableRecord
  2
00_COMPONENTS
 70
0
 62
7
  6
CONTINUOUS
370
-3
390
F
  0
LAYER
  5
1FE
100
AcDbSymbolTableRecord
100
AcDbLayerTableRecord
  2
01_1_DEFAULT_DATUMS
 70
0
 62
7
  6
CONTINUOUS
370
-3
390
F
  0
LAYER
  5
1FF
100
AcDbSymbolTableRecord
100
AcDbLayerTableRecord
  2
01_PLANES
 70
0
 62
7
  6
CONTINUOUS
370
-3
390
F
  0
LAYER
  5
200
100
AcDbSymbolTableRecord
100
AcDbLayerTableRecord
  2
02_COORD_SYS
 70
0
 62
7
  6
CONTINUOUS
370
-3
390
F
  0
LAYER
  5
201
100
AcDbSymbolTableRecord
100
AcDbLayerTableRecord
  2
03_AXES
 70
0
 62
7
  6
CONTINUOUS
370
-3
390
F
  0
LAYER
  5
202
100
AcDbSymbolTableRecord
100
AcDbLayerTableRecord
  2
04_POINTS
 70
0
 62
7
  6
CONTINUOUS
370
-3
390
F
  0
LAYER
  5
203
100
AcDbSymbolTableRecord
100
AcDbLayerTableRecord
  2
05_CURVES
 70
0
 62
7
  6
CONTINUOUS
370
-3
390
F
  0
LAYER
  5
204
100
AcDbSymbolTableRecord
100
AcDbLayerTableRecord
  2
06_SURFS
 70
0
 62
7
  6
CONTINUOUS
370
-3
390
F
  0
LAYER
  5
205
100
AcDbSymbolTableRecord
100
AcDbLayerTableRecord
  2
07_COSMETICS
 70
0
 62
7
  6
CONTINUOUS
370
-3
390
F
  0
LAYER
  5
206
100
AcDbSymbolTableRecord
100
AcDbLayerTableRecord
  2
10_NOTES
 70
0
 62
7
  6
CONTINUOUS
370
-3
390
F
  0
LAYER
  5
207
100
AcDbSymbolTableRecord
100
AcDbLayerTableRecord
  2
11_NOTES_PUB
 70
0
 62
7
  6
CONTINUOUS
370
-3
390
F
  0
LAYER
  5
208
100
AcDbSymbolTableRecord
100
AcDbLayerTableRecord
  2
13_REF_GTOL
 70
0
 62
7
  6
CONTINUOUS
370
-3
390
F
  0
LAYER
  5
209
100
AcDbSymbolTableRecord
100
AcDbLayerTableRecord
  2
16_MISC
 70
0
 62
7
  6
CONTINUOUS
370
-3
390
F
  0
LAYER
  5
20A
100
AcDbSymbolTableRecord
100
AcDbLayerTableRecord
  2
17_NO_PRINT
 70
0
 62
7
  6
CONTINUOUS
370
-3
390
F
  0
LAYER
  5
20B
100
AcDbSymbolTableRecord
100
AcDbLayerTableRecord
  2
18_DATUM_CAMS_JOINTS
 70
0
 62
7
  6
CONTINUOUS
370
-3
390
F
  0
LAYER
  5
20C
100
AcDbSymbolTableRecord
100
AcDbLayerTableRecord
  2
19_DATUM_FUNCTIONAL
 70
0
 62
7
  6
CONTINUOUS
370
-3
390
F
  0
LAYER
  5
20D
100
AcDbSymbolTableRecord
100
AcDbLayerTableRecord
  2
20_DATUM_KINEMATIC_SCHEME
 70
0
 62
7
  6
CONTINUOUS
370
-3
390
F
  0
ENDTAB
  0
TABLE
  2
STYLE
  5
3
100
AcDbSymbolTable
 70
1
  0
STYLE
  5
11
100
AcDbSymbolTableRecord
100
AcDbTextStyleTableRecord
  2
STANDARD
 70
0
 40
0.0
 41
1.0
 50
0.0
 71
0
 42
0.2
  3
ARIAL.TTF
  4

  0
STYLE
  5
20E
100
AcDbSymbolTableRecord
100
AcDbTextStyleTableRecord
  2
TEXTSTYLE_1
 70
0
 40
0.0
 41
0.8
 50
0.0
 71
0
 42
0.2
  3
gdt
  4

  0
ENDTAB
  0
TABLE
  2
VIEW
  5
6
100
AcDbSymbolTable
 70
0
  0
ENDTAB
  0
TABLE
  2
UCS
  5
7
100
AcDbSymbolTable
 70
0
  0
ENDTAB
  0
TABLE
  2
APPID
  5
9
100
AcDbSymbolTable
 70
1
  0
APPID
  5
20F
100
AcDbSymbolTableRecord
100
AcDbRegAppTableRecord
  2
ACAD
 70
0
  0
ENDTAB
  0
TABLE
  2
BLOCK_RECORD
  5
1
100
AcDbSymbolTable
 70
0
  0
BLOCK_RECORD
  5
210
100
AcDbSymbolTableRecord
100
AcDbBlockTableRecord
  2
*Model_Space
  0
BLOCK_RECORD
  5
211
100
AcDbSymbolTableRecord
100
AcDbBlockTableRecord
  2
*Paper_Space
  0
BLOCK_RECORD
  5
212
100
AcDbSymbolTableRecord
100
AcDbBlockTableRecord
  2
_FILLED
  0
ENDTAB
  0
TABLE
  2
DIMSTYLE
  5
A
100
AcDbSymbolTable
 70
1
100
AcDbDimStyleTable
 71
0
  0
DIMSTYLE
105
213
100
AcDbSymbolTableRecord
100
AcDbDimStyleTableRecord
  2
STANDARD
 70
0
  3

  4

 40
1.0
 41
1.1058141715
 42
1.0
 43
0.38
 44
1.0
 45
0.0
 46
0.0
 47
0.01
 48
0.01
140
1.54813984
141
0.09
142
0.0
143
25.4
144
1.0
145
0.0
146
1.0
147
0.625
 71
1
 72
0
 73
0
 74
0
 75
0
 76
0
 77
1
 78
8
 79
2
170
0
171
1
172
0
173
0
174
0
175
0
176
0
177
0
178
0
270
2
179
2
271
2
272
2
273
2
274
2
275
0
280
0
281
0
282
0
283
1
284
8
285
0
286
0
287
3
288
0
340
11
278
46
341
212
342
212
343
212
344
212
  0
ENDTAB
  0
ENDSEC
  0
SECTION
  2
BLOCKS
  0
BLOCK
  5
20
100
AcDbEntity
  8
0
100
AcDbBlockBegin
  2
*Model_Space
 70
0
 10
0.0
 20
0.0
 30
0.0
  3
*Model_Space
  1

  0
ENDBLK
  5
21
100
AcDbEntity
  8
0
100
AcDbBlockEnd
  0
BLOCK
  5
1C
100
AcDbEntity
  8
0
100
AcDbBlockBegin
  2
*Paper_Space
 70
0
 10
0.0
 20
0.0
 30
0.0
  3
*Paper_Space
  1

  0
ENDBLK
  5
1D
100
AcDbEntity
  8
0
100
AcDbBlockEnd
  0
BLOCK
  5
214
100
AcDbEntity
  8
0
100
AcDbBlockBegin
  2
_FILLED
 70
64
 10
0.0
 20
0.0
  3
_FILLED
  1

  0
SOLID
  5
215
100
AcDbEntity
  8
0
  6
BYBLOCK
 62
0
100
AcDbTrace
 10
0.0
 20
0.0
 11
-1.0
 21
0.25
 12
-1.0
 22
-0.25
 13
-1.0
 23
-0.25
  0
ENDBLK
  5
216
100
AcDbEntity
  8
0
  6
BYBLOCK
 62
0
100
AcDbBlockEnd
  0
ENDSEC
  0
SECTION
  2
ENTITIES
  0
LINE
  5
217
100
AcDbEntity
  8
0
100
AcDbLine
 62
7
  6
BYLAYER
 10
26.6129706686
 20
118.560667493
 11
27.8949976557
 21
119.6317280138
  0
LINE
  5
218
100
AcDbEntity
  8
0
100
AcDbLine
 62
7
  6
BYLAYER
 10
21.1595821705
 20
116.6065662644
 11
20.7863316389
 21
116.4199409986
  0
LINE
  5
219
100
AcDbEntity
  8
0
100
AcDbLine
 62
7
  6
BYLAYER
 10
66.3933618131
 20
8.7634081206
 11
55.786303469
 21
8.7634081206
  0
LINE
  5
21A
100
AcDbEntity
  8
0
100
AcDbLine
 62
7
  6
BYLAYER
 10
55.786303469
 20
10.2882627664
 11
66.3933618131
 21
10.2882627664
  0
LINE
  5
21B
100
AcDbEntity
  8
0
100
AcDbLine
 62
7
  6
BYLAYER
 10
66.9889022664
 20
10.7270820478
 11
55.1907630157
 21
10.7270820478
  0
LINE
  5
21C
100
AcDbEntity
  8
0
100
AcDbLine
 62
7
  6
BYLAYER
 10
55.1907630157
 20
16.8273477722
 11
66.9889022664
 21
16.8273477722
  0
LINE
  5
21D
100
AcDbEntity
  8
0
100
AcDbLine
 62
7
  6
BYLAYER
 10
21.0599583337
 20
116.9510987002
 11
21.6233074111
 21
118.2387537344
  0
LINE
  5
21E
100
AcDbEntity
  8
0
100
AcDbLine
 62
7
  6
BYLAYER
 10
62.3453978672
 20
119.4781217048
 11
62.6995030016
 21
119.6229828962
  0
LINE
  5
21F
100
AcDbEntity
  8
0
100
AcDbLine
 62
7
  6
BYLAYER
 10
55.5287724622
 20
17.0687830911
 11
66.65089282
 21
17.0687830911
  0
LINE
  5
220
100
AcDbEntity
  8
0
100
AcDbLine
 62
7
  6
BYLAYER
 10
71.5922690136
 20
18.7749260114
 11
50.5873962685
 21
18.7749260114
  0
LINE
  5
221
100
AcDbEntity
  8
0
100
AcDbLine
 62
7
  6
BYLAYER
 10
71.9908955131
 20
19.2899880251
 11
63.8722369005
 21
19.2899880251
  0
LINE
  5
222
100
AcDbEntity
  8
0
100
AcDbLine
 62
7
  6
BYLAYER
 10
58.3074283816
 20
19.2899880251
 11
50.188769769
 21
19.2899880251
  0
LINE
  5
223
100
AcDbEntity
  8
0
100
AcDbLine
 62
7
  6
BYLAYER
 10
18.2198326411
 20
32.6699655975
 11
15.8498326411
 21
36.7749260114
  0
LINE
  5
224
100
AcDbEntity
  8
0
100
AcDbLine
 62
7
  6
BYLAYER
 10
11.4508326411
 20
119.220590698
 11
11.4508326411
 21
115.3415299075
  0
LINE
  5
225
100
AcDbEntity
  8
0
100
AcDbLine
 62
7
  6
BYLAYER
 10
11.4508326411
 20
39.2089260114
 11
11.4508326411
 21
31.0725557642
  0
LINE
  5
226
100
AcDbEntity
  8
0
100
AcDbLine
 62
7
  6
BYLAYER
 10
50.568131844
 20
30.1534964906
 11
54.9898326411
 21
30.7749260114
  0
LINE
  5
227
100
AcDbEntity
  8
0
100
AcDbLine
 62
7
  6
BYLAYER
 10
55.786303469
 20
10.2882627664
 11
55.1907630157
 21
10.7270820478
  0
LINE
  5
228
100
AcDbEntity
  8
0
100
AcDbLine
 62
7
  6
BYLAYER
 10
12.7703013854
 20
30.7789260114
 11
12.7703013854
 21
39.2775222458
  0
LINE
  5
229
100
AcDbEntity
  8
0
100
AcDbLine
 62
7
  6
BYLAYER
 10
12.7703013854
 20
115.2739731078
 11
12.7703013854
 21
118.3272172446
  0
LINE
  5
22A
100
AcDbEntity
  8
0
100
AcDbLine
 62
7
  6
BYLAYER
 10
12.9155402425
 20
115.2665368783
 11
12.9155402425
 21
39.2852263108
  0
LINE
  5
22B
100
AcDbEntity
  8
0
100
AcDbLine
 62
7
  6
BYLAYER
 10
13.729992006
 20
31.2727000957
 11
13.729992006
 21
39.3275678398
  0
LINE
  5
22C
100
AcDbEntity
  8
0
100
AcDbLine
 62
7
  6
BYLAYER
 10
13.729992006
 20
39.542504521
 11
13.729992006
 21
115.0560645369
  0
LINE
  5
22D
100
AcDbEntity
  8
0
100
AcDbLine
 62
7
  6
BYLAYER
 10
13.729992006
 20
115.1889462868
 11
13.729992006
 21
117.9698723818
  0
LINE
  5
22E
100
AcDbEntity
  8
0
100
AcDbLine
 62
7
  6
BYLAYER
 10
54.7908663153
 20
30.7749260114
 11
76.0908663153
 21
30.7749260114
  0
LINE
  5
22F
100
AcDbEntity
  8
0
100
AcDbLine
 62
7
  6
BYLAYER
 10
11.7026448928
 20
30.7789260114
 11
53.9920712608
 21
30.7789260114
  0
LINE
  5
230
100
AcDbEntity
  8
0
100
AcDbLine
 62
7
  6
BYLAYER
 10
13.729992006
 20
31.2727000957
 11
54.1060679905
 21
31.2727000957
  0
LINE
  5
231
100
AcDbEntity
  8
0
100
AcDbLine
 62
7
  6
BYLAYER
 10
54.8482541662
 20
31.7823092052
 11
55.023439051
 21
31.7823092052
  0
LINE
  5
232
100
AcDbEntity
  8
0
100
AcDbLine
 62
7
  6
BYLAYER
 10
18.2198326411
 20
32.6699655975
 11
22.9598326411
 21
32.6699655975
  0
LINE
  5
233
100
AcDbEntity
  8
0
100
AcDbLine
 62
7
  6
BYLAYER
 10
68.2198326411
 20
32.6699655975
 11
72.9598326411
 21
32.6699655975
  0
LINE
  5
234
100
AcDbEntity
  8
0
100
AcDbLine
 62
7
  6
BYLAYER
 10
28.1962120623
 20
32.67052559
 11
35.9221422674
 21
32.67052559
  0
LINE
  5
235
100
AcDbEntity
  8
0
100
AcDbLine
 62
7
  6
BYLAYER
 10
38.1916342651
 20
32.67052559
 11
42.9237665158
 21
32.67052559
  0
LINE
  5
236
100
AcDbEntity
  8
0
100
AcDbLine
 62
7
  6
BYLAYER
 10
30.0898326411
 20
34.0249260114
 11
33.5898326411
 21
34.0249260114
  0
LINE
  5
237
100
AcDbEntity
  8
0
100
AcDbLine
 62
7
  6
BYLAYER
 10
22.9598326411
 20
40.8798864253
 11
25.3298326411
 21
36.7749260114
  0
LINE
  5
238
100
AcDbEntity
  8
0
100
AcDbLine
 62
7
  6
BYLAYER
 10
28.1962120623
 20
32.67052559
 11
25.830145937
 21
36.7749260114
  0
LINE
  5
239
100
AcDbEntity
  8
0
100
AcDbLine
 62
7
  6
BYLAYER
 10
19.7398628819
 20
77.0983158662
 11
20.9309437885
 21
114.6656514884
  0
LINE
  5
23A
100
AcDbEntity
  8
0
100
AcDbLine
 62
7
  6
BYLAYER
 10
21.5103885539
 20
114.8266083677
 11
20.3032119593
 21
77.0822201782
  0
LINE
  5
23B
100
AcDbEntity
  8
0
100
AcDbLine
 62
7
  6
BYLAYER
 10
16.2149072258
 20
39.6758414352
 11
19.7398628819
 21
77.0983158662
  0
LINE
  5
23C
100
AcDbEntity
  8
0
100
AcDbLine
 62
7
  6
BYLAYER
 10
20.3032119593
 20
77.0822201782
 11
16.7138735516
 21
39.4826931801
  0
LINE
  5
23D
100
AcDbEntity
  8
0
100
AcDbLine
 62
7
  6
BYLAYER
 10
61.4440393432
 20
118.560667493
 11
62.3453978672
 21
119.4781217048
  0
LINE
  5
23E
100
AcDbEntity
  8
0
100
AcDbLine
 62
7
  6
BYLAYER
 10
66.65089282
 20
17.0687830911
 11
66.9889022664
 21
16.8273477722
  0
LINE
  5
23F
100
AcDbEntity
  8
0
100
AcDbLine
 62
7
  6
BYLAYER
 10
50.5873962685
 20
18.7749260114
 11
50.1848409487
 21
19.1774813312
  0
LINE
  5
240
100
AcDbEntity
  8
0
100
AcDbLine
 62
7
  6
BYLAYER
 10
12.9155402425
 20
39.4988022312
 11
16.2149072258
 21
39.6758414352
  0
LINE
  5
241
100
AcDbEntity
  8
0
100
AcDbLine
 62
7
  6
BYLAYER
 10
16.7138735516
 20
39.4826931801
 11
11.4508326411
 21
39.2089260114
  0
LINE
  5
242
100
AcDbEntity
  8
0
100
AcDbLine
 62
7
  6
BYLAYER
 10
33.5898326411
 20
39.5249260114
 11
30.0898326411
 21
39.5249260114
  0
LINE
  5
243
100
AcDbEntity
  8
0
100
AcDbLine
 62
7
  6
BYLAYER
 10
42.9237665158
 20
40.8793264329
 11
38.1916342651
 21
40.8793264329
  0
LINE
  5
244
100
AcDbEntity
  8
0
100
AcDbLine
 62
7
  6
BYLAYER
 10
35.9221422674
 20
40.8793264329
 11
28.1962120623
 21
40.8793264329
  0
LINE
  5
245
100
AcDbEntity
  8
0
100
AcDbLine
 62
7
  6
BYLAYER
 10
72.9598326411
 20
40.8798864253
 11
68.2198326411
 21
40.8798864253
  0
LINE
  5
246
100
AcDbEntity
  8
0
100
AcDbLine
 62
7
  6
BYLAYER
 10
22.9598326411
 20
40.8798864253
 11
18.2198326411
 21
40.8798864253
  0
LINE
  5
247
100
AcDbEntity
  8
0
100
AcDbLine
 62
7
  6
BYLAYER
 10
35.9221422674
 20
40.8793264329
 11
36.6303525362
 21
39.6560541504
  0
LINE
  5
248
100
AcDbEntity
  8
0
100
AcDbLine
 62
7
  6
BYLAYER
 10
38.1916342651
 20
32.67052559
 11
37.4995196843
 21
33.8937978724
  0
LINE
  5
249
100
AcDbEntity
  8
0
100
AcDbLine
 62
7
  6
BYLAYER
 10
29.5898326411
 20
119.5430595146
 11
29.5898326411
 21
121.6249097106
  0
LINE
  5
24A
100
AcDbEntity
  8
0
100
AcDbLine
 62
7
  6
BYLAYER
 10
76.5898326411
 20
52.5738923372
 11
69.0668291304
 21
50.8370701248
  0
LINE
  5
24B
100
AcDbEntity
  8
0
100
AcDbLine
 62
7
  6
BYLAYER
 10
70.1072119837
 20
51.8770634625
 11
76.6523834484
 21
53.3881353592
  0
LINE
  5
24C
100
AcDbEntity
  8
0
100
AcDbLine
 62
7
  6
BYLAYER
 10
30.0898326411
 20
119.5057197023
 11
30.0898326411
 21
122.1249260114
  0
LINE
  5
24D
100
AcDbEntity
  8
0
100
AcDbLine
 62
7
  6
BYLAYER
 10
79.910664719
 20
118.3379678751
 11
80.9325190836
 21
119.3360498199
  0
LINE
  5
24E
100
AcDbEntity
  8
0
100
AcDbLine
 62
7
  6
BYLAYER
 10
42.9237665158
 20
40.8793264329
 11
45.2898326411
 21
36.7749260114
  0
LINE
  5
24F
100
AcDbEntity
  8
0
100
AcDbLine
 62
7
  6
BYLAYER
 10
18.9514232152
 20
116.7901418209
 11
18.7099878963
 21
117.7397874087
  0
LINE
  5
250
100
AcDbEntity
  8
0
100
AcDbLine
 62
7
  6
BYLAYER
 10
34.851024753
 20
122.1249260114
 11
34.851024753
 21
119.5057197023
  0
LINE
  5
251
100
AcDbEntity
  8
0
100
AcDbLine
 62
7
  6
BYLAYER
 10
37.384845219
 20
119.5832461578
 11
37.384845219
 21
120.9920285336
  0
LINE
  5
252
100
AcDbEntity
  8
0
100
AcDbLine
 62
7
  6
BYLAYER
 10
15.8498326411
 20
36.7749260114
 11
18.2198326411
 21
40.8798864253
  0
LINE
  5
253
100
AcDbEntity
  8
0
100
AcDbLine
 62
7
  6
BYLAYER
 10
21.0599583337
 20
116.9510987002
 11
21.1595821705
 21
116.6065662644
  0
LINE
  5
254
100
AcDbEntity
  8
0
100
AcDbLine
 62
7
  6
BYLAYER
 10
25.830145937
 20
36.7749260114
 11
28.1962120623
 21
40.8793264329
  0
LINE
  5
255
100
AcDbEntity
  8
0
100
AcDbLine
 62
7
  6
BYLAYER
 10
65.8498326411
 20
110.7749260114
 11
68.2198326411
 21
114.8798864253
  0
LINE
  5
256
100
AcDbEntity
  8
0
100
AcDbLine
 62
7
  6
BYLAYER
 10
65.8498326411
 20
109.7749260114
 11
66.1385077757
 21
110.2749260114
  0
LINE
  5
257
100
AcDbEntity
  8
0
100
AcDbLine
 62
7
  6
BYLAYER
 10
25.3298326411
 20
36.7749260114
 11
22.9598326411
 21
32.6699655975
  0
LINE
  5
258
100
AcDbEntity
  8
0
100
AcDbLine
 62
7
  6
BYLAYER
 10
50.1848409487
 20
19.1774813312
 11
50.568131844
 21
30.1534964906
  0
LINE
  5
259
100
AcDbEntity
  8
0
100
AcDbLine
 62
7
  6
BYLAYER
 10
37.4995196843
 20
39.6560541504
 11
38.1916342651
 21
40.8793264329
  0
LINE
  5
25A
100
AcDbEntity
  8
0
100
AcDbLine
 62
7
  6
BYLAYER
 10
75.3298326411
 20
110.7749260114
 11
75.0411575065
 21
110.2749260114
  0
LINE
  5
25B
100
AcDbEntity
  8
0
100
AcDbLine
 62
7
  6
BYLAYER
 10
75.3298326411
 20
109.7749260114
 11
72.9598326411
 21
105.6699655975
  0
LINE
  5
25C
100
AcDbEntity
  8
0
100
AcDbLine
 62
7
  6
BYLAYER
 10
68.2198326411
 20
32.6699655975
 11
65.8498326411
 21
36.7749260114
  0
LINE
  5
25D
100
AcDbEntity
  8
0
100
AcDbLine
 62
7
  6
BYLAYER
 10
54.9145439659
 20
31.3106327711
 11
54.8482541662
 21
31.7823092052
  0
LINE
  5
25E
100
AcDbEntity
  8
0
100
AcDbLine
 62
7
  6
BYLAYER
 10
55.1907630157
 20
10.7270820478
 11
55.1907630157
 21
16.8273477722
  0
LINE
  5
25F
100
AcDbEntity
  8
0
100
AcDbLine
 62
7
  6
BYLAYER
 10
55.786303469
 20
8.7634081206
 11
55.786303469
 21
10.2882627664
  0
LINE
  5
260
100
AcDbEntity
  8
0
100
AcDbLine
 62
7
  6
BYLAYER
 10
55.7891829417
 20
119.4892218391
 11
55.7891829417
 21
119.8449260114
  0
LINE
  5
261
100
AcDbEntity
  8
0
100
AcDbLine
 62
7
  6
BYLAYER
 10
55.8178949184
 20
119.8934138975
 11
55.8178949184
 21
119.8449260114
  0
LINE
  5
262
100
AcDbEntity
  8
0
100
AcDbLine
 62
7
  6
BYLAYER
 10
55.8345905328
 20
17.0687830911
 11
55.8345905328
 21
18.7749260114
  0
LINE
  5
263
100
AcDbEntity
  8
0
100
AcDbLine
 62
7
  6
BYLAYER
 10
36.6303525362
 20
33.8937978724
 11
35.9221422674
 21
32.67052559
  0
LINE
  5
264
100
AcDbEntity
  8
0
100
AcDbLine
 62
7
  6
BYLAYER
 10
45.2898326411
 20
36.7749260114
 11
42.9237665158
 21
32.67052559
  0
LINE
  5
265
100
AcDbEntity
  8
0
100
AcDbLine
 62
7
  6
BYLAYER
 10
11.6212065302
 20
119.4855449619
 11
12.7700649913
 21
118.3274855571
  0
LINE
  5
266
100
AcDbEntity
  8
0
100
AcDbLine
 62
7
  6
BYLAYER
 10
72.9598326411
 20
40.8798864253
 11
75.3298326411
 21
36.7749260114
  0
LINE
  5
267
100
AcDbEntity
  8
0
100
AcDbLine
 62
7
  6
BYLAYER
 10
61.3617703638
 20
119.8449260114
 11
61.3617703638
 21
119.8934138975
  0
LINE
  5
268
100
AcDbEntity
  8
0
100
AcDbLine
 62
7
  6
BYLAYER
 10
61.3904823404
 20
119.8449260114
 11
61.3904823404
 21
119.3329342341
  0
LINE
  5
269
100
AcDbEntity
  8
0
100
AcDbLine
 62
7
  6
BYLAYER
 10
61.4440393432
 20
119.1618615912
 11
61.4440393432
 21
118.560667493
  0
LINE
  5
26A
100
AcDbEntity
  8
0
100
AcDbLine
 62
7
  6
BYLAYER
 10
54.1050565491
 20
31.2683190617
 11
53.9920712608
 21
30.7789260114
  0
LINE
  5
26B
100
AcDbEntity
  8
0
100
AcDbLine
 62
7
  6
BYLAYER
 10
54.1060679905
 20
31.2727000957
 11
55.4878037578
 21
37.2576552366
  0
LINE
  5
26C
100
AcDbEntity
  8
0
100
AcDbLine
 62
7
  6
BYLAYER
 10
56.5276885277
 20
38.2979295221
 11
54.7908663153
 21
30.7749260114
  0
LINE
  5
26D
100
AcDbEntity
  8
0
100
AcDbLine
 62
7
  6
BYLAYER
 10
66.3450747493
 20
18.7749260114
 11
66.3450747493
 21
17.0687830911
  0
LINE
  5
26E
100
AcDbEntity
  8
0
100
AcDbLine
 62
7
  6
BYLAYER
 10
66.3933618131
 20
10.2882627664
 11
66.3933618131
 21
8.7634081206
  0
LINE
  5
26F
100
AcDbEntity
  8
0
100
AcDbLine
 62
7
  6
BYLAYER
 10
66.9889022664
 20
16.8273477722
 11
66.9889022664
 21
10.7270820478
  0
LINE
  5
270
100
AcDbEntity
  8
0
100
AcDbLine
 62
7
  6
BYLAYER
 10
67.8398326411
 20
110.7749260114
 11
67.8398326411
 21
109.2749260114
  0
LINE
  5
271
100
AcDbEntity
  8
0
100
AcDbLine
 62
7
  6
BYLAYER
 10
73.3385036798
 20
93.5481089278
 11
75.3665603586
 21
102.3202588482
  0
LINE
  5
272
100
AcDbEntity
  8
0
100
AcDbLine
 62
7
  6
BYLAYER
 10
71.9948243335
 20
19.1774813312
 11
71.5898326411
 21
30.7749260114
  0
LINE
  5
273
100
AcDbEntity
  8
0
100
AcDbLine
 62
7
  6
BYLAYER
 10
73.3398326411
 20
109.2749260114
 11
73.3398326411
 21
110.7749260114
  0
LINE
  5
274
100
AcDbEntity
  8
0
100
AcDbLine
 62
7
  6
BYLAYER
 10
55.4878037578
 20
37.2576552366
 11
70.1072119837
 21
51.8770634625
  0
LINE
  5
275
100
AcDbEntity
  8
0
100
AcDbLine
 62
7
  6
BYLAYER
 10
16.5853570899
 20
119.5103130807
 11
18.5007439532
 21
118.0295097914
  0
LINE
  5
276
100
AcDbEntity
  8
0
100
AcDbLine
 62
7
  6
BYLAYER
 10
75.3665603586
 20
118.2124373331
 11
75.3665603586
 21
102.3202588482
  0
LINE
  5
277
100
AcDbEntity
  8
0
100
AcDbLine
 62
7
  6
BYLAYER
 10
76.5898326411
 20
31.2694401079
 11
76.5898326411
 21
52.5738923372
  0
LINE
  5
278
100
AcDbEntity
  8
0
100
AcDbLine
 62
7
  6
BYLAYER
 10
77.0890480086
 20
56.9946611711
 11
77.0890480086
 21
59.0826045994
  0
LINE
  5
279
100
AcDbEntity
  8
0
100
AcDbLine
 62
7
  6
BYLAYER
 10
76.6523834484
 20
53.3881353592
 11
77.0890480086
 21
56.9946611711
  0
LINE
  5
27A
100
AcDbEntity
  8
0
100
AcDbLine
 62
7
  6
BYLAYER
 10
77.0890480086
 20
59.0826045994
 11
79.5516882614
 21
73.0742534104
  0
LINE
  5
27B
100
AcDbEntity
  8
0
100
AcDbLine
 62
7
  6
BYLAYER
 10
65.8498326411
 20
36.7749260114
 11
68.2198326411
 21
40.8798864253
  0
LINE
  5
27C
100
AcDbEntity
  8
0
100
AcDbLine
 62
7
  6
BYLAYER
 10
37.384845219
 20
120.9920285336
 11
38.6511229232
 21
119.5767769819
  0
LINE
  5
27D
100
AcDbEntity
  8
0
100
AcDbLine
 62
7
  6
BYLAYER
 10
81.0003882021
 20
119.1510143445
 11
81.1451613662
 21
110.6093976569
  0
LINE
  5
27E
100
AcDbEntity
  8
0
100
AcDbLine
 62
7
  6
BYLAYER
 10
79.1801190149
 20
118.2124373331
 11
79.1801190149
 21
70.9631588643
  0
LINE
  5
27F
100
AcDbEntity
  8
0
100
AcDbLine
 62
7
  6
BYLAYER
 10
79.9104741446
 20
81.5256542129
 11
79.9104741446
 21
118.3377601072
  0
LINE
  5
280
100
AcDbEntity
  8
0
100
AcDbLine
 62
7
  6
BYLAYER
 10
81.4198326411
 20
118.4255757108
 11
81.4198326411
 21
118.3968637341
  0
LINE
  5
281
100
AcDbEntity
  8
0
100
AcDbLine
 62
7
  6
BYLAYER
 10
81.4198326411
 20
112.8529882887
 11
81.4198326411
 21
112.8242763121
  0
LINE
  5
282
100
AcDbEntity
  8
0
100
AcDbLine
 62
7
  6
BYLAYER
 10
81.4683205272
 20
118.3968637341
 11
81.4683205272
 21
112.8529882887
  0
LINE
  5
283
100
AcDbEntity
  8
0
100
AcDbLine
 62
7
  6
BYLAYER
 10
81.9672868529
 20
118.2178513693
 11
81.9672868529
 21
113.0320006535
  0
LINE
  5
284
100
AcDbEntity
  8
0
100
AcDbLine
 62
7
  6
BYLAYER
 10
81.1451613662
 20
110.6093976569
 11
79.5516882614
 21
73.0742534104
  0
LINE
  5
285
100
AcDbEntity
  8
0
100
AcDbLine
 62
7
  6
BYLAYER
 10
75.3298326411
 20
36.7749260114
 11
72.9598326411
 21
32.6699655975
  0
LINE
  5
286
100
AcDbEntity
  8
0
100
AcDbLine
 62
7
  6
BYLAYER
 10
68.2198326411
 20
105.6699655975
 11
72.9598326411
 21
105.6699655975
  0
LINE
  5
287
100
AcDbEntity
  8
0
100
AcDbLine
 62
7
  6
BYLAYER
 10
16.2795390193
 20
119.6229828962
 11
16.5853570899
 21
119.5103130807
  0
LINE
  5
288
100
AcDbEntity
  8
0
100
AcDbLine
 62
7
  6
BYLAYER
 10
68.2198326411
 20
105.6699655975
 11
65.8498326411
 21
109.7749260114
  0
LINE
  5
289
100
AcDbEntity
  8
0
100
AcDbLine
 62
7
  6
BYLAYER
 10
66.1385077757
 20
110.2749260114
 11
65.8498326411
 21
110.7749260114
  0
LINE
  5
28A
100
AcDbEntity
  8
0
100
AcDbLine
 62
7
  6
BYLAYER
 10
55.1907630157
 20
16.8273477722
 11
55.5287724622
 21
17.0687830911
  0
LINE
  5
28B
100
AcDbEntity
  8
0
100
AcDbLine
 62
7
  6
BYLAYER
 10
81.4198326411
 20
112.8242763121
 11
81.1076210501
 21
112.8242763121
  0
LINE
  5
28C
100
AcDbEntity
  8
0
100
AcDbLine
 62
7
  6
BYLAYER
 10
81.4198326411
 20
112.8529882887
 11
81.4683205272
 21
112.8529882887
  0
LINE
  5
28D
100
AcDbEntity
  8
0
100
AcDbLine
 62
7
  6
BYLAYER
 10
72.9598326411
 20
114.8798864253
 11
68.2198326411
 21
114.8798864253
  0
LINE
  5
28E
100
AcDbEntity
  8
0
100
AcDbLine
 62
7
  6
BYLAYER
 10
12.9155402425
 20
115.2268758134
 11
21.5103885539
 21
114.8266083677
  0
LINE
  5
28F
100
AcDbEntity
  8
0
100
AcDbLine
 62
7
  6
BYLAYER
 10
12.9155402425
 20
115.2665368783
 11
11.4508326411
 21
115.3415299075
  0
LINE
  5
290
100
AcDbEntity
  8
0
100
AcDbLine
 62
7
  6
BYLAYER
 10
12.9155402425
 20
115.1002215602
 11
20.9309437885
 21
114.6656514884
  0
LINE
  5
291
100
AcDbEntity
  8
0
100
AcDbLine
 62
7
  6
BYLAYER
 10
75.0411575065
 20
110.2749260114
 11
75.3298326411
 21
109.7749260114
  0
LINE
  5
292
100
AcDbEntity
  8
0
100
AcDbLine
 62
7
  6
BYLAYER
 10
72.9598326411
 20
114.8798864253
 11
75.3298326411
 21
110.7749260114
  0
LINE
  5
293
100
AcDbEntity
  8
0
100
AcDbLine
 62
7
  6
BYLAYER
 10
71.9948243335
 20
19.1774813312
 11
71.5922690136
 21
18.7749260114
  0
LINE
  5
294
100
AcDbEntity
  8
0
100
AcDbLine
 62
7
  6
BYLAYER
 10
19.4503895409
 20
116.4199409986
 11
20.7863316389
 21
116.4199409986
  0
LINE
  5
295
100
AcDbEntity
  8
0
100
AcDbLine
 62
7
  6
BYLAYER
 10
13.729992006
 20
117.9698723818
 11
18.578625318
 21
117.9698723818
  0
LINE
  5
296
100
AcDbEntity
  8
0
100
AcDbLine
 62
7
  6
BYLAYER
 10
21.5056718194
 20
117.9698723818
 11
75.3665603586
 21
117.9698723818
  0
LINE
  5
297
100
AcDbEntity
  8
0
100
AcDbLine
 62
7
  6
BYLAYER
 10
13.3138712762
 20
118.1928671296
 11
18.2894447875
 21
118.1928671296
  0
LINE
  5
298
100
AcDbEntity
  8
0
100
AcDbLine
 62
7
  6
BYLAYER
 10
21.6032320215
 20
118.1928671296
 11
75.3665603586
 21
118.1928671296
  0
LINE
  5
299
100
AcDbEntity
  8
0
100
AcDbLine
 62
7
  6
BYLAYER
 10
75.3665603586
 20
118.2124373331
 11
79.1801190149
 21
118.2124373331
  0
LINE
  5
29A
100
AcDbEntity
  8
0
100
AcDbLine
 62
7
  6
BYLAYER
 10
81.4683205272
 20
118.3968637341
 11
81.4198326411
 21
118.3968637341
  0
LINE
  5
29B
100
AcDbEntity
  8
0
100
AcDbLine
 62
7
  6
BYLAYER
 10
81.0126837721
 20
118.4255757108
 11
81.4198326411
 21
118.4255757108
  0
LINE
  5
29C
100
AcDbEntity
  8
0
100
AcDbLine
 62
7
  6
BYLAYER
 10
26.6129706686
 20
118.560667493
 11
22.3637090558
 21
118.560667493
  0
LINE
  5
29D
100
AcDbEntity
  8
0
100
AcDbLine
 62
7
  6
BYLAYER
 10
80.7004312838
 20
119.445930329
 11
80.3886640337
 21
119.445930329
  0
LINE
  5
29E
100
AcDbEntity
  8
0
100
AcDbLine
 62
7
  6
BYLAYER
 10
30.0898326411
 20
119.5057197023
 11
34.851024753
 21
119.5057197023
  0
LINE
  5
29F
100
AcDbEntity
  8
0
100
AcDbLine
 62
7
  6
BYLAYER
 10
27.8949976557
 20
119.6317280138
 11
29.5898326411
 21
119.6230694189
  0
LINE
  5
2A0
100
AcDbEntity
  8
0
100
AcDbLine
 62
7
  6
BYLAYER
 10
37.3526538665
 20
119.5834106174
 11
61.1461852111
 21
119.4618539165
  0
LINE
  5
2A1
100
AcDbEntity
  8
0
100
AcDbLine
 62
7
  6
BYLAYER
 10
66.9889022664
 20
10.7270820478
 11
66.3933618131
 21
10.2882627664
  0
LINE
  5
2A2
100
AcDbEntity
  8
0
100
AcDbLine
 62
7
  6
BYLAYER
 10
11.7566507117
 20
119.5264087686
 11
14.4607262835
 21
119.6229828962
  0
LINE
  5
2A3
100
AcDbEntity
  8
0
100
AcDbLine
 62
7
  6
BYLAYER
 10
80.1150373389
 20
119.6229828962
 11
62.6995030016
 21
119.6229828962
  0
LINE
  5
2A4
100
AcDbEntity
  8
0
100
AcDbLine
 62
7
  6
BYLAYER
 10
16.2795390193
 20
119.6229828962
 11
14.4607262835
 21
119.6229828962
  0
LINE
  5
2A5
100
AcDbEntity
  8
0
100
AcDbLine
 62
7
  6
BYLAYER
 10
55.7891829417
 20
119.8449260114
 11
55.8178949184
 21
119.8449260114
  0
LINE
  5
2A6
100
AcDbEntity
  8
0
100
AcDbLine
 62
7
  6
BYLAYER
 10
61.3617703638
 20
119.8449260114
 11
61.3904823404
 21
119.8449260114
  0
LINE
  5
2A7
100
AcDbEntity
  8
0
100
AcDbLine
 62
7
  6
BYLAYER
 10
55.8178949184
 20
119.8934138975
 11
61.3617703638
 21
119.8934138975
  0
LINE
  5
2A8
100
AcDbEntity
  8
0
100
AcDbLine
 62
7
  6
BYLAYER
 10
55.9969072831
 20
120.3923802233
 11
61.182757999
 21
120.3923802233
  0
LINE
  5
2A9
100
AcDbEntity
  8
0
100
AcDbLine
 62
7
  6
BYLAYER
 10
30.0898326411
 20
122.1249260114
 11
34.851024753
 21
122.1249260114
  0
LINE
  5
2AA
100
AcDbEntity
  8
0
100
AcDbLine
 62
7
  6
BYLAYER
 10
80.1150373389
 20
119.6229828962
 11
80.3886640337
 21
119.445930329
  0
ARC
  5
2AB
100
AcDbEntity
  8
0
100
AcDbCircle
 62
7
  6
BYLAYER
 10
261.0534239035
 20
4.5917746704
 40
207.7260712552
100
AcDbArc
 50
154.6441671311
 51
170.8113108772
  0
ARC
  5
2AC
100
AcDbEntity
  8
0
100
AcDbCircle
 62
7
  6
BYLAYER
 10
34.851024753
 20
118.7249260114
 40
3.4
100
AcDbArc
 50
41.8201698801
 51
90.0
  0
CIRCLE
  5
2AD
100
AcDbEntity
  8
0
100
AcDbCircle
 62
7
  6
BYLAYER
 10
70.5898326411
 20
36.7749260114
 40
2.75
  0
ARC
  5
2AE
100
AcDbEntity
  8
0
100
AcDbCircle
 62
7
  6
BYLAYER
 10
70.5898326411
 20
110.7749260114
 40
2.75
100
AcDbArc
 50
0.0
 51
180.0
  0
ARC
  5
2AF
100
AcDbEntity
  8
0
100
AcDbCircle
 62
7
  6
BYLAYER
 10
70.5898326411
 20
109.2749260114
 40
2.75
100
AcDbArc
 50
180.0
 51
360.0
  0
CIRCLE
  5
2B0
100
AcDbEntity
  8
0
100
AcDbCircle
 62
7
  6
BYLAYER
 10
20.5898326411
 20
36.7749260114
 40
2.75
  0
CIRCLE
  5
2B1
100
AcDbEntity
  8
0
100
AcDbCircle
 62
7
  6
BYLAYER
 10
40.5898326411
 20
36.7749260114
 40
2.75
  0
ARC
  5
2B2
100
AcDbEntity
  8
0
100
AcDbCircle
 62
7
  6
BYLAYER
 10
33.5898326411
 20
36.7749260114
 40
2.75
100
AcDbArc
 50
270.0
 51
90.0
  0
ARC
  5
2B3
100
AcDbEntity
  8
0
100
AcDbCircle
 62
7
  6
BYLAYER
 10
30.0898326411
 20
36.7749260114
 40
2.75
100
AcDbArc
 50
90.0
 51
270.0
  0
ARC
  5
2B4
100
AcDbEntity
  8
0
100
AcDbCircle
 62
7
  6
BYLAYER
 10
22.3875919288
 20
117.4933181145
 40
1.0676165451
100
AcDbArc
 50
91.2818291234
 51
135.7153022285
  0
ARC
  5
2B5
100
AcDbEntity
  8
0
100
AcDbCircle
 62
7
  6
BYLAYER
 10
37.0649361102
 20
33.5472762833
 40
0.5558237981
100
AcDbArc
 50
38.5676208296
 51
141.4323791703
  0
ARC
  5
2B6
100
AcDbEntity
  8
0
100
AcDbCircle
 62
7
  6
BYLAYER
 10
37.0649361102
 20
40.0025757395
 40
0.5558237981
100
AcDbArc
 50
218.5676208297
 51
321.4323791704
  0
ARC
  5
2B7
100
AcDbEntity
  8
0
100
AcDbCircle
 62
7
  6
BYLAYER
 10
19.4663014881
 20
116.9627478625
 40
0.5430400368
100
AcDbArc
 50
198.5330369436
 51
268.3209010993
  0
ARC
  5
2B8
100
AcDbEntity
  8
0
100
AcDbCircle
 62
7
  6
BYLAYER
 10
30.0898326411
 20
121.6249260114
 40
0.5
100
AcDbArc
 50
90.0
 51
180.0
  0
ARC
  5
2B9
100
AcDbEntity
  8
0
100
AcDbCircle
 62
7
  6
BYLAYER
 10
76.0951997698
 20
31.2695588827
 40
0.4946518535
100
AcDbArc
 50
269.4980473144
 51
0.5019526856
  0
ARC
  5
2BA
100
AcDbEntity
  8
0
100
AcDbCircle
 62
7
  6
BYLAYER
 10
18.2613205953
 20
117.6361714176
 40
0.4604765147
100
AcDbArc
 50
13.0039987764
 51
58.6713071322
  0
ARC
  5
2BB
100
AcDbEntity
  8
0
100
AcDbCircle
 62
7
  6
BYLAYER
 10
11.7830936276
 20
119.1941477821
 40
0.3333115524
100
AcDbArc
 50
94.5502811377
 51
175.4497188624
  0
ARC
  5
2BC
100
AcDbEntity
  8
0
100
AcDbCircle
 62
7
  6
BYLAYER
 10
11.7526267897
 20
31.0765796861
 40
0.3018209736
100
AcDbArc
 50
180.7638984605
 51
260.4678423976
  0
ARC
  5
2BD
100
AcDbEntity
  8
0
100
AcDbCircle
 62
7
  6
BYLAYER
 10
61.1440393432
 20
119.1618615912
 40
0.3
100
AcDbArc
 50
0.0
 51
89.5901659347
  0
ARC
  5
2BE
100
AcDbEntity
  8
0
100
AcDbCircle
 62
7
  6
BYLAYER
 10
80.7004312838
 20
119.145930329
 40
0.3
100
AcDbArc
 50
0.9710219311
 51
90.0
  0
SPLINE
  5
2BF
100
AcDbEntity
  8
0
100
AcDbSpline
 62
7
  6
BYLAYER
 70
0
 71
3
 72
11
 73
7
 74
0
 42
0.0000001
 43
0.0000001
 44
0.0000000001
 40
0.0
 40
0.0
 40
0.0
 40
0.0
 40
0.2500054226
 40
0.5
 40
0.7499945774
 40
1.0
 40
1.0
 40
1.0
 40
1.0
 10
63.8722369005
 20
19.2899880251
 30
0.0
 10
63.4177996633
 20
19.1767524961
 30
0.0
 10
62.4956485334
 20
18.9989556301
 30
0.0
 10
61.0898326411
 20
18.9071581824
 30
0.0
 10
59.6840167488
 20
18.9989556301
 30
0.0
 10
58.7618656189
 20
19.1767524961
 30
0.0
 10
58.3074283816
 20
19.2899880251
 30
0.0
  0
SPLINE
  5
2C0
100
AcDbEntity
  8
0
100
AcDbSpline
 62
7
  6
BYLAYER
 70
0
 71
3
 72
12
 73
8
 74
0
 42
0.0000001
 43
0.0000001
 44
0.0000000001
 40
0.0
 40
0.0
 40
0.0
 40
0.0
 40
0.1250006457
 40
0.2500015655
 40
0.5000004045
 40
0.7499999106
 40
1.0
 40
1.0
 40
1.0
 40
1.0
 10
63.8722369005
 20
19.2899880251
 30
0.0
 10
63.9635424799
 20
19.7651806424
 30
0.0
 10
64.1378346362
 20
20.7171759665
 30
0.0
 10
64.4605627824
 20
22.6256519069
 30
0.0
 10
64.8253811795
 20
25.0175529487
 30
0.0
 10
65.2205406136
 20
27.8938888769
 30
0.0
 10
65.4626713726
 20
29.814250211
 30
0.0
 10
65.579598403
 20
30.7749260114
 30
0.0
  0
SPLINE
  5
2C1
100
AcDbEntity
  8
0
100
AcDbSpline
 62
7
  6
BYLAYER
 70
0
 71
3
 72
12
 73
8
 74
0
 42
0.0000001
 43
0.0000001
 44
0.0000000001
 40
0.0
 40
0.0
 40
0.0
 40
0.0
 40
0.1250006456
 40
0.2500015661
 40
0.5000004048
 40
0.749999911
 40
1.0
 40
1.0
 40
1.0
 40
1.0
 10
58.3074283816
 20
19.2899880251
 30
0.0
 10
58.216122804
 20
19.7651806333
 30
0.0
 10
58.0418345158
 20
20.7171766624
 30
0.0
 10
57.7191085982
 20
22.625652916
 30
0.0
 10
57.3542894787
 20
25.0175537838
 30
0.0
 10
56.9591255894
 20
27.8938890404
 30
0.0
 10
56.7169939071
 20
29.814250231
 30
0.0
 10
56.6000668792
 20
30.7749260114
 30
0.0
  0
SPLINE
  5
2C2
100
AcDbEntity
  8
0
100
AcDbSpline
 62
7
  6
BYLAYER
 70
0
 71
3
 72
12
 73
8
 74
0
 42
0.0000001
 43
0.0000001
 44
0.0000000001
 40
0.0
 40
0.0
 40
0.0
 40
0.0
 40
0.2499712063
 40
0.4999241767
 40
0.7498684178
 40
0.8749302426
 40
1.0
 40
1.0
 40
1.0
 40
1.0
 10
81.9671114276
 20
113.0319376865
 30
0.0
 10
82.0941731469
 20
113.2216724071
 30
0.0
 10
82.319418668
 20
113.6214346397
 30
0.0
 10
82.5603475514
 20
114.2654065101
 30
0.0
 10
82.6764890754
 20
114.8268688796
 30
0.0
 10
82.7182443834
 20
115.2820838505
 30
0.0
 10
82.7239295961
 20
115.5106738927
 30
0.0
 10
82.7239295961
 20
115.6249260114
 30
0.0
  0
SPLINE
  5
2C3
100
AcDbEntity
  8
0
100
AcDbSpline
 62
7
  6
BYLAYER
 70
0
 71
3
 72
12
 73
8
 74
0
 42
0.0000001
 43
0.0000001
 44
0.0000000001
 40
0.0
 40
0.0
 40
0.0
 40
0.0
 40
0.1250692379
 40
0.2501302086
 40
0.5000728962
 40
0.7500261549
 40
1.0
 40
1.0
 40
1.0
 40
1.0
 10
82.7239295961
 20
115.6249260114
 30
0.0
 10
82.7239295961
 20
115.7391776476
 30
0.0
 10
82.718244061
 20
115.9677663979
 30
0.0
 10
82.6764898744
 20
116.4229787639
 30
0.0
 10
82.5603485917
 20
116.9844390478
 30
0.0
 10
82.3194228003
 20
117.6284134154
 30
0.0
 10
82.0941748697
 20
118.028177486
 30
0.0
 10
81.9671118179
 20
118.2179141962
 30
0.0
  0
LINE
  5
2C4
100
AcDbEntity
  8
0
100
AcDbLine
 62
7
  6
BYLAYER
 10
81.4683205272
 20
112.8529882887
 11
81.9671114276
 21
113.0319376865
  0
LINE
  5
2C5
100
AcDbEntity
  8
0
100
AcDbLine
 62
7
  6
BYLAYER
 10
81.9671118179
 20
118.2179141962
 11
81.4683205272
 21
118.3968637341
  0
SPLINE
  5
2C6
100
AcDbEntity
  8
0
100
AcDbSpline
 62
7
  6
BYLAYER
 70
0
 71
3
 72
12
 73
8
 74
0
 42
0.0000001
 43
0.0000001
 44
0.0000000001
 40
0.0
 40
0.0
 40
0.0
 40
0.0
 40
0.2499712063
 40
0.4999241767
 40
0.7498684178
 40
0.8749302426
 40
1.0
 40
1.0
 40
1.0
 40
1.0
 10
61.1828209659
 20
120.392204798
 30
0.0
 10
60.9930862454
 20
120.5192665172
 30
0.0
 10
60.5933240128
 20
120.7445120383
 30
0.0
 10
59.9493521424
 20
120.9854409217
 30
0.0
 10
59.3878897729
 20
121.1015824457
 30
0.0
 10
58.932674802
 20
121.1433377537
 30
0.0
 10
58.7040847598
 20
121.1490229664
 30
0.0
 10
58.5898326411
 20
121.1490229664
 30
0.0
  0
SPLINE
  5
2C7
100
AcDbEntity
  8
0
100
AcDbSpline
 62
7
  6
BYLAYER
 70
0
 71
3
 72
12
 73
8
 74
0
 42
0.0000001
 43
0.0000001
 44
0.0000000001
 40
0.0
 40
0.0
 40
0.0
 40
0.0
 40
0.1250692379
 40
0.2501302086
 40
0.5000728962
 40
0.7500261549
 40
1.0
 40
1.0
 40
1.0
 40
1.0
 10
58.5898326411
 20
121.1490229664
 30
0.0
 10
58.4755810049
 20
121.1490229664
 30
0.0
 10
58.2469922546
 20
121.1433374313
 30
0.0
 10
57.7917798886
 20
121.1015832447
 30
0.0
 10
57.2303196047
 20
120.985441962
 30
0.0
 10
56.5863452371
 20
120.7445161706
 30
0.0
 10
56.1865811665
 20
120.51926824
 30
0.0
 10
55.9968444563
 20
120.3922051882
 30
0.0
  0
LINE
  5
2C8
100
AcDbEntity
  8
0
100
AcDbLine
 62
7
  6
BYLAYER
 10
61.3617703638
 20
119.8934138975
 11
61.1828209659
 21
120.392204798
  0
LINE
  5
2C9
100
AcDbEntity
  8
0
100
AcDbLine
 62
7
  6
BYLAYER
 10
55.9968444563
 20
120.3922051882
 11
55.8178949184
 21
119.8934138975
  0
SPLINE
  5
2CA
100
AcDbEntity
  8
0
100
AcDbSpline
 62
7
  6
BYLAYER
 70
0
 71
3
 72
11
 73
7
 74
0
 42
0.0000001
 43
0.0000001
 44
0.0000000001
 40
0.0
 40
0.0
 40
0.0
 40
0.0
 40
0.2451429682
 40
0.493357083
 40
0.7452064656
 40
1.0
 40
1.0
 40
1.0
 40
1.0
 10
13.3138712762
 20
118.1928671296
 30
0.0
 10
13.3403661185
 20
118.1633972533
 30
0.0
 10
13.3971495768
 20
118.1070380667
 30
0.0
 10
13.4948462351
 20
118.0355460305
 30
0.0
 10
13.6066965777
 20
117.9842058274
 30
0.0
 10
13.6888080359
 20
117.9705149084
 30
0.0
 10
13.729992006
 20
117.9698723818
 30
0.0
  0
SPLINE
  5
2CB
100
AcDbEntity
  8
0
100
AcDbSpline
 62
7
  6
BYLAYER
 70
0
 71
3
 72
20
 73
16
 74
0
 42
0.0000001
 43
0.0000001
 44
0.0000000001
 40
0.0
 40
0.0
 40
0.0
 40
0.0
 40
0.0182801706
 40
0.0365532293
 40
0.054832589
 40
0.0730963236
 40
0.1095870231
 40
0.1460095098
 40
0.2905464929
 40
0.4320007213
 40
0.5684092805
 40
0.6971784022
 40
0.8149677463
 40
0.917159122
 40
1.0
 40
1.0
 40
1.0
 40
1.0
 10
13.7340632939
 20
31.2684117352
 30
0.0
 10
13.729139856
 20
31.2649361837
 30
0.0
 10
13.7199261963
 20
31.2571424814
 30
0.0
 10
13.7055825953
 20
31.2461283934
 30
0.0
 10
13.6905176865
 20
31.2361329398
 30
0.0
 10
13.670939322
 20
31.2221169678
 30
0.0
 10
13.6463223263
 20
31.2048669423
 30
0.0
 10
13.5877247523
 20
31.1635682945
 30
0.0
 10
13.5005538928
 20
31.1027424182
 30
0.0
 10
13.3854752195
 20
31.024319212
 30
0.0
 10
13.2731854424
 20
30.951056573
 30
0.0
 10
13.1654125122
 20
30.885267809
 30
0.0
 10
13.0639128688
 20
30.8308913001
 30
0.0
 10
12.9720792091
 20
30.7918221325
 30
0.0
 10
12.9113044177
 20
30.7785137232
 30
0.0
 10
12.8839966577
 20
30.7789260114
 30
0.0
  0
SPLINE
  5
2CC
100
AcDbEntity
  8
0
100
AcDbSpline
 62
7
  6
BYLAYER
 70
0
 71
3
 72
16
 73
12
 74
0
 42
0.0000001
 43
0.0000001
 44
0.0000000001
 40
0.0
 40
0.0
 40
0.0
 40
0.0
 40
0.0070269449
 40
0.0195053974
 40
0.0655456868
 40
0.142318577
 40
0.251973786
 40
0.3956724788
 40
0.5727203645
 40
0.7780985133
 40
1.0
 40
1.0
 40
1.0
 40
1.0
 10
29.5898326411
 20
119.543060674
 30
0.0
 10
29.5898326411
 20
119.5418790078
 30
0.0
 10
29.5922466722
 20
119.5390071116
 30
0.0
 10
29.6021822038
 20
119.5346038394
 30
0.0
 10
29.6246175558
 20
119.5292805642
 30
0.0
 10
29.6631717461
 20
119.5236377645
 30
0.0
 10
29.7184872018
 20
119.5180841302
 30
0.0
 10
29.7906733952
 20
119.5130870928
 30
0.0
 10
29.879070446
 20
119.5090213124
 30
0.0
 10
29.9806624804
 20
119.5063452026
 30
0.0
 10
30.052517211
 20
119.5057197023
 30
0.0
 10
30.0898326411
 20
119.5057197023
 30
0.0
  0
SPLINE
  5
2CD
100
AcDbEntity
  8
0
100
AcDbSpline
 62
7
  6
BYLAYER
 70
0
 71
3
 72
13
 73
9
 74
0
 42
0.0000001
 43
0.0000001
 44
0.0000000001
 40
0.0
 40
0.0
 40
0.0
 40
0.0
 40
0.3441218688
 40
0.6420402608
 40
0.7646293475
 40
0.8659936578
 40
0.9443646972
 40
1.0
 40
1.0
 40
1.0
 40
1.0
 10
79.1824752402
 20
118.2124373331
 30
0.0
 10
79.268104164
 20
118.2139855868
 30
0.0
 10
79.4277948741
 20
118.2218789109
 30
0.0
 10
79.6170792441
 20
118.2440463464
 30
0.0
 10
79.744496036
 20
118.2694249495
 30
0.0
 10
79.8172310846
 20
118.2892905088
 30
0.0
 10
79.8717573718
 20
118.3106620691
 30
0.0
 10
79.9007584661
 20
118.3282940669
 30
0.0
 10
79.910664719
 20
118.3379678751
 30
0.0
  0
SPLINE
  5
2CE
100
AcDbEntity
  8
0
100
AcDbSpline
 62
7
  6
BYLAYER
 70
0
 71
3
 72
12
 73
8
 74
0
 42
0.0000001
 43
0.0000001
 44
0.0000000001
 40
0.0
 40
0.0
 40
0.0
 40
0.0
 40
0.0606247155
 40
0.140214799
 40
0.358128689
 40
0.6494554304
 40
1.0
 40
1.0
 40
1.0
 40
1.0
 10
12.7700649913
 20
118.3274855571
 30
0.0
 10
12.7781228079
 20
118.3193629617
 30
0.0
 10
12.7999676785
 20
118.3038778843
 30
0.0
 10
12.8609257096
 20
118.2744643199
 30
0.0
 10
12.9681981868
 20
118.2432180694
 30
0.0
 10
13.1276590984
 20
118.2131533744
 30
0.0
 10
13.2480925308
 20
118.1989578768
 30
0.0
 10
13.3139679173
 20
118.1928671296
 30
0.0
  0
SPLINE
  5
2CF
100
AcDbEntity
  8
0
100
AcDbSpline
 62
7
  6
BYLAYER
 70
0
 71
3
 72
9
 73
5
 74
0
 42
0.0000001
 43
0.0000001
 44
0.0000000001
 40
0.0
 40
0.0
 40
0.0
 40
0.0
 40
0.576206452
 40
1.0
 40
1.0
 40
1.0
 40
1.0
 10
34.851024753
 20
119.5057197023
 30
0.0
 10
35.3318470569
 20
119.5057197023
 30
0.0
 10
36.1663670987
 20
119.5193598489
 30
0.0
 10
37.000065647
 20
119.5590227249
 30
0.0
 10
37.3528633424
 20
119.5834095473
 30
0.0
  0
ENDSEC
  0
SECTION
  2
OBJECTS
  0
DICTIONARY
  5
C
100
AcDbDictionary
280
0
281
1
  3
ACAD_GROUP
350
D
  3
ACAD_MLINESTYLE
350
17
  3
ACAD_LAYOUT
350
1A
  3
ACAD_PLOTSETTINGS
350
19
  3
ACAD_PLOTSTYLENAME
350
E
  0
DICTIONARY
  5
D
102
{ACAD_REACTORS
330
C
102
}
100
AcDbDictionary
280
0
281
1
  0
ACDBDICTIONARYWDFLT
  5
E
102
{ACAD_REACTORS
330
C
102
}
100
AcDbDictionary
281
1
  3
Normal
350
F
100
AcDbDictionaryWithDefault
340
F
  0
DICTIONARY
  5
17
102
{ACAD_REACTORS
330
C
102
}
100
AcDbDictionary
280
0
281
1
  3
Standard
350
18
  0
DICTIONARY
  5
19
102
{ACAD_REACTORS
330
C
102
}
100
AcDbDictionary
281
1
  0
DICTIONARY
  5
1A
102
{ACAD_REACTORS
330
C
102
}
100
AcDbDictionary
281
1
  3
Model
350
2D0
  3
Layout1
350
2D1
  0
ACDBPLACEHOLDER
  5
F
102
{ACAD_REACTORS
330
E
102
}
  0
MLINESTYLE
  5
18
102
{ACAD_REACTORS
330
17
102
}
100
AcDbMlineStyle
  2
STANDARD
 70
0
  3

 62
256
 51
90.0
 52
90.0
 71
2
 49
0.5
 62
256
  6
BYLAYER
 49
-0.5
 62
256
  6
BYLAYER
  0
LAYOUT
  5
2D0
102
{ACAD_REACTORS
330
1A
102
}
100
AcDbPlotSettings
  1

  2
none_device
  4

  6

 40
0.0
 41
0.0
 42
0.0
 43
0.0
 44
210.0
 45
297.0
 46
0.0
 47
0.0
 48
0.0
 49
0.0
140
0.0
141
0.0
142
1.0
143
1.0
 70
1024
 72
1
 73
0
 74
0
  7

 75
0
147
1.0
148
0.0
149
0.0
100
AcDbLayout
  1
Model
 70
0
 71
0
 10
0.0
 20
0.0
 11
210.0
 21
297.0
 12
0.0
 22
0.0
 32
0.0
 14
0.0
 24
0.0
 34
0.0
 15
0.0
 25
0.0
 35
0.0
146
0.0
 13
0.0
 23
0.0
 33
0.0
 16
1.0
 26
0.0
 36
0.0
 17
0.0
 27
1.0
 37
0.0
 76
0
330
210
345
0
346
0
  0
LAYOUT
  5
2D1
102
{ACAD_REACTORS
330
1A
102
}
100
AcDbPlotSettings
  1

  2
none_device
  4

  6

 40
0.0
 41
0.0
 42
0.0
 43
0.0
 44
210.0
 45
297.0
 46
0.0
 47
0.0
 48
0.0
 49
0.0
140
0.0
141
0.0
142
1.0
143
1.0
 70
0
 72
1
 73
0
 74
0
  7

 75
0
147
1.0
148
0.0
149
0.0
100
AcDbLayout
  1
Layout1
 70
0
 71
1
 10
0.0
 20
0.0
 11
210.0
 21
297.0
 12
0.0
 22
0.0
 32
0.0
 14
0.0
 24
0.0
 34
0.0
 15
0.0
 25
0.0
 35
0.0
146
0.0
 13
0.0
 23
0.0
 33
0.0
 16
1.0
 26
0.0
 36
0.0
 17
0.0
 27
1.0
 37
0.0
 76
0
330
211
345
0
346
0
  0
ENDSEC
  0
EOF
