999
DXF file: C:\Users\sesa63760\Dev\_Creo\CAD\MCADID0004676_3D-CAD\drw0001_4.dxf
999
Pro/ENGINEER 2019471 by Parametric Technology Corporation
  0
SECTION
  2
HEADER
  9
$ACADVER
  1
AC1024
  9
$DWGCODEPAGE
  3
ANSI_1252
  9
$EXTMAX
 10
11.8953183515
 20
16.8233788114
 30
0.0
  9
$EXTMIN
 10
0.0
 20
0.0
 30
0.0
  9
$LIMMIN
 10
0.0
 20
0.0
  9
$LIMMAX
 10
11.8953183515
 20
16.8233788114
  9
$VIEWCTR
 10
5.9476591758
 20
8.4116894057
  9
$VIEWSIZE
 40
16.8233788114
  9
$CLAYER
  8
0
  9
$LTSCALE
 40
1.0966350633
  9
$CELTYPE
  6
BYLAYER
  9
$DIMSCALE
 40
1.0
  9
$DIMASZ
 40
0.1416109328
  9
$DIMEXO
 40
1.0
  9
$DIMDLI
 40
0.7576751346
  9
$DIMEXE
 40
1.0
  9
$DIMCEN
 40
0.179449374
  9
$DIMLFAC
 40
1.0
  9
$DIMBLK
  1
_FILLED
  9
$DIMALT
 70
0
  9
$DIMALTF
 40
0.0393700787
  9
$DIMTXT
 40
0.1982553059
  9
$DIMTOL
 70
1
  9
$DIMLIM
 70
0
  9
$DIMTFAC
 40
1.0
  9
$DIMTP
 40
0.01
  9
$DIMTM
 40
0.01
  9
$DIMGAP
 40
0.625
  9
$DIMDSEP
 70
46
  9
$AUNITS
 70
0
  9
$PDMODE
 70
3
  9
$PDSIZE
 40
0.3125
  9
$HANDSEED
  5
26C
  9
$TILEMODE
 70
1
  9
$MEASUREMENT
 70
1
  9
$INSUNITS
 70
4
  0
ENDSEC
  0
SECTION
  2
CLASSES
  0
CLASS
  1
ACDBDICTIONARYWDFLT
  2
AcDbDictionaryWithDefault
  3
AutoCAD 2000
 90
0
 91
1
280
0
281
0
  0
CLASS
  1
ACDBPLACEHOLDER
  2
AcDbPlaceHolder
  3
AutoCAD 2000
 90
0
 91
1
280
0
281
0
  0
CLASS
  1
LAYOUT
  2
AcDbLayout
  3
AutoCAD 2000
 90
0
 91
0
280
0
281
0
  0
ENDSEC
  0
SECTION
  2
TABLES
  0
TABLE
  2
VPORT
  5
8
100
AcDbSymbolTable
 70
2
  0
VPORT
  5
1F4
100
AcDbSymbolTableRecord
100
AcDbViewportTableRecord
  2
*ACTIVE
 70
0
 10
0.0
 20
0.0
 11
1.0
 21
1.0
 12
5.9476591758
 22
8.4116894057
 13
0.0
 23
0.0
 14
1.0
 24
1.0
 15
0.0
 25
0.0
 16
0.0
 26
0.0
 36
1.0
 17
0.0
 27
0.0
 37
0.0
 40
16.8233788114
 41
0.7070707071
 42
50.0
 43
0.0
 44
0.0
 50
0.0
 51
0.0
 71
0
 72
100
 73
1
 74
1
 75
0
 76
0
 77
0
 78
0
  0
ENDTAB
  0
TABLE
  2
LTYPE
  5
5
100
AcDbSymbolTable
 70
6
  0
LTYPE
  5
14
100
AcDbSymbolTableRecord
100
AcDbLinetypeTableRecord
  2
BYBLOCK
 70
0
  3

 72
65
 73
0
 40
0.0
  0
LTYPE
  5
15
100
AcDbSymbolTableRecord
100
AcDbLinetypeTableRecord
  2
BYLAYER
 70
0
  3

 72
65
 73
0
 40
0.0
  0
LTYPE
  5
16
100
AcDbSymbolTableRecord
100
AcDbLinetypeTableRecord
  2
CONTINUOUS
 70
64
  3
Solid line
 72
65
 73
0
 40
0.0
  0
LTYPE
  5
1F5
100
AcDbSymbolTableRecord
100
AcDbLinetypeTableRecord
  2
CENTER
 70
64
  3
____ _ ____ _ ____ _ ____ _ ____ _ ____ _ ____
 72
65
 73
4
 40
0.6
 49
0.375
 74
0
 49
-0.075
 74
0
 49
0.075
 74
0
 49
-0.075
 74
0
  0
LTYPE
  5
1F6
100
AcDbSymbolTableRecord
100
AcDbLinetypeTableRecord
  2
HIDDEN
 70
64
  3
- - - - - - - - - - - - - - - - - - - -
 72
65
 73
2
 40
0.2
 49
0.1
 74
0
 49
-0.1
 74
0
  0
LTYPE
  5
1F7
100
AcDbSymbolTableRecord
100
AcDbLinetypeTableRecord
  2
PHANTOM
 70
64
  3
_____ _ _ _____ _ _ _____ _ _ _____
 72
65
 73
6
 40
0.8
 49
0.45
 74
0
 49
-0.05
 74
0
 49
0.1
 74
0
 49
-0.05
 74
0
 49
0.1
 74
0
 49
-0.05
 74
0
  0
LTYPE
  5
1F8
100
AcDbSymbolTableRecord
100
AcDbLinetypeTableRecord
  2
DOT
 70
64
  3
. . . . . . . . . . . . . . . . . . . .
 72
65
 73
2
 40
0.2
 49
0.1
 74
0
 49
-0.1
 74
0
  0
LTYPE
  5
1F9
100
AcDbSymbolTableRecord
100
AcDbLinetypeTableRecord
  2
DASHED
 70
64
  3
- - - - - - - - - - - - - - - - - - - -
 72
65
 73
2
 40
0.2
 49
0.1
 74
0
 49
-0.1
 74
0
  0
ENDTAB
  0
TABLE
  2
LAYER
  5
2
100
AcDbSymbolTable
 70
36
  0
LAYER
  5
10
100
AcDbSymbolTableRecord
100
AcDbLayerTableRecord
  2
0
 70
0
 62
7
  6
CONTINUOUS
370
-3
390
F
  0
LAYER
  5
1FA
100
AcDbSymbolTableRecord
100
AcDbLayerTableRecord
  2
DEFAULT_1
 70
0
 62
7
  6
CENTER
370
-3
390
F
  0
LAYER
  5
1FB
100
AcDbSymbolTableRecord
100
AcDbLayerTableRecord
  2
DEFAULT_2
 70
0
 62
7
  6
HIDDEN
370
-3
390
F
  0
LAYER
  5
1FC
100
AcDbSymbolTableRecord
100
AcDbLayerTableRecord
  2
DEFAULT_3
 70
0
 62
7
  6
PHANTOM
370
-3
390
F
  0
LAYER
  5
1FD
100
AcDbSymbolTableRecord
100
AcDbLayerTableRecord
  2
00_COMPONENTS
 70
0
 62
7
  6
CONTINUOUS
370
-3
390
F
  0
LAYER
  5
1FE
100
AcDbSymbolTableRecord
100
AcDbLayerTableRecord
  2
01_1_DEFAULT_DATUMS
 70
0
 62
7
  6
CONTINUOUS
370
-3
390
F
  0
LAYER
  5
1FF
100
AcDbSymbolTableRecord
100
AcDbLayerTableRecord
  2
01_PLANES
 70
0
 62
7
  6
CONTINUOUS
370
-3
390
F
  0
LAYER
  5
200
100
AcDbSymbolTableRecord
100
AcDbLayerTableRecord
  2
02_COORD_SYS
 70
0
 62
7
  6
CONTINUOUS
370
-3
390
F
  0
LAYER
  5
201
100
AcDbSymbolTableRecord
100
AcDbLayerTableRecord
  2
03_AXES
 70
0
 62
7
  6
CONTINUOUS
370
-3
390
F
  0
LAYER
  5
202
100
AcDbSymbolTableRecord
100
AcDbLayerTableRecord
  2
04_POINTS
 70
0
 62
7
  6
CONTINUOUS
370
-3
390
F
  0
LAYER
  5
203
100
AcDbSymbolTableRecord
100
AcDbLayerTableRecord
  2
05_CURVES
 70
0
 62
7
  6
CONTINUOUS
370
-3
390
F
  0
LAYER
  5
204
100
AcDbSymbolTableRecord
100
AcDbLayerTableRecord
  2
06_SURFS
 70
0
 62
7
  6
CONTINUOUS
370
-3
390
F
  0
LAYER
  5
205
100
AcDbSymbolTableRecord
100
AcDbLayerTableRecord
  2
07_COSMETICS
 70
0
 62
7
  6
CONTINUOUS
370
-3
390
F
  0
LAYER
  5
206
100
AcDbSymbolTableRecord
100
AcDbLayerTableRecord
  2
10_NOTES
 70
0
 62
7
  6
CONTINUOUS
370
-3
390
F
  0
LAYER
  5
207
100
AcDbSymbolTableRecord
100
AcDbLayerTableRecord
  2
11_NOTES_PUB
 70
0
 62
7
  6
CONTINUOUS
370
-3
390
F
  0
LAYER
  5
208
100
AcDbSymbolTableRecord
100
AcDbLayerTableRecord
  2
13_REF_GTOL
 70
0
 62
7
  6
CONTINUOUS
370
-3
390
F
  0
LAYER
  5
209
100
AcDbSymbolTableRecord
100
AcDbLayerTableRecord
  2
16_MISC
 70
0
 62
7
  6
CONTINUOUS
370
-3
390
F
  0
LAYER
  5
20A
100
AcDbSymbolTableRecord
100
AcDbLayerTableRecord
  2
17_NO_PRINT
 70
0
 62
7
  6
CONTINUOUS
370
-3
390
F
  0
LAYER
  5
20B
100
AcDbSymbolTableRecord
100
AcDbLayerTableRecord
  2
18_DATUM_CAMS_JOINTS
 70
0
 62
7
  6
CONTINUOUS
370
-3
390
F
  0
LAYER
  5
20C
100
AcDbSymbolTableRecord
100
AcDbLayerTableRecord
  2
19_DATUM_FUNCTIONAL
 70
0
 62
7
  6
CONTINUOUS
370
-3
390
F
  0
LAYER
  5
20D
100
AcDbSymbolTableRecord
100
AcDbLayerTableRecord
  2
20_DATUM_KINEMATIC_SCHEME
 70
0
 62
7
  6
CONTINUOUS
370
-3
390
F
  0
ENDTAB
  0
TABLE
  2
STYLE
  5
3
100
AcDbSymbolTable
 70
1
  0
STYLE
  5
11
100
AcDbSymbolTableRecord
100
AcDbTextStyleTableRecord
  2
STANDARD
 70
0
 40
0.0
 41
1.0
 50
0.0
 71
0
 42
0.2
  3
ARIAL.TTF
  4

  0
STYLE
  5
20E
100
AcDbSymbolTableRecord
100
AcDbTextStyleTableRecord
  2
TEXTSTYLE_1
 70
0
 40
0.0
 41
0.8
 50
0.0
 71
0
 42
0.2
  3
gdt
  4

  0
ENDTAB
  0
TABLE
  2
VIEW
  5
6
100
AcDbSymbolTable
 70
0
  0
ENDTAB
  0
TABLE
  2
UCS
  5
7
100
AcDbSymbolTable
 70
0
  0
ENDTAB
  0
TABLE
  2
APPID
  5
9
100
AcDbSymbolTable
 70
1
  0
APPID
  5
20F
100
AcDbSymbolTableRecord
100
AcDbRegAppTableRecord
  2
ACAD
 70
0
  0
ENDTAB
  0
TABLE
  2
BLOCK_RECORD
  5
1
100
AcDbSymbolTable
 70
0
  0
BLOCK_RECORD
  5
210
100
AcDbSymbolTableRecord
100
AcDbBlockTableRecord
  2
*Model_Space
  0
BLOCK_RECORD
  5
211
100
AcDbSymbolTableRecord
100
AcDbBlockTableRecord
  2
*Paper_Space
  0
BLOCK_RECORD
  5
212
100
AcDbSymbolTableRecord
100
AcDbBlockTableRecord
  2
_FILLED
  0
ENDTAB
  0
TABLE
  2
DIMSTYLE
  5
A
100
AcDbSymbolTable
 70
1
100
AcDbDimStyleTable
 71
0
  0
DIMSTYLE
105
213
100
AcDbSymbolTableRecord
100
AcDbDimStyleTableRecord
  2
STANDARD
 70
0
  3

  4

 40
1.0
 41
0.1416109328
 42
1.0
 43
0.38
 44
1.0
 45
0.0
 46
0.0
 47
0.01
 48
0.01
140
0.1982553059
141
0.09
142
0.0
143
25.4
144
1.0
145
0.0
146
1.0
147
0.625
 71
1
 72
0
 73
0
 74
0
 75
0
 76
0
 77
1
 78
8
 79
2
170
0
171
1
172
0
173
0
174
0
175
0
176
0
177
0
178
0
270
2
179
2
271
2
272
2
273
2
274
2
275
0
280
0
281
0
282
0
283
1
284
8
285
0
286
0
287
3
288
0
340
11
278
46
341
212
342
212
343
212
344
212
  0
ENDTAB
  0
ENDSEC
  0
SECTION
  2
BLOCKS
  0
BLOCK
  5
20
100
AcDbEntity
  8
0
100
AcDbBlockBegin
  2
*Model_Space
 70
0
 10
0.0
 20
0.0
 30
0.0
  3
*Model_Space
  1

  0
ENDBLK
  5
21
100
AcDbEntity
  8
0
100
AcDbBlockEnd
  0
BLOCK
  5
1C
100
AcDbEntity
  8
0
100
AcDbBlockBegin
  2
*Paper_Space
 70
0
 10
0.0
 20
0.0
 30
0.0
  3
*Paper_Space
  1

  0
ENDBLK
  5
1D
100
AcDbEntity
  8
0
100
AcDbBlockEnd
  0
BLOCK
  5
214
100
AcDbEntity
  8
0
100
AcDbBlockBegin
  2
_FILLED
 70
64
 10
0.0
 20
0.0
  3
_FILLED
  1

  0
SOLID
  5
215
100
AcDbEntity
  8
0
  6
BYBLOCK
 62
0
100
AcDbTrace
 10
0.0
 20
0.0
 11
-1.0
 21
0.25
 12
-1.0
 22
-0.25
 13
-1.0
 23
-0.25
  0
ENDBLK
  5
216
100
AcDbEntity
  8
0
  6
BYBLOCK
 62
0
100
AcDbBlockEnd
  0
ENDSEC
  0
SECTION
  2
ENTITIES
  0
LINE
  5
217
100
AcDbEntity
  8
0
100
AcDbLine
 62
7
  6
BYLAYER
 10
4.5501700203
 20
7.9094423119
 11
4.4025626939
 21
8.2378309543
  0
LINE
  5
218
100
AcDbEntity
  8
0
100
AcDbLine
 62
7
  6
BYLAYER
 10
4.4101200312
 20
8.2412279
 11
4.5577273577
 21
7.9128392575
  0
LINE
  5
219
100
AcDbEntity
  8
0
100
AcDbLine
 62
7
  6
BYLAYER
 10
6.3001700203
 20
6.1594423119
 11
6.1525626939
 21
6.4878309543
  0
LINE
  5
21A
100
AcDbEntity
  8
0
100
AcDbLine
 62
7
  6
BYLAYER
 10
6.1601200312
 20
6.4912279
 11
6.3077273577
 21
6.1628392575
  0
LINE
  5
21B
100
AcDbEntity
  8
0
100
AcDbLine
 62
7
  6
BYLAYER
 10
4.588737946
 20
7.919901877
 11
4.5929121694
 21
7.922023285
  0
LINE
  5
21C
100
AcDbEntity
  8
0
100
AcDbLine
 62
7
  6
BYLAYER
 10
4.5219128453
 20
7.8899961753
 11
4.5243020786
 21
7.8909386155
  0
LINE
  5
21D
100
AcDbEntity
  8
0
100
AcDbLine
 62
7
  6
BYLAYER
 10
8.088737946
 20
7.919901877
 11
8.0929121694
 21
7.922023285
  0
LINE
  5
21E
100
AcDbEntity
  8
0
100
AcDbLine
 62
7
  6
BYLAYER
 10
8.0219128453
 20
7.8899961753
 11
8.0243020786
 21
7.8909386155
  0
LINE
  5
21F
100
AcDbEntity
  8
0
100
AcDbLine
 62
7
  6
BYLAYER
 10
8.0501700203
 20
7.9094423119
 11
7.9025626939
 21
8.2378309543
  0
LINE
  5
220
100
AcDbEntity
  8
0
100
AcDbLine
 62
7
  6
BYLAYER
 10
7.9101200312
 20
8.2412279
 11
8.0577273577
 21
7.9128392575
  0
LINE
  5
221
100
AcDbEntity
  8
0
100
AcDbLine
 62
7
  6
BYLAYER
 10
6.338737946
 20
6.169901877
 11
6.3429121694
 21
6.172023285
  0
LINE
  5
222
100
AcDbEntity
  8
0
100
AcDbLine
 62
7
  6
BYLAYER
 10
6.2719128293
 20
6.1399961689
 11
6.2743020786
 21
6.1409386155
  0
ARC
  5
223
100
AcDbEntity
  8
0
100
AcDbCircle
 62
7
  6
BYLAYER
 10
6.1020965578
 20
6.6102102784
 40
0.5
100
AcDbArc
 50
298.7919940751
 51
289.6148626035
  0
ARC
  5
224
100
AcDbEntity
  8
0
100
AcDbCircle
 62
7
  6
BYLAYER
 10
6.1020965578
 20
6.6102102784
 40
0.2141419384
100
AcDbArc
 50
24.2034283397
 51
204.2034283393
  0
ARC
  5
225
100
AcDbEntity
  8
0
100
AcDbCircle
 62
7
  6
BYLAYER
 10
6.1020965578
 20
6.6102102784
 40
0.0713140999
100
AcDbArc
 50
307.2947428717
 51
281.1121138067
  0
CIRCLE
  5
226
100
AcDbEntity
  8
0
100
AcDbCircle
 62
7
  6
BYLAYER
 10
6.1020965578
 20
8.3602102784
 40
4.8
  0
CIRCLE
  5
227
100
AcDbEntity
  8
0
100
AcDbCircle
 62
7
  6
BYLAYER
 10
6.1020965578
 20
8.3602102784
 40
4.0
  0
CIRCLE
  5
228
100
AcDbEntity
  8
0
100
AcDbCircle
 62
7
  6
BYLAYER
 10
6.1020965578
 20
8.3602102784
 40
3.58
  0
ARC
  5
229
100
AcDbEntity
  8
0
100
AcDbCircle
 62
7
  6
BYLAYER
 10
6.1020965578
 20
8.3602102784
 40
3.45
100
AcDbArc
 50
180.0
 51
179.8136645963
  0
CIRCLE
  5
22A
100
AcDbEntity
  8
0
100
AcDbCircle
 62
7
  6
BYLAYER
 10
6.1020965578
 20
8.3602102784
 40
3.4
  0
CIRCLE
  5
22B
100
AcDbEntity
  8
0
100
AcDbCircle
 62
7
  6
BYLAYER
 10
6.1020965578
 20
8.3602102784
 40
3.1
  0
CIRCLE
  5
22C
100
AcDbEntity
  8
0
100
AcDbCircle
 62
7
  6
BYLAYER
 10
6.1020965578
 20
8.3602102784
 40
2.9
  0
CIRCLE
  5
22D
100
AcDbEntity
  8
0
100
AcDbCircle
 62
7
  6
BYLAYER
 10
6.1020965578
 20
8.3602102784
 40
2.7
  0
ARC
  5
22E
100
AcDbEntity
  8
0
100
AcDbCircle
 62
7
  6
BYLAYER
 10
4.3520965578
 20
8.3602102784
 40
0.5
100
AcDbArc
 50
298.7919940752
 51
289.6148626035
  0
ARC
  5
22F
100
AcDbEntity
  8
0
100
AcDbCircle
 62
7
  6
BYLAYER
 10
4.8111298196
 20
8.3483319061
 40
0.4182350267
100
AcDbArc
 50
186.156607569
 51
187.4326768788
  0
ARC
  5
230
100
AcDbEntity
  8
0
100
AcDbCircle
 62
7
  6
BYLAYER
 10
4.3520965578
 20
8.3602102784
 40
0.2141428429
100
AcDbArc
 50
24.2034283398
 51
204.2034268462
  0
ARC
  5
231
100
AcDbEntity
  8
0
100
AcDbCircle
 62
7
  6
BYLAYER
 10
4.3520965578
 20
8.3602102784
 40
0.0713140999
100
AcDbArc
 50
307.294742872
 51
281.1121138067
  0
ARC
  5
232
100
AcDbEntity
  8
0
100
AcDbCircle
 62
7
  6
BYLAYER
 10
6.5611298196
 20
6.5983319061
 40
0.4182350267
100
AcDbArc
 50
186.156607569
 51
187.4326768788
  0
ARC
  5
233
100
AcDbEntity
  8
0
100
AcDbCircle
 62
7
  6
BYLAYER
 10
7.8520965578
 20
8.3602102784
 40
0.5
100
AcDbArc
 50
298.7919940752
 51
289.6148626035
  0
ARC
  5
234
100
AcDbEntity
  8
0
100
AcDbCircle
 62
7
  6
BYLAYER
 10
8.3111298197
 20
8.3483319061
 40
0.4182350268
100
AcDbArc
 50
186.1566075691
 51
187.4326768788
  0
ARC
  5
235
100
AcDbEntity
  8
0
100
AcDbCircle
 62
7
  6
BYLAYER
 10
7.8520965578
 20
8.3602102784
 40
0.2141428429
100
AcDbArc
 50
24.2034283398
 51
204.2034268461
  0
ARC
  5
236
100
AcDbEntity
  8
0
100
AcDbCircle
 62
7
  6
BYLAYER
 10
7.8520965578
 20
8.3602102784
 40
0.0713140999
100
AcDbArc
 50
307.2947428719
 51
281.1121138067
  0
SPLINE
  5
237
100
AcDbEntity
  8
0
100
AcDbSpline
 62
7
  6
BYLAYER
 70
0
 71
3
 72
13
 73
9
 74
0
 42
0.0000001
 43
0.0000001
 44
0.0000000001
 40
0.0
 40
0.0
 40
0.0
 40
0.0
 40
0.0699020336
 40
0.144656854
 40
0.232911897
 40
0.3400962978
 40
0.621510894
 40
1.0
 40
1.0
 40
1.0
 40
1.0
 10
8.0577273577
 20
7.9128392575
 30
0.0
 10
8.0578830445
 20
7.9124928941
 30
0.0
 10
8.0583525685
 20
7.911831533
 30
0.0
 10
8.0594531987
 20
7.9111567144
 30
0.0
 10
8.0608883705
 20
7.91078636
 30
0.0
 10
8.0634866388
 20
7.910653206
 30
0.0
 10
8.0676334623
 20
7.911328062
 30
0.0
 10
8.0710667616
 20
7.912367671
 30
0.0
 10
8.0730098604
 20
7.9130400762
 30
0.0
  0
SPLINE
  5
238
100
AcDbEntity
  8
0
100
AcDbSpline
 62
7
  6
BYLAYER
 70
0
 71
3
 72
9
 73
5
 74
0
 42
0.0000001
 43
0.0000001
 44
0.0000000001
 40
0.0
 40
0.0
 40
0.0
 40
0.0
 40
0.2154103312
 40
1.0
 40
1.0
 40
1.0
 40
1.0
 10
8.0730098604
 20
7.9130400762
 30
0.0
 10
8.0741747461
 20
7.9134431825
 30
0.0
 10
8.0795363638
 20
7.9154477095
 30
0.0
 10
8.0847306867
 20
7.9178771535
 30
0.0
 10
8.088737946
 20
7.919901877
 30
0.0
  0
SPLINE
  5
239
100
AcDbEntity
  8
0
100
AcDbSpline
 62
7
  6
BYLAYER
 70
0
 71
3
 72
10
 73
6
 74
0
 42
0.0000001
 43
0.0000001
 44
0.0000000001
 40
0.0
 40
0.0
 40
0.0
 40
0.0
 40
0.6144260712
 40
0.8355910879
 40
1.0
 40
1.0
 40
1.0
 40
1.0
 10
8.0243020786
 20
7.8909386155
 30
0.0
 10
8.0296180073
 20
7.8930434515
 30
0.0
 10
8.0367826264
 20
7.8961646678
 30
0.0
 10
8.0447233624
 20
7.9010264867
 30
0.0
 10
8.0475258598
 20
7.9033161044
 30
0.0
 10
8.0485517767
 20
7.904451027
 30
0.0
  0
SPLINE
  5
23A
100
AcDbEntity
  8
0
100
AcDbSpline
 62
7
  6
BYLAYER
 70
0
 71
3
 72
11
 73
7
 74
0
 42
0.0000001
 43
0.0000001
 44
0.0000000001
 40
0.0
 40
0.0
 40
0.0
 40
0.0
 40
0.315139908
 40
0.574635095
 40
0.7944481429
 40
1.0
 40
1.0
 40
1.0
 40
1.0
 10
8.0485517767
 20
7.904451027
 30
0.0
 10
8.0489421129
 20
7.9048828372
 30
0.0
 10
8.0496073251
 20
7.9057167363
 30
0.0
 10
8.0502828825
 20
7.9070351409
 30
0.0
 10
8.0505085892
 20
7.90830605
 30
0.0
 10
8.0503256757
 20
7.9090960183
 30
0.0
 10
8.0501700203
 20
7.9094423119
 30
0.0
  0
SPLINE
  5
23B
100
AcDbEntity
  8
0
100
AcDbSpline
 62
7
  6
BYLAYER
 70
0
 71
3
 72
9
 73
5
 74
0
 42
0.0000001
 43
0.0000001
 44
0.0000000001
 40
0.0
 40
0.0
 40
0.0
 40
0.0
 40
0.2383367822
 40
1.0
 40
1.0
 40
1.0
 40
1.0
 10
7.9101200312
 20
8.2412279
 30
0.0
 10
7.9087406507
 20
8.2442966696
 30
0.0
 10
7.9034678076
 20
8.2574052484
 30
0.0
 10
7.9001278844
 20
8.2712278348
 30
0.0
 10
7.8982827842
 20
8.2818205029
 30
0.0
  0
LINE
  5
23C
100
AcDbEntity
  8
0
100
AcDbLine
 62
7
  6
BYLAYER
 10
7.8982827842
 20
8.2818205029
 11
7.8964089933
 21
8.2942285443
  0
SPLINE
  5
23D
100
AcDbEntity
  8
0
100
AcDbSpline
 62
7
  6
BYLAYER
 70
0
 71
3
 72
9
 73
5
 74
0
 42
0.0000001
 43
0.0000001
 44
0.0000000001
 40
0.0
 40
0.0
 40
0.0
 40
0.0
 40
0.2641138129
 40
1.0
 40
1.0
 40
1.0
 40
1.0
 10
7.8658409174
 20
8.2902330085
 30
0.0
 10
7.8683937177
 20
8.2874172671
 30
0.0
 10
7.8779420946
 20
8.2766579373
 30
0.0
 10
7.886816242
 20
8.2652450721
 30
0.0
 10
7.8925049923
 20
8.2563131867
 30
0.0
  0
SPLINE
  5
23E
100
AcDbEntity
  8
0
100
AcDbSpline
 62
7
  6
BYLAYER
 70
0
 71
3
 72
9
 73
5
 74
0
 42
0.0000001
 43
0.0000001
 44
0.0000000001
 40
0.0
 40
0.0
 40
0.0
 40
0.0
 40
0.2560854598
 40
1.0
 40
1.0
 40
1.0
 40
1.0
 10
7.8925049923
 20
8.2563131867
 30
0.0
 10
7.8934703415
 20
8.2547974957
 30
0.0
 10
7.897145538
 20
8.2488198355
 30
0.0
 10
7.9004225303
 20
8.2425922723
 30
0.0
 10
7.9025626939
 20
8.2378309543
 30
0.0
  0
SPLINE
  5
23F
100
AcDbEntity
  8
0
100
AcDbSpline
 62
7
  6
BYLAYER
 70
0
 71
3
 72
10
 73
6
 74
0
 42
0.0000001
 43
0.0000001
 44
0.0000000001
 40
0.0
 40
0.0
 40
0.0
 40
0.0
 40
0.6127014562
 40
0.8343355711
 40
1.0
 40
1.0
 40
1.0
 40
1.0
 10
6.2743020786
 20
6.1409386155
 30
0.0
 10
6.2795719468
 20
6.143024839
 30
0.0
 10
6.2866812966
 20
6.1461243993
 30
0.0
 10
6.2945885682
 20
6.150935789
 30
0.0
 10
6.297399665
 20
6.1532032413
 30
0.0
 10
6.2984408863
 20
6.1543276723
 30
0.0
  0
SPLINE
  5
240
100
AcDbEntity
  8
0
100
AcDbSpline
 62
7
  6
BYLAYER
 70
0
 71
3
 72
11
 73
7
 74
0
 42
0.0000001
 43
0.0000001
 44
0.0000000001
 40
0.0
 40
0.0
 40
0.0
 40
0.0
 40
0.317064708
 40
0.5770974736
 40
0.7961078024
 40
1.0
 40
1.0
 40
1.0
 40
1.0
 10
6.2984408863
 20
6.1543276723
 30
0.0
 10
6.2988506706
 20
6.1547702047
 30
0.0
 10
6.2995494342
 20
6.1556239008
 30
0.0
 10
6.3002648595
 20
6.1569748831
 30
0.0
 10
6.3005127198
 20
6.1582777754
 30
0.0
 10
6.3003290283
 20
6.1590885595
 30
0.0
 10
6.3001700203
 20
6.1594423119
 30
0.0
  0
SPLINE
  5
241
100
AcDbEntity
  8
0
100
AcDbSpline
 62
7
  6
BYLAYER
 70
0
 71
3
 72
13
 73
9
 74
0
 42
0.0000001
 43
0.0000001
 44
0.0000000001
 40
0.0
 40
0.0
 40
0.0
 40
0.0
 40
0.0694676524
 40
0.1439083257
 40
0.2320000555
 40
0.3391557786
 40
0.6208604086
 40
1.0
 40
1.0
 40
1.0
 40
1.0
 10
6.3077273577
 20
6.1628392575
 30
0.0
 10
6.3078845074
 20
6.1624896394
 30
0.0
 10
6.3083605806
 20
6.1618219842
 30
0.0
 10
6.309477816
 20
6.1611448074
 30
0.0
 10
6.3109348593
 20
6.1607775339
 30
0.0
 10
6.3135751452
 20
6.1606565063
 30
0.0
 10
6.3177884278
 20
6.1613635677
 30
0.0
 10
6.321276411
 20
6.1624342714
 30
0.0
 10
6.3232510863
 20
6.1631251341
 30
0.0
  0
SPLINE
  5
242
100
AcDbEntity
  8
0
100
AcDbSpline
 62
7
  6
BYLAYER
 70
0
 71
3
 72
9
 73
5
 74
0
 42
0.0000001
 43
0.0000001
 44
0.0000000001
 40
0.0
 40
0.0
 40
0.0
 40
0.0
 40
0.2161698117
 40
1.0
 40
1.0
 40
1.0
 40
1.0
 10
6.3232510863
 20
6.1631251341
 30
0.0
 10
6.3244013136
 20
6.1635275543
 30
0.0
 10
6.3296781349
 20
6.1655151403
 30
0.0
 10
6.3347942882
 20
6.1679089845
 30
0.0
 10
6.338737946
 20
6.169901877
 30
0.0
  0
SPLINE
  5
243
100
AcDbEntity
  8
0
100
AcDbSpline
 62
7
  6
BYLAYER
 70
0
 71
3
 72
9
 73
5
 74
0
 42
0.0000001
 43
0.0000001
 44
0.0000000001
 40
0.0
 40
0.0
 40
0.0
 40
0.0
 40
0.2383367822
 40
1.0
 40
1.0
 40
1.0
 40
1.0
 10
6.1601200312
 20
6.4912279
 30
0.0
 10
6.1587406507
 20
6.4942966696
 30
0.0
 10
6.1534678076
 20
6.5074052484
 30
0.0
 10
6.1501278844
 20
6.5212278348
 30
0.0
 10
6.1482827842
 20
6.5318205029
 30
0.0
  0
LINE
  5
244
100
AcDbEntity
  8
0
100
AcDbLine
 62
7
  6
BYLAYER
 10
6.1482827842
 20
6.5318205029
 11
6.1464089933
 21
6.5442285443
  0
SPLINE
  5
245
100
AcDbEntity
  8
0
100
AcDbSpline
 62
7
  6
BYLAYER
 70
0
 71
3
 72
9
 73
5
 74
0
 42
0.0000001
 43
0.0000001
 44
0.0000000001
 40
0.0
 40
0.0
 40
0.0
 40
0.0
 40
0.2641138129
 40
1.0
 40
1.0
 40
1.0
 40
1.0
 10
6.1158409174
 20
6.5402330085
 30
0.0
 10
6.1183937177
 20
6.5374172671
 30
0.0
 10
6.1279420946
 20
6.5266579373
 30
0.0
 10
6.136816242
 20
6.5152450721
 30
0.0
 10
6.1425049923
 20
6.5063131867
 30
0.0
  0
SPLINE
  5
246
100
AcDbEntity
  8
0
100
AcDbSpline
 62
7
  6
BYLAYER
 70
0
 71
3
 72
9
 73
5
 74
0
 42
0.0000001
 43
0.0000001
 44
0.0000000001
 40
0.0
 40
0.0
 40
0.0
 40
0.0
 40
0.2560854598
 40
1.0
 40
1.0
 40
1.0
 40
1.0
 10
6.1425049923
 20
6.5063131867
 30
0.0
 10
6.1434703415
 20
6.5047974957
 30
0.0
 10
6.147145538
 20
6.4988198355
 30
0.0
 10
6.1504225303
 20
6.4925922723
 30
0.0
 10
6.1525626939
 20
6.4878309543
 30
0.0
  0
SPLINE
  5
247
100
AcDbEntity
  8
0
100
AcDbSpline
 62
7
  6
BYLAYER
 70
0
 71
3
 72
13
 73
9
 74
0
 42
0.0000001
 43
0.0000001
 44
0.0000000001
 40
0.0
 40
0.0
 40
0.0
 40
0.0
 40
0.0699020336
 40
0.144656854
 40
0.232911897
 40
0.3400962978
 40
0.621510894
 40
1.0
 40
1.0
 40
1.0
 40
1.0
 10
4.5577273577
 20
7.9128392575
 30
0.0
 10
4.5578830445
 20
7.9124928941
 30
0.0
 10
4.5583525685
 20
7.911831533
 30
0.0
 10
4.5594531987
 20
7.9111567144
 30
0.0
 10
4.5608883705
 20
7.91078636
 30
0.0
 10
4.5634866388
 20
7.910653206
 30
0.0
 10
4.5676334623
 20
7.911328062
 30
0.0
 10
4.5710667616
 20
7.912367671
 30
0.0
 10
4.5730098604
 20
7.9130400762
 30
0.0
  0
SPLINE
  5
248
100
AcDbEntity
  8
0
100
AcDbSpline
 62
7
  6
BYLAYER
 70
0
 71
3
 72
9
 73
5
 74
0
 42
0.0000001
 43
0.0000001
 44
0.0000000001
 40
0.0
 40
0.0
 40
0.0
 40
0.0
 40
0.2154103312
 40
1.0
 40
1.0
 40
1.0
 40
1.0
 10
4.5730098604
 20
7.9130400762
 30
0.0
 10
4.5741747461
 20
7.9134431825
 30
0.0
 10
4.5795363638
 20
7.9154477095
 30
0.0
 10
4.5847306867
 20
7.9178771535
 30
0.0
 10
4.588737946
 20
7.919901877
 30
0.0
  0
SPLINE
  5
249
100
AcDbEntity
  8
0
100
AcDbSpline
 62
7
  6
BYLAYER
 70
0
 71
3
 72
10
 73
6
 74
0
 42
0.0000001
 43
0.0000001
 44
0.0000000001
 40
0.0
 40
0.0
 40
0.0
 40
0.0
 40
0.6144260712
 40
0.8355910879
 40
1.0
 40
1.0
 40
1.0
 40
1.0
 10
4.5243020786
 20
7.8909386155
 30
0.0
 10
4.5296180073
 20
7.8930434515
 30
0.0
 10
4.5367826264
 20
7.8961646678
 30
0.0
 10
4.5447233624
 20
7.9010264867
 30
0.0
 10
4.5475258598
 20
7.9033161044
 30
0.0
 10
4.5485517767
 20
7.904451027
 30
0.0
  0
SPLINE
  5
24A
100
AcDbEntity
  8
0
100
AcDbSpline
 62
7
  6
BYLAYER
 70
0
 71
3
 72
11
 73
7
 74
0
 42
0.0000001
 43
0.0000001
 44
0.0000000001
 40
0.0
 40
0.0
 40
0.0
 40
0.0
 40
0.315139908
 40
0.574635095
 40
0.7944481429
 40
1.0
 40
1.0
 40
1.0
 40
1.0
 10
4.5485517767
 20
7.904451027
 30
0.0
 10
4.5489421129
 20
7.9048828372
 30
0.0
 10
4.5496073251
 20
7.9057167363
 30
0.0
 10
4.5502828825
 20
7.9070351409
 30
0.0
 10
4.5505085892
 20
7.90830605
 30
0.0
 10
4.5503256757
 20
7.9090960183
 30
0.0
 10
4.5501700203
 20
7.9094423119
 30
0.0
  0
SPLINE
  5
24B
100
AcDbEntity
  8
0
100
AcDbSpline
 62
7
  6
BYLAYER
 70
0
 71
3
 72
9
 73
5
 74
0
 42
0.0000001
 43
0.0000001
 44
0.0000000001
 40
0.0
 40
0.0
 40
0.0
 40
0.0
 40
0.2383367822
 40
1.0
 40
1.0
 40
1.0
 40
1.0
 10
4.4101200312
 20
8.2412279
 30
0.0
 10
4.4087406507
 20
8.2442966696
 30
0.0
 10
4.4034678076
 20
8.2574052484
 30
0.0
 10
4.4001278844
 20
8.2712278348
 30
0.0
 10
4.3982827842
 20
8.2818205029
 30
0.0
  0
LINE
  5
24C
100
AcDbEntity
  8
0
100
AcDbLine
 62
7
  6
BYLAYER
 10
4.3982827842
 20
8.2818205029
 11
4.3964089933
 21
8.2942285443
  0
SPLINE
  5
24D
100
AcDbEntity
  8
0
100
AcDbSpline
 62
7
  6
BYLAYER
 70
0
 71
3
 72
9
 73
5
 74
0
 42
0.0000001
 43
0.0000001
 44
0.0000000001
 40
0.0
 40
0.0
 40
0.0
 40
0.0
 40
0.2641138129
 40
1.0
 40
1.0
 40
1.0
 40
1.0
 10
4.3658409174
 20
8.2902330085
 30
0.0
 10
4.3683937177
 20
8.2874172671
 30
0.0
 10
4.3779420946
 20
8.2766579373
 30
0.0
 10
4.386816242
 20
8.2652450721
 30
0.0
 10
4.3925049923
 20
8.2563131867
 30
0.0
  0
SPLINE
  5
24E
100
AcDbEntity
  8
0
100
AcDbSpline
 62
7
  6
BYLAYER
 70
0
 71
3
 72
9
 73
5
 74
0
 42
0.0000001
 43
0.0000001
 44
0.0000000001
 40
0.0
 40
0.0
 40
0.0
 40
0.0
 40
0.2560854598
 40
1.0
 40
1.0
 40
1.0
 40
1.0
 10
4.3925049923
 20
8.2563131867
 30
0.0
 10
4.3934703415
 20
8.2547974957
 30
0.0
 10
4.397145538
 20
8.2488198355
 30
0.0
 10
4.4004225303
 20
8.2425922723
 30
0.0
 10
4.4025626939
 20
8.2378309543
 30
0.0
  0
SPLINE
  5
24F
100
AcDbEntity
  8
0
100
AcDbSpline
 62
7
  6
BYLAYER
 70
0
 71
3
 72
10
 73
6
 74
0
 42
0.0000001
 43
0.0000001
 44
0.0000000001
 40
0.0
 40
0.0
 40
0.0
 40
0.0
 40
0.4360846569
 40
0.7015328105
 40
1.0
 40
1.0
 40
1.0
 40
1.0
 10
8.0007062989
 20
8.0194864724
 30
0.0
 10
7.9945023582
 20
8.0332886576
 30
0.0
 10
7.9769149304
 20
8.0518025526
 30
0.0
 10
7.9481842791
 20
8.0710241223
 30
0.0
 10
7.9308075644
 20
8.0801793073
 30
0.0
 10
7.9214803462
 20
8.084681541
 30
0.0
  0
SPLINE
  5
250
100
AcDbEntity
  8
0
100
AcDbSpline
 62
7
  6
BYLAYER
 70
0
 71
3
 72
13
 73
9
 74
0
 42
0.0000001
 43
0.0000001
 44
0.0000000001
 40
0.0
 40
0.0
 40
0.0
 40
0.0
 40
0.1074590006
 40
0.2239529513
 40
0.3475528028
 40
0.4756945116
 40
0.7372467187
 40
1.0
 40
1.0
 40
1.0
 40
1.0
 10
7.9214803462
 20
8.084681541
 30
0.0
 10
7.9107655644
 20
8.0898535495
 30
0.0
 10
7.8880188173
 20
8.0997558228
 30
0.0
 10
7.8524513062
 20
8.1144261993
 30
0.0
 10
7.8151009467
 20
8.1308159116
 30
0.0
 10
7.7643929118
 20
8.1564937593
 30
0.0
 10
7.704292659
 20
8.1978215773
 30
0.0
 10
7.6687047816
 20
8.2458820517
 30
0.0
 10
7.6567778159
 20
8.2724165074
 30
0.0
  0
SPLINE
  5
251
100
AcDbEntity
  8
0
100
AcDbSpline
 62
7
  6
BYLAYER
 70
0
 71
3
 72
21
 73
17
 74
0
 42
0.0000001
 43
0.0000001
 44
0.0000000001
 40
0.0
 40
0.0
 40
0.0
 40
0.0
 40
0.1373205705
 40
0.2060881689
 40
0.2749046933
 40
0.4119560807
 40
0.4801662979
 40
0.5476851894
 40
0.6135830984
 40
0.6453510781
 40
0.6761762903
 40
0.7355998321
 40
0.7925177691
 40
0.846601913
 40
0.8988296974
 40
1.0
 40
1.0
 40
1.0
 40
1.0
 10
7.6567778159
 20
8.2724165074
 30
0.0
 10
7.6621471743
 20
8.2604710541
 30
0.0
 10
7.6715890527
 20
8.2430752247
 30
0.0
 10
7.6875360096
 20
8.2221981844
 30
0.0
 10
7.7057956892
 20
8.2033595212
 30
0.0
 10
7.7274167801
 20
8.1880304791
 30
0.0
 10
7.7514336923
 20
8.1778051847
 30
0.0
 10
7.7701915752
 20
8.173182519
 30
0.0
 10
7.7860375235
 20
8.172229018
 30
0.0
 10
7.7982465139
 20
8.1735962768
 30
0.0
 10
7.8095637445
 20
8.1764581249
 30
0.0
 10
7.8223222392
 20
8.1826815046
 30
0.0
 10
7.8351351758
 20
8.1928358454
 30
0.0
 10
7.8454507744
 20
8.2046051282
 30
0.0
 10
7.8558701674
 20
8.2215044415
 30
0.0
 10
7.8608101448
 20
8.2355022293
 30
0.0
 10
7.8629353719
 20
8.2449142165
 30
0.0
  0
SPLINE
  5
252
100
AcDbEntity
  8
0
100
AcDbSpline
 62
7
  6
BYLAYER
 70
0
 71
3
 72
9
 73
5
 74
0
 42
0.0000001
 43
0.0000001
 44
0.0000000001
 40
0.0
 40
0.0
 40
0.0
 40
0.0
 40
0.2519428291
 40
1.0
 40
1.0
 40
1.0
 40
1.0
 10
7.8629353719
 20
8.2449142165
 30
0.0
 10
7.8637771988
 20
8.248642413
 30
0.0
 10
7.8664426962
 20
8.2635934754
 30
0.0
 10
7.8666494797
 20
8.2789135719
 30
0.0
 10
7.8658409174
 20
8.2902330085
 30
0.0
  0
SPLINE
  5
253
100
AcDbEntity
  8
0
100
AcDbSpline
 62
7
  6
BYLAYER
 70
0
 71
3
 72
13
 73
9
 74
0
 42
0.0000001
 43
0.0000001
 44
0.0000000001
 40
0.0
 40
0.0
 40
0.0
 40
0.0
 40
0.2620861324
 40
0.393388601
 40
0.5236761021
 40
0.7751667244
 40
0.8920271576
 40
1.0
 40
1.0
 40
1.0
 40
1.0
 10
8.0474152996
 20
8.4480040494
 30
0.0
 10
8.0592297325
 20
8.4217199503
 30
0.0
 10
8.0684924887
 20
8.3781072385
 30
0.0
 10
8.0665441242
 20
8.3204943614
 30
0.0
 10
8.0574385214
 20
8.2646575197
 30
0.0
 10
8.040849205
 20
8.21224144
 30
0.0
 10
8.0237751321
 20
8.1627546838
 30
0.0
 10
8.0161371208
 20
8.1392303319
 30
0.0
 10
8.0128433551
 20
8.1278244094
 30
0.0
  0
SPLINE
  5
254
100
AcDbEntity
  8
0
100
AcDbSpline
 62
7
  6
BYLAYER
 70
0
 71
3
 72
10
 73
6
 74
0
 42
0.0000001
 43
0.0000001
 44
0.0000000001
 40
0.0
 40
0.0
 40
0.0
 40
0.0
 40
0.2984707514
 40
0.5635482138
 40
1.0
 40
1.0
 40
1.0
 40
1.0
 10
8.0128433551
 20
8.1278244094
 30
0.0
 10
8.0098999724
 20
8.1176318218
 30
0.0
 10
8.0049069795
 20
8.0981616542
 30
0.0
 10
7.9996827872
 20
8.0631327496
 30
0.0
 10
8.0019034196
 20
8.0370332773
 30
0.0
 10
8.0082636362
 20
8.022883418
 30
0.0
  0
SPLINE
  5
255
100
AcDbEntity
  8
0
100
AcDbSpline
 62
7
  6
BYLAYER
 70
0
 71
3
 72
23
 73
19
 74
0
 42
0.0000001
 43
0.0000001
 44
0.0000000001
 40
0.0
 40
0.0
 40
0.0
 40
0.0
 40
0.1371058214
 40
0.205835789
 40
0.2745525849
 40
0.3431729964
 40
0.4118694624
 40
0.480550273
 40
0.5144603489
 40
0.5478795695
 40
0.6131034219
 40
0.6760704004
 40
0.7356625522
 40
0.791984916
 40
0.8462743112
 40
0.8986916287
 40
0.9497405828
 40
1.0
 40
1.0
 40
1.0
 40
1.0
 10
5.9067778159
 20
6.5224165074
 30
0.0
 10
5.91216601
 20
6.5104291503
 30
0.0
 10
5.9218857014
 20
6.4930859912
 30
0.0
 10
5.9379718781
 20
6.472215427
 30
0.0
 10
5.9516098401
 20
6.4578692422
 30
0.0
 10
5.9668294061
 20
6.4452017584
 30
0.0
 10
5.983593465
 20
6.434653682
 30
0.0
 10
5.9986889477
 20
6.4279984962
 30
0.0
 10
6.0112226186
 20
6.4243461176
 30
0.0
 10
6.0237283437
 20
6.4219876823
 30
0.0
 10
6.0393700991
 20
6.4217628337
 30
0.0
 10
6.0571025556
 20
6.4256221008
 30
0.0
 10
6.072771979
 20
6.4329683931
 30
0.0
 10
6.0856077655
 20
6.4432572625
 30
0.0
 10
6.0956985073
 20
6.4552919001
 30
0.0
 10
6.1035073327
 20
6.4683061513
 30
0.0
 10
6.1092364207
 20
6.4819297178
 30
0.0
 10
6.1118532083
 20
6.4913079269
 30
0.0
 10
6.1128970677
 20
6.4960112356
 30
0.0
  0
SPLINE
  5
256
100
AcDbEntity
  8
0
100
AcDbSpline
 62
7
  6
BYLAYER
 70
0
 71
3
 72
9
 73
5
 74
0
 42
0.0000001
 43
0.0000001
 44
0.0000000001
 40
0.0
 40
0.0
 40
0.0
 40
0.0
 40
0.2520854695
 40
1.0
 40
1.0
 40
1.0
 40
1.0
 10
6.1128970677
 20
6.4960112356
 30
0.0
 10
6.1137056474
 20
6.4996544466
 30
0.0
 10
6.1163126908
 20
6.5142390439
 30
0.0
 10
6.1166298014
 20
6.5291890576
 30
0.0
 10
6.1158409174
 20
6.5402330085
 30
0.0
  0
SPLINE
  5
257
100
AcDbEntity
  8
0
100
AcDbSpline
 62
7
  6
BYLAYER
 70
0
 71
3
 72
10
 73
6
 74
0
 42
0.0000001
 43
0.0000001
 44
0.0000000001
 40
0.0
 40
0.0
 40
0.0
 40
0.0
 40
0.4945811128
 40
0.7450533203
 40
1.0
 40
1.0
 40
1.0
 40
1.0
 10
7.8953069755
 20
8.3034776994
 30
0.0
 10
7.9042670624
 20
8.2943027139
 30
0.0
 10
7.9192079862
 20
8.2816592205
 30
0.0
 10
7.9422411095
 20
8.2695506234
 30
0.0
 10
7.9548076325
 20
8.2655222687
 30
0.0
 10
7.9612667447
 20
8.2641147685
 30
0.0
  0
SPLINE
  5
258
100
AcDbEntity
  8
0
100
AcDbSpline
 62
7
  6
BYLAYER
 70
0
 71
3
 72
11
 73
7
 74
0
 42
0.0000001
 43
0.0000001
 44
0.0000000001
 40
0.0
 40
0.0
 40
0.0
 40
0.0
 40
0.2321812298
 40
0.4739973258
 40
0.7306632607
 40
1.0
 40
1.0
 40
1.0
 40
1.0
 10
7.9612667447
 20
8.2641147685
 30
0.0
 10
7.966703438
 20
8.2629300629
 30
0.0
 10
7.9780276062
 20
8.2613930363
 30
0.0
 10
7.9956323045
 20
8.2624967982
 30
0.0
 10
8.0134439122
 20
8.2677150432
 30
0.0
 10
8.0244243502
 20
8.2743064252
 30
0.0
 10
8.0293936838
 20
8.2784257791
 30
0.0
  0
SPLINE
  5
259
100
AcDbEntity
  8
0
100
AcDbSpline
 62
7
  6
BYLAYER
 70
0
 71
3
 72
13
 73
9
 74
0
 42
0.0000001
 43
0.0000001
 44
0.0000000001
 40
0.0
 40
0.0
 40
0.0
 40
0.0
 40
0.1190950436
 40
0.2433428493
 40
0.3688408774
 40
0.4950008804
 40
0.7474713032
 40
1.0
 40
1.0
 40
1.0
 40
1.0
 10
8.0293936838
 20
8.2784257791
 30
0.0
 10
8.0349492581
 20
8.2830311002
 30
0.0
 10
8.0447430713
 20
8.2943452112
 30
0.0
 10
8.0553680074
 20
8.3141372744
 30
0.0
 10
8.0624401371
 20
8.3359133698
 30
0.0
 10
8.0669706645
 20
8.3662375735
 30
0.0
 10
8.0638731053
 20
8.4049209692
 30
0.0
 10
8.0536884414
 20
8.4340479093
 30
0.0
 10
8.0474152996
 20
8.4480040494
 30
0.0
  0
SPLINE
  5
25A
100
AcDbEntity
  8
0
100
AcDbSpline
 62
7
  6
BYLAYER
 70
0
 71
3
 72
21
 73
17
 74
0
 42
0.0000001
 43
0.0000001
 44
0.0000000001
 40
0.0
 40
0.0
 40
0.0
 40
0.0
 40
0.1373205705
 40
0.2060881689
 40
0.2749046933
 40
0.4119560807
 40
0.4801662979
 40
0.5476851894
 40
0.6135830984
 40
0.6453510781
 40
0.6761762903
 40
0.7355998321
 40
0.7925177691
 40
0.846601913
 40
0.8988296974
 40
1.0
 40
1.0
 40
1.0
 40
1.0
 10
4.1567778159
 20
8.2724165074
 30
0.0
 10
4.1621471743
 20
8.2604710541
 30
0.0
 10
4.1715890527
 20
8.2430752247
 30
0.0
 10
4.1875360096
 20
8.2221981844
 30
0.0
 10
4.2057956892
 20
8.2033595212
 30
0.0
 10
4.2274167801
 20
8.1880304791
 30
0.0
 10
4.2514336923
 20
8.1778051847
 30
0.0
 10
4.2701915752
 20
8.173182519
 30
0.0
 10
4.2860375235
 20
8.172229018
 30
0.0
 10
4.2982465139
 20
8.1735962768
 30
0.0
 10
4.3095637445
 20
8.1764581249
 30
0.0
 10
4.3223222392
 20
8.1826815046
 30
0.0
 10
4.3351351758
 20
8.1928358454
 30
0.0
 10
4.3454507744
 20
8.2046051282
 30
0.0
 10
4.3558701674
 20
8.2215044415
 30
0.0
 10
4.3608101448
 20
8.2355022293
 30
0.0
 10
4.3629353719
 20
8.2449142165
 30
0.0
  0
SPLINE
  5
25B
100
AcDbEntity
  8
0
100
AcDbSpline
 62
7
  6
BYLAYER
 70
0
 71
3
 72
9
 73
5
 74
0
 42
0.0000001
 43
0.0000001
 44
0.0000000001
 40
0.0
 40
0.0
 40
0.0
 40
0.0
 40
0.2519428291
 40
1.0
 40
1.0
 40
1.0
 40
1.0
 10
4.3629353719
 20
8.2449142165
 30
0.0
 10
4.3637771988
 20
8.248642413
 30
0.0
 10
4.3664426962
 20
8.2635934754
 30
0.0
 10
4.3666494797
 20
8.2789135719
 30
0.0
 10
4.3658409174
 20
8.2902330085
 30
0.0
  0
SPLINE
  5
25C
100
AcDbEntity
  8
0
100
AcDbSpline
 62
7
  6
BYLAYER
 70
0
 71
3
 72
9
 73
5
 74
0
 42
0.0000001
 43
0.0000001
 44
0.0000000001
 40
0.0
 40
0.0
 40
0.0
 40
0.0
 40
0.2486205786
 40
1.0
 40
1.0
 40
1.0
 40
1.0
 10
6.1453069755
 20
6.5534776994
 30
0.0
 10
6.1479447513
 20
6.5507766592
 30
0.0
 10
6.1588803245
 20
6.5402435469
 30
0.0
 10
6.1712899219
 20
6.5311767953
 30
0.0
 10
6.1812880834
 20
6.5256792423
 30
0.0
  0
SPLINE
  5
25D
100
AcDbEntity
  8
0
100
AcDbSpline
 62
7
  6
BYLAYER
 70
0
 71
3
 72
15
 73
11
 74
0
 42
0.0000001
 43
0.0000001
 44
0.0000000001
 40
0.0
 40
0.0
 40
0.0
 40
0.0
 40
0.1114552686
 40
0.2245788631
 40
0.3406798882
 40
0.4610930013
 40
0.585683345
 40
0.7165849982
 40
0.8555044707
 40
1.0
 40
1.0
 40
1.0
 40
1.0
 10
6.1812880834
 20
6.5256792423
 30
0.0
 10
6.1854161062
 20
6.5234094226
 30
0.0
 10
6.1939850122
 20
6.5192703785
 30
0.0
 10
6.2076683496
 20
6.5146521786
 30
0.0
 10
6.2222516429
 20
6.5119492672
 30
0.0
 10
6.2375794881
 20
6.5115102392
 30
0.0
 10
6.2533828588
 20
6.5140853841
 30
0.0
 10
6.268910157
 20
6.5205869577
 30
0.0
 10
6.2831875006
 20
6.5309561885
 30
0.0
 10
6.2912837923
 20
6.5399274076
 30
0.0
 10
6.2948618677
 20
6.5448769596
 30
0.0
  0
SPLINE
  5
25E
100
AcDbEntity
  8
0
100
AcDbSpline
 62
7
  6
BYLAYER
 70
0
 71
3
 72
12
 73
8
 74
0
 42
0.0000001
 43
0.0000001
 44
0.0000000001
 40
0.0
 40
0.0
 40
0.0
 40
0.0
 40
0.2467771243
 40
0.4975127467
 40
0.6232859489
 40
0.7490937214
 40
1.0
 40
1.0
 40
1.0
 40
1.0
 10
6.2948618677
 20
6.5448769596
 30
0.0
 10
6.3025440142
 20
6.5555036735
 30
0.0
 10
6.3131274132
 20
6.5805321893
 30
0.0
 10
6.316432696
 20
6.613819799
 30
0.0
 10
6.3143081211
 20
6.6404761206
 30
0.0
 10
6.3094353327
 20
6.6667624442
 30
0.0
 10
6.3028811569
 20
6.6858439114
 30
0.0
 10
6.2974152996
 20
6.6980040494
 30
0.0
  0
SPLINE
  5
25F
100
AcDbEntity
  8
0
100
AcDbSpline
 62
7
  6
BYLAYER
 70
0
 71
3
 72
10
 73
6
 74
0
 42
0.0000001
 43
0.0000001
 44
0.0000000001
 40
0.0
 40
0.0
 40
0.0
 40
0.0
 40
0.4945811128
 40
0.7450533203
 40
1.0
 40
1.0
 40
1.0
 40
1.0
 10
4.3953069755
 20
8.3034776994
 30
0.0
 10
4.4042670624
 20
8.2943027139
 30
0.0
 10
4.4192079862
 20
8.2816592205
 30
0.0
 10
4.4422411095
 20
8.2695506234
 30
0.0
 10
4.4548076325
 20
8.2655222687
 30
0.0
 10
4.4612667447
 20
8.2641147685
 30
0.0
  0
SPLINE
  5
260
100
AcDbEntity
  8
0
100
AcDbSpline
 62
7
  6
BYLAYER
 70
0
 71
3
 72
11
 73
7
 74
0
 42
0.0000001
 43
0.0000001
 44
0.0000000001
 40
0.0
 40
0.0
 40
0.0
 40
0.0
 40
0.2321812298
 40
0.4739973258
 40
0.7306632607
 40
1.0
 40
1.0
 40
1.0
 40
1.0
 10
4.4612667447
 20
8.2641147685
 30
0.0
 10
4.466703438
 20
8.2629300629
 30
0.0
 10
4.4780276062
 20
8.2613930363
 30
0.0
 10
4.4956323045
 20
8.2624967982
 30
0.0
 10
4.5134439122
 20
8.2677150432
 30
0.0
 10
4.5244243502
 20
8.2743064252
 30
0.0
 10
4.5293936838
 20
8.2784257791
 30
0.0
  0
SPLINE
  5
261
100
AcDbEntity
  8
0
100
AcDbSpline
 62
7
  6
BYLAYER
 70
0
 71
3
 72
13
 73
9
 74
0
 42
0.0000001
 43
0.0000001
 44
0.0000000001
 40
0.0
 40
0.0
 40
0.0
 40
0.0
 40
0.1190950436
 40
0.2433428493
 40
0.3688408774
 40
0.4950008804
 40
0.7474713032
 40
1.0
 40
1.0
 40
1.0
 40
1.0
 10
4.5293936838
 20
8.2784257791
 30
0.0
 10
4.5349492581
 20
8.2830311002
 30
0.0
 10
4.5447430713
 20
8.2943452112
 30
0.0
 10
4.5553680074
 20
8.3141372744
 30
0.0
 10
4.5624401371
 20
8.3359133698
 30
0.0
 10
4.5669706645
 20
8.3662375735
 30
0.0
 10
4.5638731053
 20
8.4049209692
 30
0.0
 10
4.5536884414
 20
8.4340479093
 30
0.0
 10
4.5474152996
 20
8.4480040494
 30
0.0
  0
SPLINE
  5
262
100
AcDbEntity
  8
0
100
AcDbSpline
 62
7
  6
BYLAYER
 70
0
 71
3
 72
13
 73
9
 74
0
 42
0.0000001
 43
0.0000001
 44
0.0000000001
 40
0.0
 40
0.0
 40
0.0
 40
0.0
 40
0.2620861324
 40
0.393388601
 40
0.5236761021
 40
0.7751667244
 40
0.8920271577
 40
1.0
 40
1.0
 40
1.0
 40
1.0
 10
4.5474152996
 20
8.4480040494
 30
0.0
 10
4.5592297325
 20
8.4217199503
 30
0.0
 10
4.5684924887
 20
8.3781072385
 30
0.0
 10
4.5665441242
 20
8.3204943613
 30
0.0
 10
4.5574385214
 20
8.2646575197
 30
0.0
 10
4.540849205
 20
8.21224144
 30
0.0
 10
4.5237751321
 20
8.1627546838
 30
0.0
 10
4.5161371208
 20
8.1392303319
 30
0.0
 10
4.5128433551
 20
8.1278244094
 30
0.0
  0
SPLINE
  5
263
100
AcDbEntity
  8
0
100
AcDbSpline
 62
7
  6
BYLAYER
 70
0
 71
3
 72
10
 73
6
 74
0
 42
0.0000001
 43
0.0000001
 44
0.0000000001
 40
0.0
 40
0.0
 40
0.0
 40
0.0
 40
0.2984707514
 40
0.5635482138
 40
1.0
 40
1.0
 40
1.0
 40
1.0
 10
4.5128433551
 20
8.1278244094
 30
0.0
 10
4.5098999724
 20
8.1176318218
 30
0.0
 10
4.5049069795
 20
8.0981616542
 30
0.0
 10
4.4996827872
 20
8.0631327496
 30
0.0
 10
4.5019034196
 20
8.0370332773
 30
0.0
 10
4.5082636362
 20
8.022883418
 30
0.0
  0
SPLINE
  5
264
100
AcDbEntity
  8
0
100
AcDbSpline
 62
7
  6
BYLAYER
 70
0
 71
3
 72
10
 73
6
 74
0
 42
0.0000001
 43
0.0000001
 44
0.0000000001
 40
0.0
 40
0.0
 40
0.0
 40
0.0
 40
0.4360846569
 40
0.7015328105
 40
1.0
 40
1.0
 40
1.0
 40
1.0
 10
4.5007062989
 20
8.0194864724
 30
0.0
 10
4.4945023582
 20
8.0332886576
 30
0.0
 10
4.4769149304
 20
8.0518025526
 30
0.0
 10
4.4481842791
 20
8.0710241222
 30
0.0
 10
4.4308075644
 20
8.0801793073
 30
0.0
 10
4.4214803462
 20
8.084681541
 30
0.0
  0
SPLINE
  5
265
100
AcDbEntity
  8
0
100
AcDbSpline
 62
7
  6
BYLAYER
 70
0
 71
3
 72
13
 73
9
 74
0
 42
0.0000001
 43
0.0000001
 44
0.0000000001
 40
0.0
 40
0.0
 40
0.0
 40
0.0
 40
0.1074590006
 40
0.2239529513
 40
0.3475528028
 40
0.4756945116
 40
0.7372467187
 40
1.0
 40
1.0
 40
1.0
 40
1.0
 10
4.4214803462
 20
8.084681541
 30
0.0
 10
4.4107655644
 20
8.0898535494
 30
0.0
 10
4.3880188173
 20
8.0997558228
 30
0.0
 10
4.3524513062
 20
8.1144261993
 30
0.0
 10
4.3151009467
 20
8.1308159116
 30
0.0
 10
4.2643929118
 20
8.1564937593
 30
0.0
 10
4.204292659
 20
8.1978215773
 30
0.0
 10
4.1687047816
 20
8.2458820517
 30
0.0
 10
4.1567778159
 20
8.2724165074
 30
0.0
  0
SPLINE
  5
266
100
AcDbEntity
  8
0
100
AcDbSpline
 62
7
  6
BYLAYER
 70
0
 71
3
 72
11
 73
7
 74
0
 42
0.0000001
 43
0.0000001
 44
0.0000000001
 40
0.0
 40
0.0
 40
0.0
 40
0.0
 40
0.1980156062
 40
0.4281499983
 40
0.6954987735
 40
1.0
 40
1.0
 40
1.0
 40
1.0
 10
6.2507062989
 20
6.2694864724
 30
0.0
 10
6.2471159923
 20
6.2774739886
 30
0.0
 10
6.2358521326
 20
6.2931826171
 30
0.0
 10
6.2118975865
 20
6.3127773071
 30
0.0
 10
6.180969136
 20
6.3303422071
 30
0.0
 10
6.157954398
 20
6.3408504542
 30
0.0
 10
6.1456091068
 20
6.3462305711
 30
0.0
  0
SPLINE
  5
267
100
AcDbEntity
  8
0
100
AcDbSpline
 62
7
  6
BYLAYER
 70
0
 71
3
 72
14
 73
10
 74
0
 42
0.0000001
 43
0.0000001
 44
0.0000000001
 40
0.0
 40
0.0
 40
0.0
 40
0.0
 40
0.1126950922
 40
0.2320728632
 40
0.35624644
 40
0.4834629031
 40
0.612168397
 40
0.7418594558
 40
1.0
 40
1.0
 40
1.0
 40
1.0
 10
6.1456091068
 20
6.3462305711
 30
0.0
 10
6.1351346618
 20
6.3507953673
 30
0.0
 10
6.1134245659
 20
6.3598695808
 30
0.0
 10
6.0801913125
 20
6.3740194312
 30
0.0
 10
6.0461524719
 20
6.3900120491
 30
0.0
 10
6.0123855903
 20
6.4086531578
 30
0.0
 10
5.9800179706
 20
6.4307654806
 30
0.0
 10
5.9408800166
 20
6.4656643978
 30
0.0
 10
5.9175078565
 20
6.4985448585
 30
0.0
 10
5.9067778159
 20
6.5224165074
 30
0.0
  0
SPLINE
  5
268
100
AcDbEntity
  8
0
100
AcDbSpline
 62
7
  6
BYLAYER
 70
0
 71
3
 72
14
 73
10
 74
0
 42
0.0000001
 43
0.0000001
 44
0.0000000001
 40
0.0
 40
0.0
 40
0.0
 40
0.0
 40
0.2581236225
 40
0.3878056203
 40
0.5165024962
 40
0.643713287
 40
0.7678890965
 40
0.887280445
 40
1.0
 40
1.0
 40
1.0
 40
1.0
 10
6.2974152996
 20
6.6980040494
 30
0.0
 10
6.3081401161
 20
6.6741441152
 30
0.0
 10
6.3172121278
 20
6.634857601
 30
0.0
 10
6.3173386032
 20
6.5824459762
 30
0.0
 10
6.3123998369
 20
6.5435778617
 30
0.0
 10
6.3039377881
 20
6.5059649503
 30
0.0
 10
6.2933133994
 20
6.4699037855
 30
0.0
 10
6.2818423999
 20
6.4356653133
 30
0.0
 10
6.2742193056
 20
6.4134106854
 30
0.0
 10
6.2706797944
 20
6.4025493306
 30
0.0
  0
SPLINE
  5
269
100
AcDbEntity
  8
0
100
AcDbSpline
 62
7
  6
BYLAYER
 70
0
 71
3
 72
11
 73
7
 74
0
 42
0.0000001
 43
0.0000001
 44
0.0000000001
 40
0.0
 40
0.0
 40
0.0
 40
0.0
 40
0.3045397299
 40
0.5719052249
 40
0.8020222116
 40
1.0
 40
1.0
 40
1.0
 40
1.0
 10
6.2706797944
 20
6.4025493306
 30
0.0
 10
6.2665027036
 20
6.3897314971
 30
0.0
 10
6.2590716517
 20
6.365519434
 30
0.0
 10
6.2516579235
 20
6.3306961361
 30
0.0
 10
6.2503990378
 20
6.299745814
 30
0.0
 10
6.2546705816
 20
6.2808770478
 30
0.0
 10
6.2582636362
 20
6.272883418
 30
0.0
  0
ENDSEC
  0
SECTION
  2
OBJECTS
  0
DICTIONARY
  5
C
100
AcDbDictionary
280
0
281
1
  3
ACAD_GROUP
350
D
  3
ACAD_MLINESTYLE
350
17
  3
ACAD_LAYOUT
350
1A
  3
ACAD_PLOTSETTINGS
350
19
  3
ACAD_PLOTSTYLENAME
350
E
  0
DICTIONARY
  5
D
102
{ACAD_REACTORS
330
C
102
}
100
AcDbDictionary
280
0
281
1
  0
ACDBDICTIONARYWDFLT
  5
E
102
{ACAD_REACTORS
330
C
102
}
100
AcDbDictionary
281
1
  3
Normal
350
F
100
AcDbDictionaryWithDefault
340
F
  0
DICTIONARY
  5
17
102
{ACAD_REACTORS
330
C
102
}
100
AcDbDictionary
280
0
281
1
  3
Standard
350
18
  0
DICTIONARY
  5
19
102
{ACAD_REACTORS
330
C
102
}
100
AcDbDictionary
281
1
  0
DICTIONARY
  5
1A
102
{ACAD_REACTORS
330
C
102
}
100
AcDbDictionary
281
1
  3
Model
350
26A
  3
Layout1
350
26B
  0
ACDBPLACEHOLDER
  5
F
102
{ACAD_REACTORS
330
E
102
}
  0
MLINESTYLE
  5
18
102
{ACAD_REACTORS
330
17
102
}
100
AcDbMlineStyle
  2
STANDARD
 70
0
  3

 62
256
 51
90.0
 52
90.0
 71
2
 49
0.5
 62
256
  6
BYLAYER
 49
-0.5
 62
256
  6
BYLAYER
  0
LAYOUT
  5
26A
102
{ACAD_REACTORS
330
1A
102
}
100
AcDbPlotSettings
  1

  2
none_device
  4

  6

 40
0.0
 41
0.0
 42
0.0
 43
0.0
 44
210.0
 45
297.0
 46
0.0
 47
0.0
 48
0.0
 49
0.0
140
0.0
141
0.0
142
1.0
143
1.0
 70
1024
 72
1
 73
0
 74
0
  7

 75
0
147
1.0
148
0.0
149
0.0
100
AcDbLayout
  1
Model
 70
0
 71
0
 10
0.0
 20
0.0
 11
210.0
 21
297.0
 12
0.0
 22
0.0
 32
0.0
 14
0.0
 24
0.0
 34
0.0
 15
0.0
 25
0.0
 35
0.0
146
0.0
 13
0.0
 23
0.0
 33
0.0
 16
1.0
 26
0.0
 36
0.0
 17
0.0
 27
1.0
 37
0.0
 76
0
330
210
345
0
346
0
  0
LAYOUT
  5
26B
102
{ACAD_REACTORS
330
1A
102
}
100
AcDbPlotSettings
  1

  2
none_device
  4

  6

 40
0.0
 41
0.0
 42
0.0
 43
0.0
 44
210.0
 45
297.0
 46
0.0
 47
0.0
 48
0.0
 49
0.0
140
0.0
141
0.0
142
1.0
143
1.0
 70
0
 72
1
 73
0
 74
0
  7

 75
0
147
1.0
148
0.0
149
0.0
100
AcDbLayout
  1
Layout1
 70
0
 71
1
 10
0.0
 20
0.0
 11
210.0
 21
297.0
 12
0.0
 22
0.0
 32
0.0
 14
0.0
 24
0.0
 34
0.0
 15
0.0
 25
0.0
 35
0.0
146
0.0
 13
0.0
 23
0.0
 33
0.0
 16
1.0
 26
0.0
 36
0.0
 17
0.0
 27
1.0
 37
0.0
 76
0
330
211
345
0
346
0
  0
ENDSEC
  0
EOF
