999
DXF file: C:\Users\sesa63760\Dev\_Creo\CAD\MCADID0004766_3D-CAD\drw0001_5.dxf
999
Pro/ENGINEER 2019471 by Parametric Technology Corporation
  0
SECTION
  2
HEADER
  9
$ACADVER
  1
AC1024
  9
$DWGCODEPAGE
  3
ANSI_1252
  9
$EXTMAX
 10
55.7307398267
 20
78.8191891835
 30
0.0
  9
$EXTMIN
 10
0.0
 20
0.0
 30
0.0
  9
$LIMMIN
 10
0.0
 20
0.0
  9
$LIMMAX
 10
55.7307398267
 20
78.8191891835
  9
$VIEWCTR
 10
27.8653699134
 20
39.4095945918
  9
$VIEWSIZE
 40
78.8191891835
  9
$CLAYER
  8
0
  9
$LTSCALE
 40
5.1378434431
  9
$CELTYPE
  6
BYLAYER
  9
$DIMSCALE
 40
1.0
  9
$DIMASZ
 40
0.6634611884
  9
$DIMEXO
 40
1.0
  9
$DIMDLI
 40
3.5497827425
  9
$DIMEXE
 40
1.0
  9
$DIMCEN
 40
0.840738018
  9
$DIMLFAC
 40
1.0
  9
$DIMBLK
  1
_FILLED
  9
$DIMALT
 70
0
  9
$DIMALTF
 40
0.0393700787
  9
$DIMTXT
 40
0.9288456638
  9
$DIMTOL
 70
1
  9
$DIMLIM
 70
0
  9
$DIMTFAC
 40
1.0
  9
$DIMTP
 40
0.01
  9
$DIMTM
 40
0.01
  9
$DIMGAP
 40
0.625
  9
$DIMDSEP
 70
46
  9
$AUNITS
 70
0
  9
$PDMODE
 70
3
  9
$PDSIZE
 40
0.3125
  9
$HANDSEED
  5
2B0
  9
$TILEMODE
 70
1
  9
$MEASUREMENT
 70
1
  9
$INSUNITS
 70
4
  0
ENDSEC
  0
SECTION
  2
CLASSES
  0
CLASS
  1
ACDBDICTIONARYWDFLT
  2
AcDbDictionaryWithDefault
  3
AutoCAD 2000
 90
0
 91
1
280
0
281
0
  0
CLASS
  1
ACDBPLACEHOLDER
  2
AcDbPlaceHolder
  3
AutoCAD 2000
 90
0
 91
1
280
0
281
0
  0
CLASS
  1
LAYOUT
  2
AcDbLayout
  3
AutoCAD 2000
 90
0
 91
0
280
0
281
0
  0
ENDSEC
  0
SECTION
  2
TABLES
  0
TABLE
  2
VPORT
  5
8
100
AcDbSymbolTable
 70
2
  0
VPORT
  5
1F4
100
AcDbSymbolTableRecord
100
AcDbViewportTableRecord
  2
*ACTIVE
 70
0
 10
0.0
 20
0.0
 11
1.0
 21
1.0
 12
27.8653699134
 22
39.4095945918
 13
0.0
 23
0.0
 14
1.0
 24
1.0
 15
0.0
 25
0.0
 16
0.0
 26
0.0
 36
1.0
 17
0.0
 27
0.0
 37
0.0
 40
78.8191891835
 41
0.7070707071
 42
50.0
 43
0.0
 44
0.0
 50
0.0
 51
0.0
 71
0
 72
100
 73
1
 74
1
 75
0
 76
0
 77
0
 78
0
  0
ENDTAB
  0
TABLE
  2
LTYPE
  5
5
100
AcDbSymbolTable
 70
6
  0
LTYPE
  5
14
100
AcDbSymbolTableRecord
100
AcDbLinetypeTableRecord
  2
BYBLOCK
 70
0
  3

 72
65
 73
0
 40
0.0
  0
LTYPE
  5
15
100
AcDbSymbolTableRecord
100
AcDbLinetypeTableRecord
  2
BYLAYER
 70
0
  3

 72
65
 73
0
 40
0.0
  0
LTYPE
  5
16
100
AcDbSymbolTableRecord
100
AcDbLinetypeTableRecord
  2
CONTINUOUS
 70
64
  3
Solid line
 72
65
 73
0
 40
0.0
  0
LTYPE
  5
1F5
100
AcDbSymbolTableRecord
100
AcDbLinetypeTableRecord
  2
CENTER
 70
64
  3
____ _ ____ _ ____ _ ____ _ ____ _ ____ _ ____
 72
65
 73
4
 40
0.6
 49
0.375
 74
0
 49
-0.075
 74
0
 49
0.075
 74
0
 49
-0.075
 74
0
  0
LTYPE
  5
1F6
100
AcDbSymbolTableRecord
100
AcDbLinetypeTableRecord
  2
HIDDEN
 70
64
  3
- - - - - - - - - - - - - - - - - - - -
 72
65
 73
2
 40
0.2
 49
0.1
 74
0
 49
-0.1
 74
0
  0
LTYPE
  5
1F7
100
AcDbSymbolTableRecord
100
AcDbLinetypeTableRecord
  2
PHANTOM
 70
64
  3
_____ _ _ _____ _ _ _____ _ _ _____
 72
65
 73
6
 40
0.8
 49
0.45
 74
0
 49
-0.05
 74
0
 49
0.1
 74
0
 49
-0.05
 74
0
 49
0.1
 74
0
 49
-0.05
 74
0
  0
LTYPE
  5
1F8
100
AcDbSymbolTableRecord
100
AcDbLinetypeTableRecord
  2
DOT
 70
64
  3
. . . . . . . . . . . . . . . . . . . .
 72
65
 73
2
 40
0.2
 49
0.1
 74
0
 49
-0.1
 74
0
  0
LTYPE
  5
1F9
100
AcDbSymbolTableRecord
100
AcDbLinetypeTableRecord
  2
DASHED
 70
64
  3
- - - - - - - - - - - - - - - - - - - -
 72
65
 73
2
 40
0.2
 49
0.1
 74
0
 49
-0.1
 74
0
  0
ENDTAB
  0
TABLE
  2
LAYER
  5
2
100
AcDbSymbolTable
 70
36
  0
LAYER
  5
10
100
AcDbSymbolTableRecord
100
AcDbLayerTableRecord
  2
0
 70
0
 62
7
  6
CONTINUOUS
370
-3
390
F
  0
LAYER
  5
1FA
100
AcDbSymbolTableRecord
100
AcDbLayerTableRecord
  2
DEFAULT_1
 70
0
 62
7
  6
CENTER
370
-3
390
F
  0
LAYER
  5
1FB
100
AcDbSymbolTableRecord
100
AcDbLayerTableRecord
  2
DEFAULT_2
 70
0
 62
7
  6
HIDDEN
370
-3
390
F
  0
LAYER
  5
1FC
100
AcDbSymbolTableRecord
100
AcDbLayerTableRecord
  2
DEFAULT_3
 70
0
 62
7
  6
PHANTOM
370
-3
390
F
  0
LAYER
  5
1FD
100
AcDbSymbolTableRecord
100
AcDbLayerTableRecord
  2
00_COMPONENTS
 70
0
 62
7
  6
CONTINUOUS
370
-3
390
F
  0
LAYER
  5
1FE
100
AcDbSymbolTableRecord
100
AcDbLayerTableRecord
  2
01_1_DEFAULT_DATUMS
 70
0
 62
7
  6
CONTINUOUS
370
-3
390
F
  0
LAYER
  5
1FF
100
AcDbSymbolTableRecord
100
AcDbLayerTableRecord
  2
01_PLANES
 70
0
 62
7
  6
CONTINUOUS
370
-3
390
F
  0
LAYER
  5
200
100
AcDbSymbolTableRecord
100
AcDbLayerTableRecord
  2
02_COORD_SYS
 70
0
 62
7
  6
CONTINUOUS
370
-3
390
F
  0
LAYER
  5
201
100
AcDbSymbolTableRecord
100
AcDbLayerTableRecord
  2
03_AXES
 70
0
 62
7
  6
CONTINUOUS
370
-3
390
F
  0
LAYER
  5
202
100
AcDbSymbolTableRecord
100
AcDbLayerTableRecord
  2
04_POINTS
 70
0
 62
7
  6
CONTINUOUS
370
-3
390
F
  0
LAYER
  5
203
100
AcDbSymbolTableRecord
100
AcDbLayerTableRecord
  2
05_CURVES
 70
0
 62
7
  6
CONTINUOUS
370
-3
390
F
  0
LAYER
  5
204
100
AcDbSymbolTableRecord
100
AcDbLayerTableRecord
  2
06_SURFS
 70
0
 62
7
  6
CONTINUOUS
370
-3
390
F
  0
LAYER
  5
205
100
AcDbSymbolTableRecord
100
AcDbLayerTableRecord
  2
07_COSMETICS
 70
0
 62
7
  6
CONTINUOUS
370
-3
390
F
  0
LAYER
  5
206
100
AcDbSymbolTableRecord
100
AcDbLayerTableRecord
  2
10_NOTES
 70
0
 62
7
  6
CONTINUOUS
370
-3
390
F
  0
LAYER
  5
207
100
AcDbSymbolTableRecord
100
AcDbLayerTableRecord
  2
11_NOTES_PUB
 70
0
 62
7
  6
CONTINUOUS
370
-3
390
F
  0
LAYER
  5
208
100
AcDbSymbolTableRecord
100
AcDbLayerTableRecord
  2
13_REF_GTOL
 70
0
 62
7
  6
CONTINUOUS
370
-3
390
F
  0
LAYER
  5
209
100
AcDbSymbolTableRecord
100
AcDbLayerTableRecord
  2
16_MISC
 70
0
 62
7
  6
CONTINUOUS
370
-3
390
F
  0
LAYER
  5
20A
100
AcDbSymbolTableRecord
100
AcDbLayerTableRecord
  2
17_NO_PRINT
 70
0
 62
7
  6
CONTINUOUS
370
-3
390
F
  0
LAYER
  5
20B
100
AcDbSymbolTableRecord
100
AcDbLayerTableRecord
  2
18_DATUM_CAMS_JOINTS
 70
0
 62
7
  6
CONTINUOUS
370
-3
390
F
  0
LAYER
  5
20C
100
AcDbSymbolTableRecord
100
AcDbLayerTableRecord
  2
19_DATUM_FUNCTIONAL
 70
0
 62
7
  6
CONTINUOUS
370
-3
390
F
  0
LAYER
  5
20D
100
AcDbSymbolTableRecord
100
AcDbLayerTableRecord
  2
20_DATUM_KINEMATIC_SCHEME
 70
0
 62
7
  6
CONTINUOUS
370
-3
390
F
  0
ENDTAB
  0
TABLE
  2
STYLE
  5
3
100
AcDbSymbolTable
 70
1
  0
STYLE
  5
11
100
AcDbSymbolTableRecord
100
AcDbTextStyleTableRecord
  2
STANDARD
 70
0
 40
0.0
 41
1.0
 50
0.0
 71
0
 42
0.2
  3
ARIAL.TTF
  4

  0
STYLE
  5
20E
100
AcDbSymbolTableRecord
100
AcDbTextStyleTableRecord
  2
TEXTSTYLE_1
 70
0
 40
0.0
 41
0.8
 50
0.0
 71
0
 42
0.2
  3
gdt
  4

  0
ENDTAB
  0
TABLE
  2
VIEW
  5
6
100
AcDbSymbolTable
 70
0
  0
ENDTAB
  0
TABLE
  2
UCS
  5
7
100
AcDbSymbolTable
 70
0
  0
ENDTAB
  0
TABLE
  2
APPID
  5
9
100
AcDbSymbolTable
 70
1
  0
APPID
  5
20F
100
AcDbSymbolTableRecord
100
AcDbRegAppTableRecord
  2
ACAD
 70
0
  0
ENDTAB
  0
TABLE
  2
BLOCK_RECORD
  5
1
100
AcDbSymbolTable
 70
0
  0
BLOCK_RECORD
  5
210
100
AcDbSymbolTableRecord
100
AcDbBlockTableRecord
  2
*Model_Space
  0
BLOCK_RECORD
  5
211
100
AcDbSymbolTableRecord
100
AcDbBlockTableRecord
  2
*Paper_Space
  0
BLOCK_RECORD
  5
212
100
AcDbSymbolTableRecord
100
AcDbBlockTableRecord
  2
_FILLED
  0
ENDTAB
  0
TABLE
  2
DIMSTYLE
  5
A
100
AcDbSymbolTable
 70
1
100
AcDbDimStyleTable
 71
0
  0
DIMSTYLE
105
213
100
AcDbSymbolTableRecord
100
AcDbDimStyleTableRecord
  2
STANDARD
 70
0
  3

  4

 40
1.0
 41
0.6634611884
 42
1.0
 43
0.38
 44
1.0
 45
0.0
 46
0.0
 47
0.01
 48
0.01
140
0.9288456638
141
0.09
142
0.0
143
25.4
144
1.0
145
0.0
146
1.0
147
0.625
 71
1
 72
0
 73
0
 74
0
 75
0
 76
0
 77
1
 78
8
 79
2
170
0
171
1
172
0
173
0
174
0
175
0
176
0
177
0
178
0
270
2
179
2
271
2
272
2
273
2
274
2
275
0
280
0
281
0
282
0
283
1
284
8
285
0
286
0
287
3
288
0
340
11
278
46
341
212
342
212
343
212
344
212
  0
ENDTAB
  0
ENDSEC
  0
SECTION
  2
BLOCKS
  0
BLOCK
  5
20
100
AcDbEntity
  8
0
100
AcDbBlockBegin
  2
*Model_Space
 70
0
 10
0.0
 20
0.0
 30
0.0
  3
*Model_Space
  1

  0
ENDBLK
  5
21
100
AcDbEntity
  8
0
100
AcDbBlockEnd
  0
BLOCK
  5
1C
100
AcDbEntity
  8
0
100
AcDbBlockBegin
  2
*Paper_Space
 70
0
 10
0.0
 20
0.0
 30
0.0
  3
*Paper_Space
  1

  0
ENDBLK
  5
1D
100
AcDbEntity
  8
0
100
AcDbBlockEnd
  0
BLOCK
  5
214
100
AcDbEntity
  8
0
100
AcDbBlockBegin
  2
_FILLED
 70
64
 10
0.0
 20
0.0
  3
_FILLED
  1

  0
SOLID
  5
215
100
AcDbEntity
  8
0
  6
BYBLOCK
 62
0
100
AcDbTrace
 10
0.0
 20
0.0
 11
-1.0
 21
0.25
 12
-1.0
 22
-0.25
 13
-1.0
 23
-0.25
  0
ENDBLK
  5
216
100
AcDbEntity
  8
0
  6
BYBLOCK
 62
0
100
AcDbBlockEnd
  0
ENDSEC
  0
SECTION
  2
ENTITIES
  0
LINE
  5
217
100
AcDbEntity
  8
0
100
AcDbLine
 62
7
  6
BYLAYER
 10
31.4640861482
 20
6.4155153987
 11
18.7102363313
 21
6.4155153987
  0
LINE
  5
218
100
AcDbEntity
  8
0
100
AcDbLine
 62
7
  6
BYLAYER
 10
31.8148089744
 20
6.8286913098
 11
30.400595412
 21
6.8286913098
  0
LINE
  5
219
100
AcDbEntity
  8
0
100
AcDbLine
 62
7
  6
BYLAYER
 10
28.5438859651
 20
6.8286913098
 11
21.630436514
 21
6.8286913098
  0
LINE
  5
21A
100
AcDbEntity
  8
0
100
AcDbLine
 62
7
  6
BYLAYER
 10
19.773727067
 20
6.8286913098
 11
18.3595135047
 21
6.8286913098
  0
LINE
  5
21B
100
AcDbEntity
  8
0
100
AcDbLine
 62
7
  6
BYLAYER
 10
21.3115965368
 20
9.3523394875
 11
28.8627259423
 21
9.3523394875
  0
LINE
  5
21C
100
AcDbEntity
  8
0
100
AcDbLine
 62
7
  6
BYLAYER
 10
34.232405556
 20
9.7655153987
 11
15.9422607316
 21
9.7655153987
  0
LINE
  5
21D
100
AcDbEntity
  8
0
100
AcDbLine
 62
7
  6
BYLAYER
 10
34.665473403
 20
10.0155153987
 11
18.677059409
 21
10.0155153987
  0
LINE
  5
21E
100
AcDbEntity
  8
0
100
AcDbLine
 62
7
  6
BYLAYER
 10
17.9699526278
 20
10.0155153987
 11
15.508849076
 21
10.0155153987
  0
LINE
  5
21F
100
AcDbEntity
  8
0
100
AcDbLine
 62
7
  6
BYLAYER
 10
14.9420145882
 20
10.9976527354
 11
17.5684799771
 21
10.9976527354
  0
LINE
  5
220
100
AcDbEntity
  8
0
100
AcDbLine
 62
7
  6
BYLAYER
 10
18.2755867583
 20
10.9976527354
 11
35.2325106588
 21
10.9976527354
  0
LINE
  5
221
100
AcDbEntity
  8
0
100
AcDbLine
 62
7
  6
BYLAYER
 10
35.2994218045
 20
11.2389265322
 11
18.2276877108
 21
11.2389265322
  0
LINE
  5
222
100
AcDbEntity
  8
0
100
AcDbLine
 62
7
  6
BYLAYER
 10
17.5215886402
 20
11.2389265322
 11
14.8751047798
 21
11.2389265322
  0
LINE
  5
223
100
AcDbEntity
  8
0
100
AcDbLine
 62
7
  6
BYLAYER
 10
15.508849076
 20
10.0155153987
 11
14.9418118202
 21
10.9976527354
  0
LINE
  5
224
100
AcDbEntity
  8
0
100
AcDbLine
 62
7
  6
BYLAYER
 10
22.5871612395
 20
67.6186076326
 11
23.0871612395
 21
68.1186076326
  0
LINE
  5
225
100
AcDbEntity
  8
0
100
AcDbLine
 62
7
  6
BYLAYER
 10
35.3871612395
 20
16.2655153987
 11
18.1663656702
 21
16.2655153987
  0
LINE
  5
226
100
AcDbEntity
  8
0
100
AcDbLine
 62
7
  6
BYLAYER
 10
17.4585146432
 20
16.2655153987
 11
14.7871612395
 21
16.2655153987
  0
LINE
  5
227
100
AcDbEntity
  8
0
100
AcDbLine
 62
7
  6
BYLAYER
 10
37.0871160302
 20
16.6655153987
 11
30.6195826961
 21
16.6655153987
  0
LINE
  5
228
100
AcDbEntity
  8
0
100
AcDbLine
 62
7
  6
BYLAYER
 10
19.554739783
 20
16.6655153987
 11
13.0872064489
 21
16.6655153987
  0
LINE
  5
229
100
AcDbEntity
  8
0
100
AcDbLine
 62
7
  6
BYLAYER
 10
38.5871612395
 20
17.2655153987
 11
11.5871612395
 21
17.2655153987
  0
LINE
  5
22A
100
AcDbEntity
  8
0
100
AcDbLine
 62
7
  6
BYLAYER
 10
14.9418118202
 20
10.9976527354
 11
14.8749006746
 21
11.2389265322
  0
LINE
  5
22B
100
AcDbEntity
  8
0
100
AcDbLine
 62
7
  6
BYLAYER
 10
11.5871612395
 20
17.2655153987
 11
11.5871612395
 21
23.7655153987
  0
LINE
  5
22C
100
AcDbEntity
  8
0
100
AcDbLine
 62
7
  6
BYLAYER
 10
11.6371612395
 20
23.7655153987
 11
11.6371612395
 21
45.6655153987
  0
LINE
  5
22D
100
AcDbEntity
  8
0
100
AcDbLine
 62
7
  6
BYLAYER
 10
12.2870634279
 20
17.2655153987
 11
12.2870604941
 21
23.7655153987
  0
LINE
  5
22E
100
AcDbEntity
  8
0
100
AcDbLine
 62
7
  6
BYLAYER
 10
13.0871612395
 20
16.6655153987
 11
13.0871612395
 21
17.2655153987
  0
LINE
  5
22F
100
AcDbEntity
  8
0
100
AcDbLine
 62
7
  6
BYLAYER
 10
13.2458200934
 20
16.6655153987
 11
13.2458200934
 21
17.2655153987
  0
LINE
  5
230
100
AcDbEntity
  8
0
100
AcDbLine
 62
7
  6
BYLAYER
 10
13.4405596046
 20
16.6655153987
 11
13.4487640181
 21
17.2655153987
  0
LINE
  5
231
100
AcDbEntity
  8
0
100
AcDbLine
 62
7
  6
BYLAYER
 10
11.5871612395
 20
23.7655153987
 11
38.5871612395
 21
23.7655153987
  0
LINE
  5
232
100
AcDbEntity
  8
0
100
AcDbLine
 62
7
  6
BYLAYER
 10
14.8749006746
 20
11.2389265322
 11
14.7871612395
 21
16.2655153987
  0
LINE
  5
233
100
AcDbEntity
  8
0
100
AcDbLine
 62
7
  6
BYLAYER
 10
14.3064802652
 20
17.2655153987
 11
14.3064802652
 21
16.6655153987
  0
LINE
  5
234
100
AcDbEntity
  8
0
100
AcDbLine
 62
7
  6
BYLAYER
 10
14.7871612395
 20
16.2655153987
 11
14.7871612395
 21
16.6655153987
  0
LINE
  5
235
100
AcDbEntity
  8
0
100
AcDbLine
 62
7
  6
BYLAYER
 10
15.6047993297
 20
16.6655153987
 11
15.6047993297
 21
17.2655153987
  0
LINE
  5
236
100
AcDbEntity
  8
0
100
AcDbLine
 62
7
  6
BYLAYER
 10
31.8371612395
 20
25.7655153987
 11
38.5371612395
 21
25.7655153987
  0
LINE
  5
237
100
AcDbEntity
  8
0
100
AcDbLine
 62
7
  6
BYLAYER
 10
17.4590190212
 20
16.2655153987
 11
17.5210848201
 21
11.2389265322
  0
LINE
  5
238
100
AcDbEntity
  8
0
100
AcDbLine
 62
7
  6
BYLAYER
 10
18.2281916013
 20
11.2389265322
 11
18.1661258024
 21
16.2655153987
  0
LINE
  5
239
100
AcDbEntity
  8
0
100
AcDbLine
 62
7
  6
BYLAYER
 10
17.4590190212
 20
16.2655153987
 11
17.4590091956
 21
16.6655153987
  0
LINE
  5
23A
100
AcDbEntity
  8
0
100
AcDbLine
 62
7
  6
BYLAYER
 10
18.0246798821
 20
9.9141450732
 11
18.0246798821
 21
16.6655153987
  0
LINE
  5
23B
100
AcDbEntity
  8
0
100
AcDbLine
 62
7
  6
BYLAYER
 10
18.1661159768
 20
16.6655153987
 11
18.1661258024
 21
16.2655153987
  0
LINE
  5
23C
100
AcDbEntity
  8
0
100
AcDbLine
 62
7
  6
BYLAYER
 10
18.3371612395
 20
43.1655153987
 11
18.3371612395
 21
45.6655153987
  0
LINE
  5
23D
100
AcDbEntity
  8
0
100
AcDbLine
 62
7
  6
BYLAYER
 10
19.554739783
 20
17.2655153987
 11
19.554739783
 21
16.6655153987
  0
LINE
  5
23E
100
AcDbEntity
  8
0
100
AcDbLine
 62
7
  6
BYLAYER
 10
39.2871612395
 20
30.1890162857
 11
37.2871612395
 21
30.1890162857
  0
LINE
  5
23F
100
AcDbEntity
  8
0
100
AcDbLine
 62
7
  6
BYLAYER
 10
37.2871612395
 20
30.3237220672
 11
39.2871612395
 21
30.3237220672
  0
LINE
  5
240
100
AcDbEntity
  8
0
100
AcDbLine
 62
7
  6
BYLAYER
 10
22.5871612395
 20
58.6186650139
 11
22.5871612395
 21
67.6185502513
  0
LINE
  5
241
100
AcDbEntity
  8
0
100
AcDbLine
 62
7
  6
BYLAYER
 10
23.0871612395
 20
58.1186076326
 11
23.0871612395
 21
68.1186076326
  0
LINE
  5
242
100
AcDbEntity
  8
0
100
AcDbLine
 62
7
  6
BYLAYER
 10
36.7871612395
 20
33.1655153987
 11
37.2871612395
 21
33.1655153987
  0
LINE
  5
243
100
AcDbEntity
  8
0
100
AcDbLine
 62
7
  6
BYLAYER
 10
34.6871580539
 20
33.5405153987
 11
33.3371612395
 21
33.5405153987
  0
LINE
  5
244
100
AcDbEntity
  8
0
100
AcDbLine
 62
7
  6
BYLAYER
 10
39.7490414549
 20
34.1655153987
 11
41.5252810242
 21
34.1655153987
  0
LINE
  5
245
100
AcDbEntity
  8
0
100
AcDbLine
 62
7
  6
BYLAYER
 10
24.0871612395
 20
68.118604873
 11
24.0871612395
 21
58.1186103922
  0
LINE
  5
246
100
AcDbEntity
  8
0
100
AcDbLine
 62
7
  6
BYLAYER
 10
24.7871612395
 20
58.6186464963
 11
24.7871612395
 21
67.618568769
  0
LINE
  5
247
100
AcDbEntity
  8
0
100
AcDbLine
 62
7
  6
BYLAYER
 10
25.2871612395
 20
53.6186867866
 11
25.2871612395
 21
72.6185284786
  0
LINE
  5
248
100
AcDbEntity
  8
0
100
AcDbLine
 62
7
  6
BYLAYER
 10
36.4871609568
 20
35.009145252
 11
34.9871612395
 21
35.0091452405
  0
LINE
  5
249
100
AcDbEntity
  8
0
100
AcDbLine
 62
7
  6
BYLAYER
 10
45.287130064
 20
35.6655153987
 11
41.9871612395
 21
35.6655153987
  0
LINE
  5
24A
100
AcDbEntity
  8
0
100
AcDbLine
 62
7
  6
BYLAYER
 10
39.7490414549
 20
36.1655153987
 11
41.5252810242
 21
36.1655153987
  0
LINE
  5
24B
100
AcDbEntity
  8
0
100
AcDbLine
 62
7
  6
BYLAYER
 10
39.2871612395
 20
37.5527659391
 11
37.2871612395
 21
37.5527659391
  0
LINE
  5
24C
100
AcDbEntity
  8
0
100
AcDbLine
 62
7
  6
BYLAYER
 10
39.2871612395
 20
39.5573549804
 11
37.2871612395
 21
39.5573549804
  0
LINE
  5
24D
100
AcDbEntity
  8
0
100
AcDbLine
 62
7
  6
BYLAYER
 10
37.2871612395
 20
39.7486380557
 11
39.2871612395
 21
39.7486380557
  0
LINE
  5
24E
100
AcDbEntity
  8
0
100
AcDbLine
 62
7
  6
BYLAYER
 10
30.2871612395
 20
72.6185284786
 11
30.2871612395
 21
53.6186867866
  0
LINE
  5
24F
100
AcDbEntity
  8
0
100
AcDbLine
 62
7
  6
BYLAYER
 10
30.6195826961
 20
16.6655153987
 11
30.6195826961
 21
17.2655153987
  0
LINE
  5
250
100
AcDbEntity
  8
0
100
AcDbLine
 62
7
  6
BYLAYER
 10
39.7490414549
 20
40.1655153987
 11
41.5252810242
 21
40.1655153987
  0
LINE
  5
251
100
AcDbEntity
  8
0
100
AcDbLine
 62
7
  6
BYLAYER
 10
45.287130064
 20
40.6655153987
 11
41.9871612395
 21
40.6655153987
  0
LINE
  5
252
100
AcDbEntity
  8
0
100
AcDbLine
 62
7
  6
BYLAYER
 10
36.4871595411
 20
42.1655153987
 11
34.9871612395
 21
42.1655153987
  0
LINE
  5
253
100
AcDbEntity
  8
0
100
AcDbLine
 62
7
  6
BYLAYER
 10
39.7490414549
 20
42.1655153987
 11
41.5252810242
 21
42.1655153987
  0
LINE
  5
254
100
AcDbEntity
  8
0
100
AcDbLine
 62
7
  6
BYLAYER
 10
31.8371612395
 20
25.7655153987
 11
31.8371612395
 21
45.6655153987
  0
LINE
  5
255
100
AcDbEntity
  8
0
100
AcDbLine
 62
7
  6
BYLAYER
 10
32.2871612395
 20
58.6616514708
 11
32.2871612395
 21
68.1185297026
  0
LINE
  5
256
100
AcDbEntity
  8
0
100
AcDbLine
 62
7
  6
BYLAYER
 10
33.3371612395
 20
25.7655153987
 11
33.3371612395
 21
45.6655153987
  0
LINE
  5
257
100
AcDbEntity
  8
0
100
AcDbLine
 62
7
  6
BYLAYER
 10
33.7871612395
 20
65.1686049006
 11
33.7871612395
 21
61.0686103646
  0
LINE
  5
258
100
AcDbEntity
  8
0
100
AcDbLine
 62
7
  6
BYLAYER
 10
34.6871580539
 20
42.7905153987
 11
33.3371612395
 21
42.7905153987
  0
LINE
  5
259
100
AcDbEntity
  8
0
100
AcDbLine
 62
7
  6
BYLAYER
 10
39.2871612395
 20
42.9875837661
 11
37.2871612395
 21
42.9875837661
  0
LINE
  5
25A
100
AcDbEntity
  8
0
100
AcDbLine
 62
7
  6
BYLAYER
 10
18.3371612395
 20
43.1655153987
 11
11.6371612395
 21
43.1655153987
  0
LINE
  5
25B
100
AcDbEntity
  8
0
100
AcDbLine
 62
7
  6
BYLAYER
 10
36.7871612395
 20
43.1655153987
 11
37.2871612395
 21
43.1655153987
  0
LINE
  5
25C
100
AcDbEntity
  8
0
100
AcDbLine
 62
7
  6
BYLAYER
 10
34.5695231493
 20
17.2655153987
 11
34.5695231493
 21
16.6655153987
  0
LINE
  5
25D
100
AcDbEntity
  8
0
100
AcDbLine
 62
7
  6
BYLAYER
 10
34.6871595593
 20
42.7905153987
 11
34.6871595593
 21
33.5405153987
  0
LINE
  5
25E
100
AcDbEntity
  8
0
100
AcDbLine
 62
7
  6
BYLAYER
 10
34.9871612395
 20
42.4903606618
 11
34.9871612395
 21
33.8406701355
  0
LINE
  5
25F
100
AcDbEntity
  8
0
100
AcDbLine
 62
7
  6
BYLAYER
 10
35.3871612395
 20
16.6655153987
 11
35.3871612395
 21
16.2655153987
  0
LINE
  5
260
100
AcDbEntity
  8
0
100
AcDbLine
 62
7
  6
BYLAYER
 10
35.8678422138
 20
16.6655153987
 11
35.8678422138
 21
17.2655153987
  0
LINE
  5
261
100
AcDbEntity
  8
0
100
AcDbLine
 62
7
  6
BYLAYER
 10
35.3871612395
 20
16.2655153987
 11
35.2994218045
 21
11.2389265322
  0
LINE
  5
262
100
AcDbEntity
  8
0
100
AcDbLine
 62
7
  6
BYLAYER
 10
11.6371612395
 20
45.6655153987
 11
33.3371612395
 21
45.6655153987
  0
LINE
  5
263
100
AcDbEntity
  8
0
100
AcDbLine
 62
7
  6
BYLAYER
 10
34.9871605258
 20
42.4905131334
 11
34.6871588066
 21
42.790514646
  0
LINE
  5
264
100
AcDbEntity
  8
0
100
AcDbLine
 62
7
  6
BYLAYER
 10
36.7871612395
 20
41.8655138276
 11
36.4871595411
 21
42.1655153987
  0
LINE
  5
265
100
AcDbEntity
  8
0
100
AcDbLine
 62
7
  6
BYLAYER
 10
39.2871612395
 20
34.9655153987
 11
39.7490414549
 21
34.1655153987
  0
LINE
  5
266
100
AcDbEntity
  8
0
100
AcDbLine
 62
7
  6
BYLAYER
 10
36.7255584609
 20
17.2655153987
 11
36.7337628745
 21
16.6655153987
  0
LINE
  5
267
100
AcDbEntity
  8
0
100
AcDbLine
 62
7
  6
BYLAYER
 10
36.4871595411
 20
42.1655153987
 11
36.4871595411
 21
35.0091452403
  0
LINE
  5
268
100
AcDbEntity
  8
0
100
AcDbLine
 62
7
  6
BYLAYER
 10
36.7871612395
 20
33.1655566998
 11
36.7871612395
 21
43.1654740975
  0
LINE
  5
269
100
AcDbEntity
  8
0
100
AcDbLine
 62
7
  6
BYLAYER
 10
36.9285023856
 20
17.2655153987
 11
36.9285023856
 21
16.6655153987
  0
LINE
  5
26A
100
AcDbEntity
  8
0
100
AcDbLine
 62
7
  6
BYLAYER
 10
37.0871612395
 20
16.6655153987
 11
37.0871612395
 21
17.2655153987
  0
LINE
  5
26B
100
AcDbEntity
  8
0
100
AcDbLine
 62
7
  6
BYLAYER
 10
37.2871612395
 20
39.5573549804
 11
37.2871612395
 21
37.9757027064
  0
LINE
  5
26C
100
AcDbEntity
  8
0
100
AcDbLine
 62
7
  6
BYLAYER
 10
37.2871612395
 20
30.1890162857
 11
37.2871612395
 21
37.5527659391
  0
LINE
  5
26D
100
AcDbEntity
  8
0
100
AcDbLine
 62
7
  6
BYLAYER
 10
37.2871612395
 20
39.5591818196
 11
37.2871612395
 21
49.6084543962
  0
LINE
  5
26E
100
AcDbEntity
  8
0
100
AcDbLine
 62
7
  6
BYLAYER
 10
37.8872590518
 20
23.7655153987
 11
37.8872590518
 21
17.2655153987
  0
LINE
  5
26F
100
AcDbEntity
  8
0
100
AcDbLine
 62
7
  6
BYLAYER
 10
38.5371612395
 20
23.7655153987
 11
38.5371612395
 21
25.7655153987
  0
LINE
  5
270
100
AcDbEntity
  8
0
100
AcDbLine
 62
7
  6
BYLAYER
 10
38.5871612395
 20
17.2655153987
 11
38.5871612395
 21
23.7655153987
  0
LINE
  5
271
100
AcDbEntity
  8
0
100
AcDbLine
 62
7
  6
BYLAYER
 10
39.2871612395
 20
41.3655153987
 11
39.7490414549
 21
42.1655153987
  0
LINE
  5
272
100
AcDbEntity
  8
0
100
AcDbLine
 62
7
  6
BYLAYER
 10
34.9871605258
 20
33.8405176639
 11
34.6871588066
 21
33.5405161514
  0
LINE
  5
273
100
AcDbEntity
  8
0
100
AcDbLine
 62
7
  6
BYLAYER
 10
39.2871612395
 20
48.4028702182
 11
37.2871612395
 21
48.4028702182
  0
LINE
  5
274
100
AcDbEntity
  8
0
100
AcDbLine
 62
7
  6
BYLAYER
 10
22.5871612395
 20
58.6186076326
 11
23.0871612395
 21
58.1186076326
  0
LINE
  5
275
100
AcDbEntity
  8
0
100
AcDbLine
 62
7
  6
BYLAYER
 10
39.2871612395
 20
30.1890162857
 11
39.2871612395
 21
50.3350290223
  0
LINE
  5
276
100
AcDbEntity
  8
0
100
AcDbLine
 62
7
  6
BYLAYER
 10
45.6871492421
 20
40.2655012088
 11
45.2871443251
 21
40.6655011377
  0
LINE
  5
277
100
AcDbEntity
  8
0
100
AcDbLine
 62
7
  6
BYLAYER
 10
37.2871612395
 20
48.996155389
 11
30.2871612395
 21
57.3227778375
  0
LINE
  5
278
100
AcDbEntity
  8
0
100
AcDbLine
 62
7
  6
BYLAYER
 10
41.9871612395
 20
41.3655153987
 11
41.5252810242
 21
42.1655153987
  0
LINE
  5
279
100
AcDbEntity
  8
0
100
AcDbLine
 62
7
  6
BYLAYER
 10
41.9871612395
 20
41.3655136284
 11
41.9871612395
 21
34.9655171689
  0
LINE
  5
27A
100
AcDbEntity
  8
0
100
AcDbLine
 62
7
  6
BYLAYER
 10
35.2325106588
 20
10.9976527354
 11
35.2994218045
 21
11.2389265322
  0
LINE
  5
27B
100
AcDbEntity
  8
0
100
AcDbLine
 62
7
  6
BYLAYER
 10
41.9871612395
 20
34.9655153987
 11
41.5252810242
 21
34.1655153987
  0
LINE
  5
27C
100
AcDbEntity
  8
0
100
AcDbLine
 62
7
  6
BYLAYER
 10
45.6871492421
 20
36.0655295885
 11
45.2871443251
 21
35.6655296596
  0
LINE
  5
27D
100
AcDbEntity
  8
0
100
AcDbLine
 62
7
  6
BYLAYER
 10
30.2871612395
 20
53.6186076326
 11
25.2871612395
 21
53.6186076326
  0
LINE
  5
27E
100
AcDbEntity
  8
0
100
AcDbLine
 62
7
  6
BYLAYER
 10
30.2871612395
 20
57.9350768447
 11
37.2871612395
 21
49.6084543962
  0
LINE
  5
27F
100
AcDbEntity
  8
0
100
AcDbLine
 62
7
  6
BYLAYER
 10
39.2871612395
 20
50.3350290223
 11
32.2871612395
 21
58.6616514708
  0
LINE
  5
280
100
AcDbEntity
  8
0
100
AcDbLine
 62
7
  6
BYLAYER
 10
45.2871585859
 20
40.6655153987
 11
45.2871585859
 21
35.6655153987
  0
LINE
  5
281
100
AcDbEntity
  8
0
100
AcDbLine
 62
7
  6
BYLAYER
 10
45.6871612395
 20
40.265379933
 11
45.6871612395
 21
36.0656508643
  0
LINE
  5
282
100
AcDbEntity
  8
0
100
AcDbLine
 62
7
  6
BYLAYER
 10
35.2325106588
 20
10.9976527354
 11
34.665473403
 21
10.0155153987
  0
LINE
  5
283
100
AcDbEntity
  8
0
100
AcDbLine
 62
7
  6
BYLAYER
 10
23.0871612395
 20
58.1186076326
 11
24.0871612395
 21
58.1186076326
  0
LINE
  5
284
100
AcDbEntity
  8
0
100
AcDbLine
 62
7
  6
BYLAYER
 10
25.2871612395
 20
58.6186076326
 11
24.7871612395
 21
58.6186076326
  0
LINE
  5
285
100
AcDbEntity
  8
0
100
AcDbLine
 62
7
  6
BYLAYER
 10
24.0871612395
 20
60.1286076326
 11
24.7871612395
 21
60.1286076326
  0
LINE
  5
286
100
AcDbEntity
  8
0
100
AcDbLine
 62
7
  6
BYLAYER
 10
32.2871612395
 20
61.0686076326
 11
33.7871612395
 21
61.0686076326
  0
LINE
  5
287
100
AcDbEntity
  8
0
100
AcDbLine
 62
7
  6
BYLAYER
 10
30.2871612395
 20
63.4247571362
 11
32.2871612395
 21
63.4247571362
  0
LINE
  5
288
100
AcDbEntity
  8
0
100
AcDbLine
 62
7
  6
BYLAYER
 10
32.2871612395
 20
65.1686076326
 11
33.7871612395
 21
65.1686076326
  0
LINE
  5
289
100
AcDbEntity
  8
0
100
AcDbLine
 62
7
  6
BYLAYER
 10
24.0871612395
 20
66.1086076326
 11
24.7871612395
 21
66.1086076326
  0
LINE
  5
28A
100
AcDbEntity
  8
0
100
AcDbLine
 62
7
  6
BYLAYER
 10
25.2871612395
 20
67.6186076326
 11
24.7871612395
 21
67.6186076326
  0
LINE
  5
28B
100
AcDbEntity
  8
0
100
AcDbLine
 62
7
  6
BYLAYER
 10
23.0871612395
 20
68.1186076326
 11
24.0871612395
 21
68.1186076326
  0
LINE
  5
28C
100
AcDbEntity
  8
0
100
AcDbLine
 62
7
  6
BYLAYER
 10
30.2871612395
 20
68.1186076326
 11
32.2871612395
 21
68.1186076326
  0
LINE
  5
28D
100
AcDbEntity
  8
0
100
AcDbLine
 62
7
  6
BYLAYER
 10
30.2871612395
 20
72.6186076326
 11
25.2871612395
 21
72.6186076326
  0
ARC
  5
28E
100
AcDbEntity
  8
0
100
AcDbCircle
 62
7
  6
BYLAYER
 10
34.0244601085
 20
61.686672313
 40
26.7909564137
100
AcDbArc
 50
275.2742364519
 51
275.9189000033
  0
ARC
  5
28F
100
AcDbEntity
  8
0
100
AcDbCircle
 62
7
  6
BYLAYER
 10
15.9418617779
 20
10.2655153987
 40
0.5
100
AcDbArc
 50
210.0
 51
270.0
  0
ARC
  5
290
100
AcDbEntity
  8
0
100
AcDbCircle
 62
7
  6
BYLAYER
 10
34.2324607011
 20
10.2655153987
 40
0.5
100
AcDbArc
 50
270.0
 51
330.0
  0
SPLINE
  5
291
100
AcDbEntity
  8
0
100
AcDbSpline
 62
7
  6
BYLAYER
 70
0
 71
3
 72
11
 73
7
 74
0
 42
0.0000001
 43
0.0000001
 44
0.0000000001
 40
0.0
 40
0.0
 40
0.0
 40
0.0
 40
0.250011602
 40
0.5000143442
 40
0.7500087087
 40
1.0
 40
1.0
 40
1.0
 40
1.0
 10
41.5252810242
 20
40.1655153987
 30
0.0
 10
41.5722064401
 20
40.0029609896
 30
0.0
 10
41.6581795854
 20
39.6754919192
 30
0.0
 10
41.7573027682
 20
39.1773307412
 30
0.0
 10
41.8202479953
 20
38.6732176494
 30
0.0
 10
41.8346821009
 20
38.3346936469
 30
0.0
 10
41.8346821009
 20
38.1655153987
 30
0.0
  0
SPLINE
  5
292
100
AcDbEntity
  8
0
100
AcDbSpline
 62
7
  6
BYLAYER
 70
0
 71
3
 72
19
 73
15
 74
0
 42
0.0000001
 43
0.0000001
 44
0.0000000001
 40
0.0
 40
0.0
 40
0.0
 40
0.0
 40
0.1307723045
 40
0.2571511151
 40
0.3188552458
 40
0.3797385092
 40
0.4400271422
 40
0.5000014919
 40
0.5599759069
 40
0.6202640901
 40
0.681147172
 40
0.7428509158
 40
0.869228687
 40
1.0
 40
1.0
 40
1.0
 40
1.0
 10
41.5252810242
 20
42.1655153987
 30
0.0
 10
41.5714334784
 20
42.085577003
 30
0.0
 10
41.6561944588
 20
41.9247798556
 30
0.0
 10
41.7400387978
 20
41.7152798626
 30
0.0
 10
41.7885826012
 20
41.5462441896
 30
0.0
 10
41.8149715981
 20
41.4197565661
 30
0.0
 10
41.8310747655
 20
41.2927694154
 30
0.0
 10
41.8364675224
 20
41.1655121278
 30
0.0
 10
41.8310760216
 20
41.0382549456
 30
0.0
 10
41.8149693916
 20
40.9112687153
 30
0.0
 10
41.7885839307
 20
40.7847810998
 30
0.0
 10
41.740036056
 20
40.6157476722
 30
0.0
 10
41.6561940172
 20
40.4062489028
 30
0.0
 10
41.5714331285
 20
40.2454531883
 30
0.0
 10
41.5252810242
 20
40.1655153987
 30
0.0
  0
SPLINE
  5
293
100
AcDbEntity
  8
0
100
AcDbSpline
 62
7
  6
BYLAYER
 70
0
 71
3
 72
19
 73
15
 74
0
 42
0.0000001
 43
0.0000001
 44
0.0000000001
 40
0.0
 40
0.0
 40
0.0
 40
0.0
 40
0.1307723242
 40
0.2571511129
 40
0.3188552547
 40
0.3797385161
 40
0.4400271435
 40
0.5000014946
 40
0.5599759075
 40
0.6202640939
 40
0.6811471796
 40
0.7428509133
 40
0.8692287029
 40
1.0
 40
1.0
 40
1.0
 40
1.0
 10
39.7490414549
 20
40.1655153987
 30
0.0
 10
39.7028889936
 20
40.2454538064
 30
0.0
 10
39.618127801
 20
40.4062508531
 30
0.0
 10
39.5342837949
 20
40.6157509838
 30
0.0
 10
39.4857398336
 20
40.7847865957
 30
0.0
 10
39.4593508385
 20
40.9112742294
 30
0.0
 10
39.4432478247
 20
41.0382613927
 30
0.0
 10
39.4378549676
 20
41.1655186647
 30
0.0
 10
39.4432463339
 20
41.29277586
 30
0.0
 10
39.459353107
 20
41.4197620804
 30
0.0
 10
39.4857386311
 20
41.5462496727
 30
0.0
 10
39.5342863101
 20
41.7152831693
 30
0.0
 10
39.6181286564
 20
41.9247818158
 30
0.0
 10
39.7028893561
 20
42.0855776188
 30
0.0
 10
39.7490414549
 20
42.1655153987
 30
0.0
  0
SPLINE
  5
294
100
AcDbEntity
  8
0
100
AcDbSpline
 62
7
  6
BYLAYER
 70
0
 71
3
 72
11
 73
7
 74
0
 42
0.0000001
 43
0.0000001
 44
0.0000000001
 40
0.0
 40
0.0
 40
0.0
 40
0.0
 40
0.2499913545
 40
0.4999857241
 40
0.7499884402
 40
1.0
 40
1.0
 40
1.0
 40
1.0
 10
39.4396403781
 20
38.1655153987
 30
0.0
 10
39.4396403781
 20
38.3346936896
 30
0.0
 10
39.4540744834
 20
38.6732177386
 30
0.0
 10
39.5170197309
 20
39.1773308571
 30
0.0
 10
39.6161429266
 20
39.6754919881
 30
0.0
 10
39.7021160469
 20
40.0029610171
 30
0.0
 10
39.7490414549
 20
40.1655153987
 30
0.0
  0
SPLINE
  5
295
100
AcDbEntity
  8
0
100
AcDbSpline
 62
7
  6
BYLAYER
 70
0
 71
3
 72
11
 73
7
 74
0
 42
0.0000001
 43
0.0000001
 44
0.0000000001
 40
0.0
 40
0.0
 40
0.0
 40
0.0
 40
0.2500114931
 40
0.5000143325
 40
0.7500086862
 40
1.0
 40
1.0
 40
1.0
 40
1.0
 10
39.7490414549
 20
36.1655153987
 30
0.0
 10
39.70211606
 20
36.3280697348
 30
0.0
 10
39.6161437888
 20
36.6555390158
 30
0.0
 10
39.5170197642
 20
37.1536999715
 30
0.0
 10
39.4540741585
 20
37.6578131186
 30
0.0
 10
39.4396403781
 20
37.9963371374
 30
0.0
 10
39.4396403781
 20
38.1655153987
 30
0.0
  0
SPLINE
  5
296
100
AcDbEntity
  8
0
100
AcDbSpline
 62
7
  6
BYLAYER
 70
0
 71
3
 72
19
 73
15
 74
0
 42
0.0000001
 43
0.0000001
 44
0.0000000001
 40
0.0
 40
0.0
 40
0.0
 40
0.0
 40
0.1307723242
 40
0.2571511129
 40
0.3188552547
 40
0.3797385161
 40
0.4400271435
 40
0.5000014946
 40
0.5599759075
 40
0.6202640939
 40
0.6811471796
 40
0.7428509133
 40
0.8692287029
 40
1.0
 40
1.0
 40
1.0
 40
1.0
 10
39.7490414549
 20
34.1655153987
 30
0.0
 10
39.7028889936
 20
34.2454538064
 30
0.0
 10
39.618127801
 20
34.4062508531
 30
0.0
 10
39.5342837949
 20
34.6157509838
 30
0.0
 10
39.4857398336
 20
34.7847865957
 30
0.0
 10
39.4593508385
 20
34.9112742294
 30
0.0
 10
39.4432478247
 20
35.0382613927
 30
0.0
 10
39.4378549676
 20
35.1655186647
 30
0.0
 10
39.4432463339
 20
35.29277586
 30
0.0
 10
39.459353107
 20
35.4197620804
 30
0.0
 10
39.4857386311
 20
35.5462496727
 30
0.0
 10
39.5342863101
 20
35.7152831693
 30
0.0
 10
39.6181286564
 20
35.9247818158
 30
0.0
 10
39.7028893561
 20
36.0855776188
 30
0.0
 10
39.7490414549
 20
36.1655153987
 30
0.0
  0
SPLINE
  5
297
100
AcDbEntity
  8
0
100
AcDbSpline
 62
7
  6
BYLAYER
 70
0
 71
3
 72
19
 73
15
 74
0
 42
0.0000001
 43
0.0000001
 44
0.0000000001
 40
0.0
 40
0.0
 40
0.0
 40
0.0
 40
0.1307723045
 40
0.2571511151
 40
0.3188552458
 40
0.3797385092
 40
0.4400271422
 40
0.5000014919
 40
0.5599759069
 40
0.6202640901
 40
0.681147172
 40
0.7428509158
 40
0.869228687
 40
1.0
 40
1.0
 40
1.0
 40
1.0
 10
41.5252810242
 20
36.1655153987
 30
0.0
 10
41.5714334784
 20
36.085577003
 30
0.0
 10
41.6561944588
 20
35.9247798556
 30
0.0
 10
41.7400387978
 20
35.7152798626
 30
0.0
 10
41.7885826012
 20
35.5462441896
 30
0.0
 10
41.8149715981
 20
35.4197565661
 30
0.0
 10
41.8310747655
 20
35.2927694154
 30
0.0
 10
41.8364675224
 20
35.1655121278
 30
0.0
 10
41.8310760216
 20
35.0382549456
 30
0.0
 10
41.8149693916
 20
34.9112687153
 30
0.0
 10
41.7885839307
 20
34.7847810998
 30
0.0
 10
41.740036056
 20
34.6157476722
 30
0.0
 10
41.6561940172
 20
34.4062489028
 30
0.0
 10
41.5714331285
 20
34.2454531883
 30
0.0
 10
41.5252810242
 20
34.1655153987
 30
0.0
  0
SPLINE
  5
298
100
AcDbEntity
  8
0
100
AcDbSpline
 62
7
  6
BYLAYER
 70
0
 71
3
 72
11
 73
7
 74
0
 42
0.0000001
 43
0.0000001
 44
0.0000000001
 40
0.0
 40
0.0
 40
0.0
 40
0.0
 40
0.2499913686
 40
0.4999857266
 40
0.7499885435
 40
1.0
 40
1.0
 40
1.0
 40
1.0
 10
41.8346821009
 20
38.1655153987
 30
0.0
 10
41.8346821009
 20
37.9963371004
 30
0.0
 10
41.8202483216
 20
37.6578130412
 30
0.0
 10
41.7573026904
 20
37.1536998722
 30
0.0
 10
41.6581786643
 20
36.6555389555
 30
0.0
 10
41.5722064122
 20
36.3280697109
 30
0.0
 10
41.5252810242
 20
36.1655153987
 30
0.0
  0
LINE
  5
299
100
AcDbEntity
  8
0
100
AcDbLine
 62
7
  6
BYLAYER
 10
18.2755867583
 20
10.9976527354
 11
18.6770594089
 21
10.0155153987
  0
SPLINE
  5
29A
100
AcDbEntity
  8
0
100
AcDbSpline
 62
7
  6
BYLAYER
 70
0
 71
3
 72
9
 73
5
 74
0
 42
0.0000001
 43
0.0000001
 44
0.0000000001
 40
0.0
 40
0.0
 40
0.0
 40
0.0
 40
0.2429918624
 40
1.0
 40
1.0
 40
1.0
 40
1.0
 10
18.7317866633
 20
9.9141450732
 30
0.0
 10
18.7264324235
 20
9.9218002905
 30
0.0
 10
18.7053546192
 20
9.9539686695
 30
0.0
 10
18.6880722826
 20
9.9885762571
 30
0.0
 10
18.6770594089
 20
10.0155153987
 30
0.0
  0
SPLINE
  5
29B
100
AcDbEntity
  8
0
100
AcDbSpline
 62
7
  6
BYLAYER
 70
0
 71
3
 72
9
 73
5
 74
0
 42
0.0000001
 43
0.0000001
 44
0.0000000001
 40
0.0
 40
0.0
 40
0.0
 40
0.0
 40
0.2432891913
 40
1.0
 40
1.0
 40
1.0
 40
1.0
 10
18.2755867583
 20
10.9976527354
 30
0.0
 10
18.2680171105
 20
11.0161719785
 30
0.0
 10
18.2408598094
 20
11.093875352
 30
0.0
 10
18.2289605055
 20
11.1767042253
 30
0.0
 10
18.2281916013
 20
11.2389265322
 30
0.0
  0
SPLINE
  5
29C
100
AcDbEntity
  8
0
100
AcDbSpline
 62
7
  6
BYLAYER
 70
0
 71
3
 72
14
 73
10
 74
0
 42
0.0000001
 43
0.0000001
 44
0.0000000001
 40
0.0
 40
0.0
 40
0.0
 40
0.0
 40
0.1053939692
 40
0.213953768
 40
0.327840958
 40
0.4487511701
 40
0.5772236862
 40
0.7128750644
 40
1.0
 40
1.0
 40
1.0
 40
1.0
 10
18.7102363934
 20
6.4155153987
 30
0.0
 10
18.6895460456
 20
6.4155153987
 30
0.0
 10
18.6473825003
 20
6.4208128704
 30
0.0
 10
18.586714602
 20
6.4438534306
 30
0.0
 10
18.5300209463
 20
6.4812351207
 30
0.0
 10
18.4790941604
 20
6.531734698
 30
0.0
 10
18.4352510203
 20
6.5937454629
 30
0.0
 10
18.3871269957
 20
6.6910157101
 30
0.0
 10
18.3665346194
 20
6.7727635556
 30
0.0
 10
18.3595135047
 20
6.8286913098
 30
0.0
  0
LINE
  5
29D
100
AcDbEntity
  8
0
100
AcDbLine
 62
7
  6
BYLAYER
 10
17.9909722633
 20
9.7655153987
 11
18.3595135047
 21
6.8286913098
  0
LINE
  5
29E
100
AcDbEntity
  8
0
100
AcDbLine
 62
7
  6
BYLAYER
 10
31.8148089744
 20
6.8286913098
 11
32.1833502157
 21
9.7655153987
  0
SPLINE
  5
29F
100
AcDbEntity
  8
0
100
AcDbSpline
 62
7
  6
BYLAYER
 70
0
 71
3
 72
14
 73
10
 74
0
 42
0.0000001
 43
0.0000001
 44
0.0000000001
 40
0.0
 40
0.0
 40
0.0
 40
0.0
 40
0.2871331607
 40
0.4227873895
 40
0.5512557803
 40
0.6721635692
 40
0.7860495033
 40
0.894606815
 40
1.0
 40
1.0
 40
1.0
 40
1.0
 10
31.8148089744
 20
6.8286913098
 30
0.0
 10
31.8077876639
 20
6.7727619961
 30
0.0
 10
31.7871898337
 20
6.6910139155
 30
0.0
 10
31.7390718049
 20
6.593739372
 30
0.0
 10
31.6952263218
 20
6.5317305816
 30
0.0
 10
31.6442971062
 20
6.4812361882
 30
0.0
 10
31.5876061912
 20
6.443853201
 30
0.0
 10
31.5269393231
 20
6.4208117594
 30
0.0
 10
31.4847763256
 20
6.4155153987
 30
0.0
 10
31.4640861474
 20
6.4155153987
 30
0.0
  0
LINE
  5
2A0
100
AcDbEntity
  8
0
100
AcDbLine
 62
7
  6
BYLAYER
 10
28.5438859651
 20
6.8286913098
 11
28.8627259423
 21
9.3523394875
  0
LINE
  5
2A1
100
AcDbEntity
  8
0
100
AcDbLine
 62
7
  6
BYLAYER
 10
21.3115965368
 20
9.3523394875
 11
21.630436514
 21
6.8286913098
  0
SPLINE
  5
2A2
100
AcDbEntity
  8
0
100
AcDbSpline
 62
7
  6
BYLAYER
 70
0
 71
3
 72
9
 73
5
 74
0
 42
0.0000001
 43
0.0000001
 44
0.0000000001
 40
0.0
 40
0.0
 40
0.0
 40
0.0
 40
0.2558910653
 40
1.0
 40
1.0
 40
1.0
 40
1.0
 10
17.5210848201
 20
11.2389265322
 30
0.0
 10
17.5213448047
 20
11.2178877098
 30
0.0
 10
17.5260657403
 20
11.135787483
 30
0.0
 10
17.5453305893
 20
11.0542880178
 30
0.0
 10
17.5684799771
 20
10.9976527354
 30
0.0
  0
SPLINE
  5
2A3
100
AcDbEntity
  8
0
100
AcDbSpline
 62
7
  6
BYLAYER
 70
0
 71
3
 72
9
 73
5
 74
0
 42
0.0000001
 43
0.0000001
 44
0.0000000001
 40
0.0
 40
0.0
 40
0.0
 40
0.0
 40
0.2571252285
 40
1.0
 40
1.0
 40
1.0
 40
1.0
 10
17.9699526278
 20
10.0155153987
 30
0.0
 10
17.9736930955
 20
10.0063656533
 30
0.0
 10
17.989147336
 20
9.9711640052
 30
0.0
 10
18.0083116112
 20
9.9375475873
 30
0.0
 10
18.0246798821
 20
9.9141450732
 30
0.0
  0
LINE
  5
2A4
100
AcDbEntity
  8
0
100
AcDbLine
 62
7
  6
BYLAYER
 10
17.9699526278
 20
10.0155153987
 11
17.5684799771
 21
10.9976527354
  0
LINE
  5
2A5
100
AcDbEntity
  8
0
100
AcDbLine
 62
7
  6
BYLAYER
 10
19.773727067
 20
6.8286913098
 11
19.4051858257
 21
9.7655153987
  0
SPLINE
  5
2A6
100
AcDbEntity
  8
0
100
AcDbSpline
 62
7
  6
BYLAYER
 70
0
 71
3
 72
14
 73
10
 74
0
 42
0.0000001
 43
0.0000001
 44
0.0000000001
 40
0.0
 40
0.0
 40
0.0
 40
0.0
 40
0.2871803247
 40
0.4227974283
 40
0.5512127122
 40
0.672077594
 40
0.7859570693
 40
0.8945503107
 40
1.0
 40
1.0
 40
1.0
 40
1.0
 10
21.3115965368
 20
9.3523394875
 30
0.0
 10
21.3045245885
 20
9.4083665995
 30
0.0
 10
21.2837617745
 20
9.4902366376
 30
0.0
 10
21.2353141322
 20
9.5875418334
 30
0.0
 10
21.1912355474
 20
9.6495091352
 30
0.0
 10
21.1400944299
 20
9.6999297102
 30
0.0
 10
21.0832224891
 20
9.7372331666
 30
0.0
 10
21.022408509
 20
9.7602252358
 30
0.0
 10
20.9801586389
 20
9.7655153987
 30
0.0
 10
20.9594228163
 20
9.7655153987
 30
0.0
  0
SPLINE
  5
2A7
100
AcDbEntity
  8
0
100
AcDbSpline
 62
7
  6
BYLAYER
 70
0
 71
3
 72
14
 73
10
 74
0
 42
0.0000001
 43
0.0000001
 44
0.0000000001
 40
0.0
 40
0.0
 40
0.0
 40
0.0
 40
0.1055026338
 40
0.2141071317
 40
0.3279492212
 40
0.44875829
 40
0.5771340541
 40
0.7127379537
 40
1.0
 40
1.0
 40
1.0
 40
1.0
 10
21.9840651472
 20
6.4155153987
 30
0.0
 10
21.963278241
 20
6.4155153987
 30
0.0
 10
21.9209346656
 20
6.4207610046
 30
0.0
 10
21.8599328552
 20
6.4436169241
 30
0.0
 10
21.8028312932
 20
6.4807829431
 30
0.0
 10
21.7514499225
 20
6.5311263321
 30
0.0
 10
21.7071387813
 20
6.5930873296
 30
0.0
 10
21.6584019917
 20
6.6904967018
 30
0.0
 10
21.6375377963
 20
6.772540083
 30
0.0
 10
21.630436514
 20
6.8286913098
 30
0.0
  0
SPLINE
  5
2A8
100
AcDbEntity
  8
0
100
AcDbSpline
 62
7
  6
BYLAYER
 70
0
 71
3
 72
14
 73
10
 74
0
 42
0.0000001
 43
0.0000001
 44
0.0000000001
 40
0.0
 40
0.0
 40
0.0
 40
0.0
 40
0.2871331607
 40
0.4227873895
 40
0.5512557803
 40
0.6721635692
 40
0.7860495033
 40
0.894606815
 40
1.0
 40
1.0
 40
1.0
 40
1.0
 10
19.773727067
 20
6.8286913098
 30
0.0
 10
19.7807483776
 20
6.7727619961
 30
0.0
 10
19.8013462077
 20
6.6910139155
 30
0.0
 10
19.8494642365
 20
6.593739372
 30
0.0
 10
19.8933097196
 20
6.5317305816
 30
0.0
 10
19.9442389352
 20
6.4812361882
 30
0.0
 10
20.0009298502
 20
6.443853201
 30
0.0
 10
20.0615967184
 20
6.4208117594
 30
0.0
 10
20.1037597159
 20
6.4155153987
 30
0.0
 10
20.124449894
 20
6.4155153987
 30
0.0
  0
SPLINE
  5
2A9
100
AcDbEntity
  8
0
100
AcDbSpline
 62
7
  6
BYLAYER
 70
0
 71
3
 72
14
 73
10
 74
0
 42
0.0000001
 43
0.0000001
 44
0.0000000001
 40
0.0
 40
0.0
 40
0.0
 40
0.0
 40
0.1053939692
 40
0.213953768
 40
0.327840958
 40
0.4487511701
 40
0.5772236862
 40
0.7128750644
 40
1.0
 40
1.0
 40
1.0
 40
1.0
 10
30.0498725232
 20
6.4155153987
 30
0.0
 10
30.0705628711
 20
6.4155153987
 30
0.0
 10
30.1127264164
 20
6.4208128704
 30
0.0
 10
30.1733943147
 20
6.4438534306
 30
0.0
 10
30.2300879704
 20
6.4812351207
 30
0.0
 10
30.2810147562
 20
6.531734698
 30
0.0
 10
30.3248578964
 20
6.5937454629
 30
0.0
 10
30.372981921
 20
6.6910157101
 30
0.0
 10
30.3935742973
 20
6.7727635556
 30
0.0
 10
30.400595412
 20
6.8286913098
 30
0.0
  0
SPLINE
  5
2AA
100
AcDbEntity
  8
0
100
AcDbSpline
 62
7
  6
BYLAYER
 70
0
 71
3
 72
14
 73
10
 74
0
 42
0.0000001
 43
0.0000001
 44
0.0000000001
 40
0.0
 40
0.0
 40
0.0
 40
0.0
 40
0.287272275
 40
0.4228790344
 40
0.5512488897
 40
0.6720534666
 40
0.7858938876
 40
0.8944975143
 40
1.0
 40
1.0
 40
1.0
 40
1.0
 10
28.5438859651
 20
6.8286913098
 30
0.0
 10
28.5367844757
 20
6.7725384457
 30
0.0
 10
28.5159123795
 20
6.6904957608
 30
0.0
 10
28.4671845973
 20
6.5930813354
 30
0.0
 10
28.4228722111
 20
6.5311228476
 30
0.0
 10
28.3714887289
 20
6.4807861204
 30
0.0
 10
28.314390159
 20
6.4436195545
 30
0.0
 10
28.2533900098
 20
6.4207616237
 30
0.0
 10
28.2110468868
 20
6.4155153987
 30
0.0
 10
28.1902601438
 20
6.4155153987
 30
0.0
  0
SPLINE
  5
2AB
100
AcDbEntity
  8
0
100
AcDbSpline
 62
7
  6
BYLAYER
 70
0
 71
3
 72
14
 73
10
 74
0
 42
0.0000001
 43
0.0000001
 44
0.0000000001
 40
0.0
 40
0.0
 40
0.0
 40
0.0
 40
0.1054500477
 40
0.2140444367
 40
0.3279256434
 40
0.4487937769
 40
0.5772129779
 40
0.7128279143
 40
1.0
 40
1.0
 40
1.0
 40
1.0
 10
29.2149002513
 20
9.7655153987
 30
0.0
 10
29.1941643105
 20
9.7655153987
 30
0.0
 10
29.1519140486
 20
9.7602257404
 30
0.0
 10
29.0910988544
 20
9.737234623
 30
0.0
 10
29.0342254823
 20
9.6999304076
 30
0.0
 10
28.9830859215
 20
9.6495053417
 30
0.0
 10
28.939007986
 20
9.5875366739
 30
0.0
 10
28.8905548431
 20
9.4902351641
 30
0.0
 10
28.8697977039
 20
9.4083651209
 30
0.0
 10
28.8627259423
 20
9.3523394875
 30
0.0
  0
LINE
  5
2AC
100
AcDbEntity
  8
0
100
AcDbLine
 62
7
  6
BYLAYER
 10
30.7691366534
 20
9.7655153987
 11
30.400595412
 21
6.8286913098
  0
SPLINE
  5
2AD
100
AcDbEntity
  8
0
100
AcDbSpline
 62
7
  6
BYLAYER
 70
0
 71
3
 72
9
 73
5
 74
0
 42
0.0000001
 43
0.0000001
 44
0.0000000001
 40
0.0
 40
0.0
 40
0.0
 40
0.0
 40
0.5000000214
 40
1.0
 40
1.0
 40
1.0
 40
1.0
 10
18.0246798821
 20
9.9141450732
 30
0.0
 10
18.1422756485
 20
9.9052846742
 30
0.0
 10
18.3782332778
 20
9.8972817167
 30
0.0
 10
18.6141909069
 20
9.905284675
 30
0.0
 10
18.7317866633
 20
9.9141450732
 30
0.0
  0
ENDSEC
  0
SECTION
  2
OBJECTS
  0
DICTIONARY
  5
C
100
AcDbDictionary
280
0
281
1
  3
ACAD_GROUP
350
D
  3
ACAD_MLINESTYLE
350
17
  3
ACAD_LAYOUT
350
1A
  3
ACAD_PLOTSETTINGS
350
19
  3
ACAD_PLOTSTYLENAME
350
E
  0
DICTIONARY
  5
D
102
{ACAD_REACTORS
330
C
102
}
100
AcDbDictionary
280
0
281
1
  0
ACDBDICTIONARYWDFLT
  5
E
102
{ACAD_REACTORS
330
C
102
}
100
AcDbDictionary
281
1
  3
Normal
350
F
100
AcDbDictionaryWithDefault
340
F
  0
DICTIONARY
  5
17
102
{ACAD_REACTORS
330
C
102
}
100
AcDbDictionary
280
0
281
1
  3
Standard
350
18
  0
DICTIONARY
  5
19
102
{ACAD_REACTORS
330
C
102
}
100
AcDbDictionary
281
1
  0
DICTIONARY
  5
1A
102
{ACAD_REACTORS
330
C
102
}
100
AcDbDictionary
281
1
  3
Model
350
2AE
  3
Layout1
350
2AF
  0
ACDBPLACEHOLDER
  5
F
102
{ACAD_REACTORS
330
E
102
}
  0
MLINESTYLE
  5
18
102
{ACAD_REACTORS
330
17
102
}
100
AcDbMlineStyle
  2
STANDARD
 70
0
  3

 62
256
 51
90.0
 52
90.0
 71
2
 49
0.5
 62
256
  6
BYLAYER
 49
-0.5
 62
256
  6
BYLAYER
  0
LAYOUT
  5
2AE
102
{ACAD_REACTORS
330
1A
102
}
100
AcDbPlotSettings
  1

  2
none_device
  4

  6

 40
0.0
 41
0.0
 42
0.0
 43
0.0
 44
210.0
 45
297.0
 46
0.0
 47
0.0
 48
0.0
 49
0.0
140
0.0
141
0.0
142
1.0
143
1.0
 70
1024
 72
1
 73
0
 74
0
  7

 75
0
147
1.0
148
0.0
149
0.0
100
AcDbLayout
  1
Model
 70
0
 71
0
 10
0.0
 20
0.0
 11
210.0
 21
297.0
 12
0.0
 22
0.0
 32
0.0
 14
0.0
 24
0.0
 34
0.0
 15
0.0
 25
0.0
 35
0.0
146
0.0
 13
0.0
 23
0.0
 33
0.0
 16
1.0
 26
0.0
 36
0.0
 17
0.0
 27
1.0
 37
0.0
 76
0
330
210
345
0
346
0
  0
LAYOUT
  5
2AF
102
{ACAD_REACTORS
330
1A
102
}
100
AcDbPlotSettings
  1

  2
none_device
  4

  6

 40
0.0
 41
0.0
 42
0.0
 43
0.0
 44
210.0
 45
297.0
 46
0.0
 47
0.0
 48
0.0
 49
0.0
140
0.0
141
0.0
142
1.0
143
1.0
 70
0
 72
1
 73
0
 74
0
  7

 75
0
147
1.0
148
0.0
149
0.0
100
AcDbLayout
  1
Layout1
 70
0
 71
1
 10
0.0
 20
0.0
 11
210.0
 21
297.0
 12
0.0
 22
0.0
 32
0.0
 14
0.0
 24
0.0
 34
0.0
 15
0.0
 25
0.0
 35
0.0
146
0.0
 13
0.0
 23
0.0
 33
0.0
 16
1.0
 26
0.0
 36
0.0
 17
0.0
 27
1.0
 37
0.0
 76
0
330
211
345
0
346
0
  0
ENDSEC
  0
EOF
