999
DXF file: C:\Users\sesa63760\Dev\_Creo\CAD\MCADID0004334_3D-CAD\drw0001_4.dxf
999
Pro/ENGINEER 2019471 by Parametric Technology Corporation
  0
SECTION
  2
HEADER
  9
$ACADVER
  1
AC1024
  9
$DWGCODEPAGE
  3
ANSI_1252
  9
$EXTMAX
 10
94.2249140059
 20
133.2609498083
 30
0.0
  9
$EXTMIN
 10
0.0
 20
0.0
 30
0.0
  9
$LIMMIN
 10
0.0
 20
0.0
  9
$LIMMAX
 10
94.2249140059
 20
133.2609498083
  9
$VIEWCTR
 10
47.1124570029
 20
66.6304749041
  9
$VIEWSIZE
 40
133.2609498083
  9
$CLAYER
  8
0
  9
$LTSCALE
 40
8.6866396912
  9
$CELTYPE
  6
BYLAYER
  9
$DIMSCALE
 40
1.0
  9
$DIMASZ
 40
1.1217251667
  9
$DIMEXO
 40
1.0
  9
$DIMDLI
 40
6.0016783321
  9
$DIMEXE
 40
1.0
  9
$DIMCEN
 40
1.4214501313
  9
$DIMLFAC
 40
1.0
  9
$DIMBLK
  1
_FILLED
  9
$DIMALT
 70
0
  9
$DIMALTF
 40
0.0393700787
  9
$DIMTXT
 40
1.5704152334
  9
$DIMTOL
 70
1
  9
$DIMLIM
 70
0
  9
$DIMTFAC
 40
1.0
  9
$DIMTP
 40
0.01
  9
$DIMTM
 40
0.01
  9
$DIMGAP
 40
0.625
  9
$DIMDSEP
 70
46
  9
$AUNITS
 70
0
  9
$PDMODE
 70
3
  9
$PDSIZE
 40
0.3125
  9
$HANDSEED
  5
2CF
  9
$TILEMODE
 70
1
  9
$MEASUREMENT
 70
1
  9
$INSUNITS
 70
4
  0
ENDSEC
  0
SECTION
  2
CLASSES
  0
CLASS
  1
ACDBDICTIONARYWDFLT
  2
AcDbDictionaryWithDefault
  3
AutoCAD 2000
 90
0
 91
1
280
0
281
0
  0
CLASS
  1
ACDBPLACEHOLDER
  2
AcDbPlaceHolder
  3
AutoCAD 2000
 90
0
 91
1
280
0
281
0
  0
CLASS
  1
LAYOUT
  2
AcDbLayout
  3
AutoCAD 2000
 90
0
 91
0
280
0
281
0
  0
ENDSEC
  0
SECTION
  2
TABLES
  0
TABLE
  2
VPORT
  5
8
100
AcDbSymbolTable
 70
2
  0
VPORT
  5
1F4
100
AcDbSymbolTableRecord
100
AcDbViewportTableRecord
  2
*ACTIVE
 70
0
 10
0.0
 20
0.0
 11
1.0
 21
1.0
 12
47.1124570029
 22
66.6304749041
 13
0.0
 23
0.0
 14
1.0
 24
1.0
 15
0.0
 25
0.0
 16
0.0
 26
0.0
 36
1.0
 17
0.0
 27
0.0
 37
0.0
 40
133.2609498083
 41
0.7070707071
 42
50.0
 43
0.0
 44
0.0
 50
0.0
 51
0.0
 71
0
 72
100
 73
1
 74
1
 75
0
 76
0
 77
0
 78
0
  0
ENDTAB
  0
TABLE
  2
LTYPE
  5
5
100
AcDbSymbolTable
 70
6
  0
LTYPE
  5
14
100
AcDbSymbolTableRecord
100
AcDbLinetypeTableRecord
  2
BYBLOCK
 70
0
  3

 72
65
 73
0
 40
0.0
  0
LTYPE
  5
15
100
AcDbSymbolTableRecord
100
AcDbLinetypeTableRecord
  2
BYLAYER
 70
0
  3

 72
65
 73
0
 40
0.0
  0
LTYPE
  5
16
100
AcDbSymbolTableRecord
100
AcDbLinetypeTableRecord
  2
CONTINUOUS
 70
64
  3
Solid line
 72
65
 73
0
 40
0.0
  0
LTYPE
  5
1F5
100
AcDbSymbolTableRecord
100
AcDbLinetypeTableRecord
  2
CENTER
 70
64
  3
____ _ ____ _ ____ _ ____ _ ____ _ ____ _ ____
 72
65
 73
4
 40
0.6
 49
0.375
 74
0
 49
-0.075
 74
0
 49
0.075
 74
0
 49
-0.075
 74
0
  0
LTYPE
  5
1F6
100
AcDbSymbolTableRecord
100
AcDbLinetypeTableRecord
  2
HIDDEN
 70
64
  3
- - - - - - - - - - - - - - - - - - - -
 72
65
 73
2
 40
0.2
 49
0.1
 74
0
 49
-0.1
 74
0
  0
LTYPE
  5
1F7
100
AcDbSymbolTableRecord
100
AcDbLinetypeTableRecord
  2
PHANTOM
 70
64
  3
_____ _ _ _____ _ _ _____ _ _ _____
 72
65
 73
6
 40
0.8
 49
0.45
 74
0
 49
-0.05
 74
0
 49
0.1
 74
0
 49
-0.05
 74
0
 49
0.1
 74
0
 49
-0.05
 74
0
  0
LTYPE
  5
1F8
100
AcDbSymbolTableRecord
100
AcDbLinetypeTableRecord
  2
DOT
 70
64
  3
. . . . . . . . . . . . . . . . . . . .
 72
65
 73
2
 40
0.2
 49
0.1
 74
0
 49
-0.1
 74
0
  0
LTYPE
  5
1F9
100
AcDbSymbolTableRecord
100
AcDbLinetypeTableRecord
  2
DASHED
 70
64
  3
- - - - - - - - - - - - - - - - - - - -
 72
65
 73
2
 40
0.2
 49
0.1
 74
0
 49
-0.1
 74
0
  0
ENDTAB
  0
TABLE
  2
LAYER
  5
2
100
AcDbSymbolTable
 70
36
  0
LAYER
  5
10
100
AcDbSymbolTableRecord
100
AcDbLayerTableRecord
  2
0
 70
0
 62
7
  6
CONTINUOUS
370
-3
390
F
  0
LAYER
  5
1FA
100
AcDbSymbolTableRecord
100
AcDbLayerTableRecord
  2
DEFAULT_1
 70
0
 62
7
  6
CENTER
370
-3
390
F
  0
LAYER
  5
1FB
100
AcDbSymbolTableRecord
100
AcDbLayerTableRecord
  2
DEFAULT_2
 70
0
 62
7
  6
HIDDEN
370
-3
390
F
  0
LAYER
  5
1FC
100
AcDbSymbolTableRecord
100
AcDbLayerTableRecord
  2
DEFAULT_3
 70
0
 62
7
  6
PHANTOM
370
-3
390
F
  0
LAYER
  5
1FD
100
AcDbSymbolTableRecord
100
AcDbLayerTableRecord
  2
00_COMPONENTS
 70
0
 62
7
  6
CONTINUOUS
370
-3
390
F
  0
LAYER
  5
1FE
100
AcDbSymbolTableRecord
100
AcDbLayerTableRecord
  2
01_1_DEFAULT_DATUMS
 70
0
 62
7
  6
CONTINUOUS
370
-3
390
F
  0
LAYER
  5
1FF
100
AcDbSymbolTableRecord
100
AcDbLayerTableRecord
  2
01_PLANES
 70
0
 62
7
  6
CONTINUOUS
370
-3
390
F
  0
LAYER
  5
200
100
AcDbSymbolTableRecord
100
AcDbLayerTableRecord
  2
02_COORD_SYS
 70
0
 62
7
  6
CONTINUOUS
370
-3
390
F
  0
LAYER
  5
201
100
AcDbSymbolTableRecord
100
AcDbLayerTableRecord
  2
03_AXES
 70
0
 62
7
  6
CONTINUOUS
370
-3
390
F
  0
LAYER
  5
202
100
AcDbSymbolTableRecord
100
AcDbLayerTableRecord
  2
04_POINTS
 70
0
 62
7
  6
CONTINUOUS
370
-3
390
F
  0
LAYER
  5
203
100
AcDbSymbolTableRecord
100
AcDbLayerTableRecord
  2
05_CURVES
 70
0
 62
7
  6
CONTINUOUS
370
-3
390
F
  0
LAYER
  5
204
100
AcDbSymbolTableRecord
100
AcDbLayerTableRecord
  2
06_SURFS
 70
0
 62
7
  6
CONTINUOUS
370
-3
390
F
  0
LAYER
  5
205
100
AcDbSymbolTableRecord
100
AcDbLayerTableRecord
  2
07_COSMETICS
 70
0
 62
7
  6
CONTINUOUS
370
-3
390
F
  0
LAYER
  5
206
100
AcDbSymbolTableRecord
100
AcDbLayerTableRecord
  2
10_NOTES
 70
0
 62
7
  6
CONTINUOUS
370
-3
390
F
  0
LAYER
  5
207
100
AcDbSymbolTableRecord
100
AcDbLayerTableRecord
  2
11_NOTES_PUB
 70
0
 62
7
  6
CONTINUOUS
370
-3
390
F
  0
LAYER
  5
208
100
AcDbSymbolTableRecord
100
AcDbLayerTableRecord
  2
13_REF_GTOL
 70
0
 62
7
  6
CONTINUOUS
370
-3
390
F
  0
LAYER
  5
209
100
AcDbSymbolTableRecord
100
AcDbLayerTableRecord
  2
16_MISC
 70
0
 62
7
  6
CONTINUOUS
370
-3
390
F
  0
LAYER
  5
20A
100
AcDbSymbolTableRecord
100
AcDbLayerTableRecord
  2
17_NO_PRINT
 70
0
 62
7
  6
CONTINUOUS
370
-3
390
F
  0
LAYER
  5
20B
100
AcDbSymbolTableRecord
100
AcDbLayerTableRecord
  2
18_DATUM_CAMS_JOINTS
 70
0
 62
7
  6
CONTINUOUS
370
-3
390
F
  0
LAYER
  5
20C
100
AcDbSymbolTableRecord
100
AcDbLayerTableRecord
  2
19_DATUM_FUNCTIONAL
 70
0
 62
7
  6
CONTINUOUS
370
-3
390
F
  0
LAYER
  5
20D
100
AcDbSymbolTableRecord
100
AcDbLayerTableRecord
  2
20_DATUM_KINEMATIC_SCHEME
 70
0
 62
7
  6
CONTINUOUS
370
-3
390
F
  0
ENDTAB
  0
TABLE
  2
STYLE
  5
3
100
AcDbSymbolTable
 70
1
  0
STYLE
  5
11
100
AcDbSymbolTableRecord
100
AcDbTextStyleTableRecord
  2
STANDARD
 70
0
 40
0.0
 41
1.0
 50
0.0
 71
0
 42
0.2
  3
ARIAL.TTF
  4

  0
STYLE
  5
20E
100
AcDbSymbolTableRecord
100
AcDbTextStyleTableRecord
  2
TEXTSTYLE_1
 70
0
 40
0.0
 41
0.8
 50
0.0
 71
0
 42
0.2
  3
gdt
  4

  0
ENDTAB
  0
TABLE
  2
VIEW
  5
6
100
AcDbSymbolTable
 70
0
  0
ENDTAB
  0
TABLE
  2
UCS
  5
7
100
AcDbSymbolTable
 70
0
  0
ENDTAB
  0
TABLE
  2
APPID
  5
9
100
AcDbSymbolTable
 70
1
  0
APPID
  5
20F
100
AcDbSymbolTableRecord
100
AcDbRegAppTableRecord
  2
ACAD
 70
0
  0
ENDTAB
  0
TABLE
  2
BLOCK_RECORD
  5
1
100
AcDbSymbolTable
 70
0
  0
BLOCK_RECORD
  5
210
100
AcDbSymbolTableRecord
100
AcDbBlockTableRecord
  2
*Model_Space
  0
BLOCK_RECORD
  5
211
100
AcDbSymbolTableRecord
100
AcDbBlockTableRecord
  2
*Paper_Space
  0
BLOCK_RECORD
  5
212
100
AcDbSymbolTableRecord
100
AcDbBlockTableRecord
  2
_FILLED
  0
ENDTAB
  0
TABLE
  2
DIMSTYLE
  5
A
100
AcDbSymbolTable
 70
1
100
AcDbDimStyleTable
 71
0
  0
DIMSTYLE
105
213
100
AcDbSymbolTableRecord
100
AcDbDimStyleTableRecord
  2
STANDARD
 70
0
  3

  4

 40
1.0
 41
1.1217251667
 42
1.0
 43
0.38
 44
1.0
 45
0.0
 46
0.0
 47
0.01
 48
0.01
140
1.5704152334
141
0.09
142
0.0
143
25.4
144
1.0
145
0.0
146
1.0
147
0.625
 71
1
 72
0
 73
0
 74
0
 75
0
 76
0
 77
1
 78
8
 79
2
170
0
171
1
172
0
173
0
174
0
175
0
176
0
177
0
178
0
270
2
179
2
271
2
272
2
273
2
274
2
275
0
280
0
281
0
282
0
283
1
284
8
285
0
286
0
287
3
288
0
340
11
278
46
341
212
342
212
343
212
344
212
  0
ENDTAB
  0
ENDSEC
  0
SECTION
  2
BLOCKS
  0
BLOCK
  5
20
100
AcDbEntity
  8
0
100
AcDbBlockBegin
  2
*Model_Space
 70
0
 10
0.0
 20
0.0
 30
0.0
  3
*Model_Space
  1

  0
ENDBLK
  5
21
100
AcDbEntity
  8
0
100
AcDbBlockEnd
  0
BLOCK
  5
1C
100
AcDbEntity
  8
0
100
AcDbBlockBegin
  2
*Paper_Space
 70
0
 10
0.0
 20
0.0
 30
0.0
  3
*Paper_Space
  1

  0
ENDBLK
  5
1D
100
AcDbEntity
  8
0
100
AcDbBlockEnd
  0
BLOCK
  5
214
100
AcDbEntity
  8
0
100
AcDbBlockBegin
  2
_FILLED
 70
64
 10
0.0
 20
0.0
  3
_FILLED
  1

  0
SOLID
  5
215
100
AcDbEntity
  8
0
  6
BYBLOCK
 62
0
100
AcDbTrace
 10
0.0
 20
0.0
 11
-1.0
 21
0.25
 12
-1.0
 22
-0.25
 13
-1.0
 23
-0.25
  0
ENDBLK
  5
216
100
AcDbEntity
  8
0
  6
BYBLOCK
 62
0
100
AcDbBlockEnd
  0
ENDSEC
  0
SECTION
  2
ENTITIES
  0
LINE
  5
217
100
AcDbEntity
  8
0
100
AcDbLine
 62
7
  6
BYLAYER
 10
15.0344998205
 20
120.2244629229
 11
15.3081265152
 21
120.4015154901
  0
LINE
  5
218
100
AcDbEntity
  8
0
100
AcDbLine
 62
7
  6
BYLAYER
 10
20.7283707991
 20
113.9234586053
 11
24.8333312131
 21
116.2934586053
  0
LINE
  5
219
100
AcDbEntity
  8
0
100
AcDbLine
 62
7
  6
BYLAYER
 10
39.6368603851
 20
9.5419407145
 11
29.029802041
 21
9.5419407145
  0
LINE
  5
21A
100
AcDbEntity
  8
0
100
AcDbLine
 62
7
  6
BYLAYER
 10
29.029802041
 20
11.0667953603
 11
39.6368603851
 21
11.0667953603
  0
LINE
  5
21B
100
AcDbEntity
  8
0
100
AcDbLine
 62
7
  6
BYLAYER
 10
40.2324008384
 20
11.5056146417
 11
28.4342615877
 21
11.5056146417
  0
LINE
  5
21C
100
AcDbEntity
  8
0
100
AcDbLine
 62
7
  6
BYLAYER
 10
28.4342615877
 20
11.5056146417
 11
29.029802041
 21
11.0667953603
  0
LINE
  5
21D
100
AcDbEntity
  8
0
100
AcDbLine
 62
7
  6
BYLAYER
 10
28.4342615877
 20
17.6058803661
 11
40.2324008384
 21
17.6058803661
  0
LINE
  5
21E
100
AcDbEntity
  8
0
100
AcDbLine
 62
7
  6
BYLAYER
 10
23.4283395207
 20
19.9560139251
 11
23.8308948405
 21
19.5534586053
  0
LINE
  5
21F
100
AcDbEntity
  8
0
100
AcDbLine
 62
7
  6
BYLAYER
 10
28.938291627
 20
108.1834586053
 11
24.8333312131
 21
105.8134586053
  0
LINE
  5
220
100
AcDbEntity
  8
0
100
AcDbLine
 62
7
  6
BYLAYER
 10
28.7722710342
 20
17.847315685
 11
39.8943913919
 21
17.847315685
  0
LINE
  5
221
100
AcDbEntity
  8
0
100
AcDbLine
 62
7
  6
BYLAYER
 10
44.8357675856
 20
19.5534586053
 11
23.8308948405
 21
19.5534586053
  0
LINE
  5
222
100
AcDbEntity
  8
0
100
AcDbLine
 62
7
  6
BYLAYER
 10
45.2343940851
 20
20.068520619
 11
37.1157354725
 21
20.068520619
  0
LINE
  5
223
100
AcDbEntity
  8
0
100
AcDbLine
 62
7
  6
BYLAYER
 10
31.5509269536
 20
20.068520619
 11
23.432268341
 21
20.068520619
  0
LINE
  5
224
100
AcDbEntity
  8
0
100
AcDbLine
 62
7
  6
BYLAYER
 10
40.2324008384
 20
17.6058803661
 11
39.8943913919
 21
17.847315685
  0
LINE
  5
225
100
AcDbEntity
  8
0
100
AcDbLine
 62
7
  6
BYLAYER
 10
78.8378067643
 20
120.2888456746
 11
79.1436248349
 21
120.4015154901
  0
LINE
  5
226
100
AcDbEntity
  8
0
100
AcDbLine
 62
7
  6
BYLAYER
 10
40.4333312131
 20
31.5534586053
 11
44.8550320101
 21
30.9320290845
  0
LINE
  5
227
100
AcDbEntity
  8
0
100
AcDbLine
 62
7
  6
BYLAYER
 10
22.4633312131
 20
33.4484981914
 11
20.0933312131
 21
37.5534586053
  0
LINE
  5
228
100
AcDbEntity
  8
0
100
AcDbLine
 62
7
  6
BYLAYER
 10
14.2780024879
 20
111.3879302508
 11
15.8714755927
 21
73.8527860043
  0
LINE
  5
229
100
AcDbEntity
  8
0
100
AcDbLine
 62
7
  6
BYLAYER
 10
13.4558770012
 20
113.8105332474
 11
13.4558770012
 21
118.9963839633
  0
LINE
  5
22A
100
AcDbEntity
  8
0
100
AcDbLine
 62
7
  6
BYLAYER
 10
13.954843327
 20
113.6315208826
 11
13.954843327
 21
119.175396328
  0
LINE
  5
22B
100
AcDbEntity
  8
0
100
AcDbLine
 62
7
  6
BYLAYER
 10
14.0033312131
 20
113.602808906
 11
14.0033312131
 21
113.6315208826
  0
LINE
  5
22C
100
AcDbEntity
  8
0
100
AcDbLine
 62
7
  6
BYLAYER
 10
14.0033312131
 20
119.175396328
 11
14.0033312131
 21
119.2041083047
  0
LINE
  5
22D
100
AcDbEntity
  8
0
100
AcDbLine
 62
7
  6
BYLAYER
 10
15.4847466166
 20
82.9624018859
 11
15.4847466166
 21
119.140637588
  0
LINE
  5
22E
100
AcDbEntity
  8
0
100
AcDbLine
 62
7
  6
BYLAYER
 10
16.3665055855
 20
71.0402412968
 11
16.3665055855
 21
118.990969927
  0
LINE
  5
22F
100
AcDbEntity
  8
0
100
AcDbLine
 62
7
  6
BYLAYER
 10
14.2780024879
 20
111.3879302508
 11
14.4227756521
 21
119.9295469384
  0
LINE
  5
230
100
AcDbEntity
  8
0
100
AcDbLine
 62
7
  6
BYLAYER
 10
19.3322975388
 20
31.5534586053
 11
40.6322975388
 21
31.5534586053
  0
LINE
  5
231
100
AcDbEntity
  8
0
100
AcDbLine
 62
7
  6
BYLAYER
 10
41.4310925933
 20
31.5574586053
 11
83.7205189613
 21
31.5574586053
  0
LINE
  5
232
100
AcDbEntity
  8
0
100
AcDbLine
 62
7
  6
BYLAYER
 10
41.3170958637
 20
32.0512326896
 11
81.6931718481
 21
32.0512326896
  0
LINE
  5
233
100
AcDbEntity
  8
0
100
AcDbLine
 62
7
  6
BYLAYER
 10
40.3997248031
 20
32.5608417991
 11
40.574909688
 21
32.5608417991
  0
LINE
  5
234
100
AcDbEntity
  8
0
100
AcDbLine
 62
7
  6
BYLAYER
 10
22.4633312131
 20
33.4484981914
 11
27.2033312131
 21
33.4484981914
  0
LINE
  5
235
100
AcDbEntity
  8
0
100
AcDbLine
 62
7
  6
BYLAYER
 10
72.4633312131
 20
33.4484981914
 11
77.2033312131
 21
33.4484981914
  0
LINE
  5
236
100
AcDbEntity
  8
0
100
AcDbLine
 62
7
  6
BYLAYER
 10
52.4993973384
 20
33.4490581839
 11
57.231529589
 21
33.4490581839
  0
LINE
  5
237
100
AcDbEntity
  8
0
100
AcDbLine
 62
7
  6
BYLAYER
 10
59.5010215867
 20
33.4490581839
 11
67.2269517918
 21
33.4490581839
  0
LINE
  5
238
100
AcDbEntity
  8
0
100
AcDbLine
 62
7
  6
BYLAYER
 10
61.8333312131
 20
34.8034586053
 11
65.3333312131
 21
34.8034586053
  0
LINE
  5
239
100
AcDbEntity
  8
0
100
AcDbLine
 62
7
  6
BYLAYER
 10
18.3341158456
 20
59.8611371933
 11
15.8714755927
 21
73.8527860043
  0
LINE
  5
23A
100
AcDbEntity
  8
0
100
AcDbLine
 62
7
  6
BYLAYER
 10
18.3341158456
 20
57.773193765
 11
18.7707804058
 21
54.1666679531
  0
LINE
  5
23B
100
AcDbEntity
  8
0
100
AcDbLine
 62
7
  6
BYLAYER
 10
18.3341158456
 20
59.8611371933
 11
18.3341158456
 21
57.773193765
  0
LINE
  5
23C
100
AcDbEntity
  8
0
100
AcDbLine
 62
7
  6
BYLAYER
 10
18.8333312131
 20
53.3524249311
 11
18.8333312131
 21
32.0479727169
  0
LINE
  5
23D
100
AcDbEntity
  8
0
100
AcDbLine
 62
7
  6
BYLAYER
 10
20.0566034955
 20
103.0987914421
 11
20.0566034955
 21
118.990969927
  0
LINE
  5
23E
100
AcDbEntity
  8
0
100
AcDbLine
 62
7
  6
BYLAYER
 10
20.7283707991
 20
113.9234586053
 11
20.7283707991
 21
108.1834586053
  0
LINE
  5
23F
100
AcDbEntity
  8
0
100
AcDbLine
 62
7
  6
BYLAYER
 10
22.0833312131
 20
110.0534586053
 11
22.0833312131
 21
111.5534586053
  0
LINE
  5
240
100
AcDbEntity
  8
0
100
AcDbLine
 62
7
  6
BYLAYER
 10
58.0383186351
 20
121.7705611275
 11
56.7720409309
 21
120.3553095758
  0
LINE
  5
241
100
AcDbEntity
  8
0
100
AcDbLine
 62
7
  6
BYLAYER
 10
27.2033312131
 20
41.6584190193
 11
29.5733312131
 21
37.5534586053
  0
LINE
  5
242
100
AcDbEntity
  8
0
100
AcDbLine
 62
7
  6
BYLAYER
 10
23.4283395207
 20
19.9560139251
 11
23.8333312131
 21
31.5534586053
  0
LINE
  5
243
100
AcDbEntity
  8
0
100
AcDbLine
 62
7
  6
BYLAYER
 10
76.9224199009
 20
118.8080423853
 11
78.8378067643
 21
120.2888456746
  0
LINE
  5
244
100
AcDbEntity
  8
0
100
AcDbLine
 62
7
  6
BYLAYER
 10
65.3333312131
 20
40.3034586053
 11
61.8333312131
 21
40.3034586053
  0
LINE
  5
245
100
AcDbEntity
  8
0
100
AcDbLine
 62
7
  6
BYLAYER
 10
67.2269517918
 20
41.6578590268
 11
59.5010215867
 21
41.6578590268
  0
LINE
  5
246
100
AcDbEntity
  8
0
100
AcDbLine
 62
7
  6
BYLAYER
 10
57.231529589
 20
41.6578590268
 11
52.4993973384
 21
41.6578590268
  0
LINE
  5
247
100
AcDbEntity
  8
0
100
AcDbLine
 62
7
  6
BYLAYER
 10
77.2033312131
 20
41.6584190193
 11
72.4633312131
 21
41.6584190193
  0
LINE
  5
248
100
AcDbEntity
  8
0
100
AcDbLine
 62
7
  6
BYLAYER
 10
27.2033312131
 20
41.6584190193
 11
22.4633312131
 21
41.6584190193
  0
LINE
  5
249
100
AcDbEntity
  8
0
100
AcDbLine
 62
7
  6
BYLAYER
 10
83.9723312131
 20
39.9874586053
 11
78.7092903026
 21
40.261225774
  0
LINE
  5
24A
100
AcDbEntity
  8
0
100
AcDbLine
 62
7
  6
BYLAYER
 10
79.2082566283
 20
40.4543740291
 11
82.5076236117
 21
40.2773348251
  0
LINE
  5
24B
100
AcDbEntity
  8
0
100
AcDbLine
 62
7
  6
BYLAYER
 10
25.3159518704
 20
52.6555960564
 11
39.9353600963
 21
38.0361878305
  0
LINE
  5
24C
100
AcDbEntity
  8
0
100
AcDbLine
 62
7
  6
BYLAYER
 10
27.5833312131
 20
111.5534586053
 11
27.5833312131
 21
110.0534586053
  0
LINE
  5
24D
100
AcDbEntity
  8
0
100
AcDbLine
 62
7
  6
BYLAYER
 10
28.4342615877
 20
17.6058803661
 11
28.4342615877
 21
11.5056146417
  0
LINE
  5
24E
100
AcDbEntity
  8
0
100
AcDbLine
 62
7
  6
BYLAYER
 10
28.938291627
 20
108.1834586053
 11
28.938291627
 21
113.9234586053
  0
LINE
  5
24F
100
AcDbEntity
  8
0
100
AcDbLine
 62
7
  6
BYLAYER
 10
29.029802041
 20
11.0667953603
 11
29.029802041
 21
9.5419407145
  0
LINE
  5
250
100
AcDbEntity
  8
0
100
AcDbLine
 62
7
  6
BYLAYER
 10
29.0780891048
 20
19.5534586053
 11
29.0780891048
 21
17.847315685
  0
LINE
  5
251
100
AcDbEntity
  8
0
100
AcDbLine
 62
7
  6
BYLAYER
 10
26.3563347238
 20
51.6156027187
 11
18.8333312131
 21
53.3524249311
  0
LINE
  5
252
100
AcDbEntity
  8
0
100
AcDbLine
 62
7
  6
BYLAYER
 10
18.7707804058
 20
54.1666679531
 11
25.3159518704
 21
52.6555960564
  0
LINE
  5
253
100
AcDbEntity
  8
0
100
AcDbLine
 62
7
  6
BYLAYER
 10
20.0566034955
 20
103.0987914421
 11
22.0846601744
 21
94.3266415218
  0
LINE
  5
254
100
AcDbEntity
  8
0
100
AcDbLine
 62
7
  6
BYLAYER
 10
33.9791245109
 20
119.3392000869
 11
33.9791245109
 21
119.9403941851
  0
LINE
  5
255
100
AcDbEntity
  8
0
100
AcDbLine
 62
7
  6
BYLAYER
 10
34.0326815137
 20
120.6234586053
 11
34.0326815137
 21
120.111466828
  0
LINE
  5
256
100
AcDbEntity
  8
0
100
AcDbLine
 62
7
  6
BYLAYER
 10
34.0613934904
 20
120.6719464914
 11
34.0613934904
 21
120.6234586053
  0
LINE
  5
257
100
AcDbEntity
  8
0
100
AcDbLine
 62
7
  6
BYLAYER
 10
82.6530988657
 20
119.1060181541
 11
83.8019573247
 21
120.2640775565
  0
LINE
  5
258
100
AcDbEntity
  8
0
100
AcDbLine
 62
7
  6
BYLAYER
 10
82.6530988657
 20
119.1060181541
 11
83.1554913597
 21
119.6125682624
  0
LINE
  5
259
100
AcDbEntity
  8
0
100
AcDbLine
 62
7
  6
BYLAYER
 10
40.6322975388
 20
31.5534586053
 11
38.8954753265
 21
39.076462116
  0
LINE
  5
25A
100
AcDbEntity
  8
0
100
AcDbLine
 62
7
  6
BYLAYER
 10
39.9353600963
 20
38.0361878305
 11
41.3170958637
 21
32.0512326896
  0
LINE
  5
25B
100
AcDbEntity
  8
0
100
AcDbLine
 62
7
  6
BYLAYER
 10
41.4310925933
 20
31.5574586053
 11
41.3181072392
 21
32.046851941
  0
LINE
  5
25C
100
AcDbEntity
  8
0
100
AcDbLine
 62
7
  6
BYLAYER
 10
39.5885733213
 20
17.847315685
 11
39.5885733213
 21
19.5534586053
  0
LINE
  5
25D
100
AcDbEntity
  8
0
100
AcDbLine
 62
7
  6
BYLAYER
 10
39.6052689358
 20
120.6234586053
 11
39.6052689358
 21
120.6719464914
  0
LINE
  5
25E
100
AcDbEntity
  8
0
100
AcDbLine
 62
7
  6
BYLAYER
 10
39.6339809124
 20
120.267754433
 11
39.6339809124
 21
120.6234586053
  0
LINE
  5
25F
100
AcDbEntity
  8
0
100
AcDbLine
 62
7
  6
BYLAYER
 10
39.6368603851
 20
9.5419407145
 11
39.6368603851
 21
11.0667953603
  0
LINE
  5
260
100
AcDbEntity
  8
0
100
AcDbLine
 62
7
  6
BYLAYER
 10
20.0933312131
 20
37.5534586053
 11
22.4633312131
 21
41.6584190193
  0
LINE
  5
261
100
AcDbEntity
  8
0
100
AcDbLine
 62
7
  6
BYLAYER
 10
52.4993973384
 20
33.4490581839
 11
50.1333312131
 21
37.5534586053
  0
LINE
  5
262
100
AcDbEntity
  8
0
100
AcDbLine
 62
7
  6
BYLAYER
 10
45.2383229054
 20
19.9560139251
 11
44.8550320101
 21
30.9320290845
  0
LINE
  5
263
100
AcDbEntity
  8
0
100
AcDbLine
 62
7
  6
BYLAYER
 10
40.2324008384
 20
11.5056146417
 11
40.2324008384
 21
17.6058803661
  0
LINE
  5
264
100
AcDbEntity
  8
0
100
AcDbLine
 62
7
  6
BYLAYER
 10
59.5010215867
 20
33.4490581839
 11
58.7928113179
 21
34.6723304663
  0
LINE
  5
265
100
AcDbEntity
  8
0
100
AcDbLine
 62
7
  6
BYLAYER
 10
57.231529589
 20
41.6578590268
 11
57.9236441699
 21
40.4345867443
  0
LINE
  5
266
100
AcDbEntity
  8
0
100
AcDbLine
 62
7
  6
BYLAYER
 10
40.574909688
 20
32.5608417991
 11
40.5086198882
 21
32.089165365
  0
LINE
  5
267
100
AcDbEntity
  8
0
100
AcDbLine
 62
7
  6
BYLAYER
 10
29.5733312131
 20
37.5534586053
 11
27.2033312131
 21
33.4484981914
  0
LINE
  5
268
100
AcDbEntity
  8
0
100
AcDbLine
 62
7
  6
BYLAYER
 10
72.4633312131
 20
33.4484981914
 11
70.0933312131
 21
37.5534586053
  0
LINE
  5
269
100
AcDbEntity
  8
0
100
AcDbLine
 62
7
  6
BYLAYER
 10
67.2269517918
 20
41.6578590268
 11
69.5930179172
 21
37.5534586053
  0
LINE
  5
26A
100
AcDbEntity
  8
0
100
AcDbLine
 62
7
  6
BYLAYER
 10
58.0383186351
 20
121.7705611275
 11
58.0383186351
 21
120.3617787517
  0
LINE
  5
26B
100
AcDbEntity
  8
0
100
AcDbLine
 62
7
  6
BYLAYER
 10
60.5721391011
 20
120.2842522962
 11
60.5721391011
 21
122.9034586053
  0
LINE
  5
26C
100
AcDbEntity
  8
0
100
AcDbLine
 62
7
  6
BYLAYER
 10
74.2635816836
 20
117.3850988583
 11
74.3632055205
 21
117.7296312941
  0
LINE
  5
26D
100
AcDbEntity
  8
0
100
AcDbLine
 62
7
  6
BYLAYER
 10
77.2033312131
 20
41.6584190193
 11
79.5733312131
 21
37.5534586053
  0
LINE
  5
26E
100
AcDbEntity
  8
0
100
AcDbLine
 62
7
  6
BYLAYER
 10
65.3333312131
 20
122.9034586053
 11
65.3333312131
 21
120.2842522962
  0
LINE
  5
26F
100
AcDbEntity
  8
0
100
AcDbLine
 62
7
  6
BYLAYER
 10
65.8333312131
 20
122.4034423045
 11
65.8333312131
 21
120.3215921085
  0
LINE
  5
270
100
AcDbEntity
  8
0
100
AcDbLine
 62
7
  6
BYLAYER
 10
76.7131759579
 20
118.5183200026
 11
76.4717406389
 21
117.5686744149
  0
LINE
  5
271
100
AcDbEntity
  8
0
100
AcDbLine
 62
7
  6
BYLAYER
 10
50.1333312131
 20
37.5534586053
 11
52.4993973384
 21
41.6578590268
  0
LINE
  5
272
100
AcDbEntity
  8
0
100
AcDbLine
 62
7
  6
BYLAYER
 10
14.4899852998
 20
120.1137774691
 11
15.4845233399
 21
119.1408974603
  0
LINE
  5
273
100
AcDbEntity
  8
0
100
AcDbLine
 62
7
  6
BYLAYER
 10
58.7928113179
 20
40.4345867443
 11
59.5010215867
 21
41.6578590268
  0
LINE
  5
274
100
AcDbEntity
  8
0
100
AcDbLine
 62
7
  6
BYLAYER
 10
24.8333312131
 20
105.8134586053
 11
20.7283707991
 21
108.1834586053
  0
LINE
  5
275
100
AcDbEntity
  8
0
100
AcDbLine
 62
7
  6
BYLAYER
 10
75.1199518948
 20
77.8607527721
 11
73.9127753003
 21
115.6051409616
  0
LINE
  5
276
100
AcDbEntity
  8
0
100
AcDbLine
 62
7
  6
BYLAYER
 10
57.9236441699
 20
34.6723304663
 11
57.231529589
 21
33.4490581839
  0
LINE
  5
277
100
AcDbEntity
  8
0
100
AcDbLine
 62
7
  6
BYLAYER
 10
33.077765987
 20
120.2566542987
 11
33.9791245109
 21
119.3392000869
  0
LINE
  5
278
100
AcDbEntity
  8
0
100
AcDbLine
 62
7
  6
BYLAYER
 10
78.7092903026
 20
40.261225774
 11
75.1199518948
 21
77.8607527721
  0
LINE
  5
279
100
AcDbEntity
  8
0
100
AcDbLine
 62
7
  6
BYLAYER
 10
75.6833009723
 20
77.8768484601
 11
79.2082566283
 21
40.4543740291
  0
LINE
  5
27A
100
AcDbEntity
  8
0
100
AcDbLine
 62
7
  6
BYLAYER
 10
74.4922200656
 20
115.4441840824
 11
75.6833009723
 21
77.8768484601
  0
LINE
  5
27B
100
AcDbEntity
  8
0
100
AcDbLine
 62
7
  6
BYLAYER
 10
44.8357675856
 20
19.5534586053
 11
45.2383229054
 21
19.9560139251
  0
LINE
  5
27C
100
AcDbEntity
  8
0
100
AcDbLine
 62
7
  6
BYLAYER
 10
28.7722710342
 20
17.847315685
 11
28.4342615877
 21
17.6058803661
  0
LINE
  5
27D
100
AcDbEntity
  8
0
100
AcDbLine
 62
7
  6
BYLAYER
 10
24.8333312131
 20
116.2934586053
 11
28.938291627
 21
113.9234586053
  0
LINE
  5
27E
100
AcDbEntity
  8
0
100
AcDbLine
 62
7
  6
BYLAYER
 10
81.6931718481
 20
118.7484049758
 11
81.6931718481
 21
115.9674788808
  0
LINE
  5
27F
100
AcDbEntity
  8
0
100
AcDbLine
 62
7
  6
BYLAYER
 10
81.6931718481
 20
115.8345971308
 11
81.6931718481
 21
40.3210371149
  0
LINE
  5
280
100
AcDbEntity
  8
0
100
AcDbLine
 62
7
  6
BYLAYER
 10
81.6931718481
 20
40.1061004337
 11
81.6931718481
 21
32.0512326896
  0
LINE
  5
281
100
AcDbEntity
  8
0
100
AcDbLine
 62
7
  6
BYLAYER
 10
82.5076236117
 20
40.0637589047
 11
82.5076236117
 21
116.0450694722
  0
LINE
  5
282
100
AcDbEntity
  8
0
100
AcDbLine
 62
7
  6
BYLAYER
 10
82.6528624687
 20
31.5574586053
 11
82.6528624687
 21
40.0560548397
  0
LINE
  5
283
100
AcDbEntity
  8
0
100
AcDbLine
 62
7
  6
BYLAYER
 10
82.6528624687
 20
116.0525057017
 11
82.6528624687
 21
119.1057535774
  0
LINE
  5
284
100
AcDbEntity
  8
0
100
AcDbLine
 62
7
  6
BYLAYER
 10
83.9723312131
 20
31.8510883581
 11
83.9723312131
 21
39.9874586053
  0
LINE
  5
285
100
AcDbEntity
  8
0
100
AcDbLine
 62
7
  6
BYLAYER
 10
83.9723312131
 20
116.1200625014
 11
83.9723312131
 21
119.9991232919
  0
LINE
  5
286
100
AcDbEntity
  8
0
100
AcDbLine
 62
7
  6
BYLAYER
 10
69.5930179172
 20
37.5534586053
 11
67.2269517918
 21
33.4490581839
  0
LINE
  5
287
100
AcDbEntity
  8
0
100
AcDbLine
 62
7
  6
BYLAYER
 10
70.0933312131
 20
37.5534586053
 11
72.4633312131
 21
41.6584190193
  0
LINE
  5
288
100
AcDbEntity
  8
0
100
AcDbLine
 62
7
  6
BYLAYER
 10
39.6368603851
 20
11.0667953603
 11
40.2324008384
 21
11.5056146417
  0
LINE
  5
289
100
AcDbEntity
  8
0
100
AcDbLine
 62
7
  6
BYLAYER
 10
79.5733312131
 20
37.5534586053
 11
77.2033312131
 21
33.4484981914
  0
LINE
  5
28A
100
AcDbEntity
  8
0
100
AcDbLine
 62
7
  6
BYLAYER
 10
32.7236608526
 20
120.4015154901
 11
33.077765987
 21
120.2566542987
  0
LINE
  5
28B
100
AcDbEntity
  8
0
100
AcDbLine
 62
7
  6
BYLAYER
 10
74.3632055205
 20
117.7296312941
 11
73.799856443
 21
119.0172863283
  0
LINE
  5
28C
100
AcDbEntity
  8
0
100
AcDbLine
 62
7
  6
BYLAYER
 10
74.4922200656
 20
115.4441840824
 11
82.5076236117
 21
115.8787541541
  0
LINE
  5
28D
100
AcDbEntity
  8
0
100
AcDbLine
 62
7
  6
BYLAYER
 10
83.9723312131
 20
116.1200625014
 11
82.5076236117
 21
116.0450694722
  0
LINE
  5
28E
100
AcDbEntity
  8
0
100
AcDbLine
 62
7
  6
BYLAYER
 10
73.9127753003
 20
115.6051409616
 11
82.5076236117
 21
116.0054084073
  0
LINE
  5
28F
100
AcDbEntity
  8
0
100
AcDbLine
 62
7
  6
BYLAYER
 10
14.0033312131
 20
113.602808906
 11
14.3155428041
 21
113.602808906
  0
LINE
  5
290
100
AcDbEntity
  8
0
100
AcDbLine
 62
7
  6
BYLAYER
 10
13.954843327
 20
113.6315208826
 11
14.0033312131
 21
113.6315208826
  0
LINE
  5
291
100
AcDbEntity
  8
0
100
AcDbLine
 62
7
  6
BYLAYER
 10
58.070524237
 20
120.3619432841
 11
34.2769786431
 21
120.2403865105
  0
LINE
  5
292
100
AcDbEntity
  8
0
100
AcDbLine
 62
7
  6
BYLAYER
 10
65.8333312131
 20
120.4016020128
 11
67.5281661985
 21
120.4102606077
  0
LINE
  5
293
100
AcDbEntity
  8
0
100
AcDbLine
 62
7
  6
BYLAYER
 10
74.6368322152
 20
117.1984735925
 11
75.9727743132
 21
117.1984735925
  0
LINE
  5
294
100
AcDbEntity
  8
0
100
AcDbLine
 62
7
  6
BYLAYER
 10
81.6931718481
 20
118.7484049758
 11
76.8445385361
 21
118.7484049758
  0
LINE
  5
295
100
AcDbEntity
  8
0
100
AcDbLine
 62
7
  6
BYLAYER
 10
73.9174920348
 20
118.7484049758
 11
20.0566034955
 21
118.7484049758
  0
LINE
  5
296
100
AcDbEntity
  8
0
100
AcDbLine
 62
7
  6
BYLAYER
 10
20.0566034955
 20
118.9713997235
 11
73.8199318326
 21
118.9713997235
  0
LINE
  5
297
100
AcDbEntity
  8
0
100
AcDbLine
 62
7
  6
BYLAYER
 10
77.1337190667
 20
118.9713997235
 11
82.109292578
 21
118.9713997235
  0
LINE
  5
298
100
AcDbEntity
  8
0
100
AcDbLine
 62
7
  6
BYLAYER
 10
16.3665055855
 20
118.990969927
 11
20.0566034955
 21
118.990969927
  0
LINE
  5
299
100
AcDbEntity
  8
0
100
AcDbLine
 62
7
  6
BYLAYER
 10
14.0033312131
 20
119.175396328
 11
13.954843327
 21
119.175396328
  0
LINE
  5
29A
100
AcDbEntity
  8
0
100
AcDbLine
 62
7
  6
BYLAYER
 10
14.410480082
 20
119.2041083047
 11
14.0033312131
 21
119.2041083047
  0
LINE
  5
29B
100
AcDbEntity
  8
0
100
AcDbLine
 62
7
  6
BYLAYER
 10
73.0594547984
 20
119.3392000869
 11
68.8101931856
 21
119.3392000869
  0
LINE
  5
29C
100
AcDbEntity
  8
0
100
AcDbLine
 62
7
  6
BYLAYER
 10
15.0344998205
 20
120.2244629229
 11
14.7227325703
 21
120.2244629229
  0
LINE
  5
29D
100
AcDbEntity
  8
0
100
AcDbLine
 62
7
  6
BYLAYER
 10
60.5721391011
 20
120.2842522962
 11
65.3333312131
 21
120.2842522962
  0
LINE
  5
29E
100
AcDbEntity
  8
0
100
AcDbLine
 62
7
  6
BYLAYER
 10
67.5281661985
 20
120.4102606077
 11
68.8101931856
 21
119.3392000869
  0
LINE
  5
29F
100
AcDbEntity
  8
0
100
AcDbLine
 62
7
  6
BYLAYER
 10
80.9624375707
 20
120.4015154901
 11
79.1436248349
 21
120.4015154901
  0
LINE
  5
2A0
100
AcDbEntity
  8
0
100
AcDbLine
 62
7
  6
BYLAYER
 10
32.7236608526
 20
120.4015154901
 11
15.3081265152
 21
120.4015154901
  0
LINE
  5
2A1
100
AcDbEntity
  8
0
100
AcDbLine
 62
7
  6
BYLAYER
 10
34.0326815137
 20
120.6234586053
 11
34.0613934904
 21
120.6234586053
  0
LINE
  5
2A2
100
AcDbEntity
  8
0
100
AcDbLine
 62
7
  6
BYLAYER
 10
39.6052689358
 20
120.6234586053
 11
39.6339809124
 21
120.6234586053
  0
LINE
  5
2A3
100
AcDbEntity
  8
0
100
AcDbLine
 62
7
  6
BYLAYER
 10
34.0613934904
 20
120.6719464914
 11
39.6052689358
 21
120.6719464914
  0
LINE
  5
2A4
100
AcDbEntity
  8
0
100
AcDbLine
 62
7
  6
BYLAYER
 10
34.2404058551
 20
121.1709128172
 11
39.426256571
 21
121.1709128172
  0
LINE
  5
2A5
100
AcDbEntity
  8
0
100
AcDbLine
 62
7
  6
BYLAYER
 10
65.3333312131
 20
122.9034586053
 11
60.5721391011
 21
122.9034586053
  0
LINE
  5
2A6
100
AcDbEntity
  8
0
100
AcDbLine
 62
7
  6
BYLAYER
 10
80.9624375707
 20
120.4015154901
 11
83.6665131424
 21
120.3049413625
  0
LINE
  5
2A7
100
AcDbEntity
  8
0
100
AcDbLine
 62
7
  6
BYLAYER
 10
74.6368322152
 20
117.1984735925
 11
74.2635816836
 21
117.3850988583
  0
ARC
  5
2A8
100
AcDbEntity
  8
0
100
AcDbCircle
 62
7
  6
BYLAYER
 10
-165.6302600493
 20
5.3703072643
 40
207.7260712552
100
AcDbArc
 50
9.1886891228
 51
25.3558328689
  0
ARC
  5
2A9
100
AcDbEntity
  8
0
100
AcDbCircle
 62
7
  6
BYLAYER
 10
60.5721391011
 20
119.5034586053
 40
3.4
100
AcDbArc
 50
90.0
 51
138.1798301199
  0
CIRCLE
  5
2AA
100
AcDbEntity
  8
0
100
AcDbCircle
 62
7
  6
BYLAYER
 10
24.8333312131
 20
37.5534586053
 40
2.75
  0
ARC
  5
2AB
100
AcDbEntity
  8
0
100
AcDbCircle
 62
7
  6
BYLAYER
 10
24.8333312131
 20
110.0534586053
 40
2.75
100
AcDbArc
 50
180.0
 51
360.0
  0
ARC
  5
2AC
100
AcDbEntity
  8
0
100
AcDbCircle
 62
7
  6
BYLAYER
 10
24.8333312131
 20
111.5534586053
 40
2.75
100
AcDbArc
 50
0.0
 51
180.0
  0
CIRCLE
  5
2AD
100
AcDbEntity
  8
0
100
AcDbCircle
 62
7
  6
BYLAYER
 10
74.8333312131
 20
37.5534586053
 40
2.75
  0
CIRCLE
  5
2AE
100
AcDbEntity
  8
0
100
AcDbCircle
 62
7
  6
BYLAYER
 10
54.8333312131
 20
37.5534586053
 40
2.75
  0
ARC
  5
2AF
100
AcDbEntity
  8
0
100
AcDbCircle
 62
7
  6
BYLAYER
 10
65.3333312131
 20
37.5534586053
 40
2.75
100
AcDbArc
 50
270.0
 51
90.0
  0
ARC
  5
2B0
100
AcDbEntity
  8
0
100
AcDbCircle
 62
7
  6
BYLAYER
 10
61.8333312131
 20
37.5534586053
 40
2.75
100
AcDbArc
 50
90.0
 51
270.0
  0
ARC
  5
2B1
100
AcDbEntity
  8
0
100
AcDbCircle
 62
7
  6
BYLAYER
 10
73.0355719254
 20
118.2718507084
 40
1.0676165451
100
AcDbArc
 50
44.2846977715
 51
88.7181708766
  0
ARC
  5
2B2
100
AcDbEntity
  8
0
100
AcDbCircle
 62
7
  6
BYLAYER
 10
58.3582277439
 20
40.7811083334
 40
0.5558237981
100
AcDbArc
 50
218.5676208296
 51
321.4323791703
  0
ARC
  5
2B3
100
AcDbEntity
  8
0
100
AcDbCircle
 62
7
  6
BYLAYER
 10
58.3582277439
 20
34.3258088772
 40
0.5558237981
100
AcDbArc
 50
38.5676208297
 51
141.4323791704
  0
ARC
  5
2B4
100
AcDbEntity
  8
0
100
AcDbCircle
 62
7
  6
BYLAYER
 10
75.956862366
 20
117.7412804564
 40
0.5430400368
100
AcDbArc
 50
271.6790989007
 51
341.4669630564
  0
ARC
  5
2B5
100
AcDbEntity
  8
0
100
AcDbCircle
 62
7
  6
BYLAYER
 10
65.3333312131
 20
122.4034586053
 40
0.5
100
AcDbArc
 50
0.0
 51
90.0
  0
ARC
  5
2B6
100
AcDbEntity
  8
0
100
AcDbCircle
 62
7
  6
BYLAYER
 10
19.3279640844
 20
32.0480914766
 40
0.4946518535
100
AcDbArc
 50
179.4980473144
 51
270.5019526856
  0
ARC
  5
2B7
100
AcDbEntity
  8
0
100
AcDbCircle
 62
7
  6
BYLAYER
 10
77.1618432588
 20
118.4147040115
 40
0.4604765147
100
AcDbArc
 50
121.3286928678
 51
166.9960012236
  0
ARC
  5
2B8
100
AcDbEntity
  8
0
100
AcDbCircle
 62
7
  6
BYLAYER
 10
83.6400702266
 20
119.972680376
 40
0.3333115524
100
AcDbArc
 50
4.5502811376
 51
85.4497188623
  0
ARC
  5
2B9
100
AcDbEntity
  8
0
100
AcDbCircle
 62
7
  6
BYLAYER
 10
83.6705370644
 20
31.8551122801
 40
0.3018209736
100
AcDbArc
 50
279.5321576024
 51
359.2361015395
  0
ARC
  5
2BA
100
AcDbEntity
  8
0
100
AcDbCircle
 62
7
  6
BYLAYER
 10
34.2791245109
 20
119.9403941851
 40
0.3
100
AcDbArc
 50
90.4098340653
 51
180.0
  0
ARC
  5
2BB
100
AcDbEntity
  8
0
100
AcDbCircle
 62
7
  6
BYLAYER
 10
14.7227325703
 20
119.9244629229
 40
0.3
100
AcDbArc
 50
90.0
 51
179.0289780689
  0
SPLINE
  5
2BC
100
AcDbEntity
  8
0
100
AcDbSpline
 62
7
  6
BYLAYER
 70
0
 71
3
 72
12
 73
8
 74
0
 42
0.0000001
 43
0.0000001
 44
0.0000000001
 40
0.0
 40
0.0
 40
0.0
 40
0.0
 40
0.1250006456
 40
0.2500015661
 40
0.5000004048
 40
0.749999911
 40
1.0
 40
1.0
 40
1.0
 40
1.0
 10
31.5509269536
 20
20.068520619
 30
0.0
 10
31.459621376
 20
20.5437132272
 30
0.0
 10
31.2853330878
 20
21.4957092563
 30
0.0
 10
30.9626071702
 20
23.4041855099
 30
0.0
 10
30.5977880507
 20
25.7960863777
 30
0.0
 10
30.2026241614
 20
28.6724216343
 30
0.0
 10
29.9604924791
 20
30.5927828249
 30
0.0
 10
29.8435654512
 20
31.5534586053
 30
0.0
  0
SPLINE
  5
2BD
100
AcDbEntity
  8
0
100
AcDbSpline
 62
7
  6
BYLAYER
 70
0
 71
3
 72
11
 73
7
 74
0
 42
0.0000001
 43
0.0000001
 44
0.0000000001
 40
0.0
 40
0.0
 40
0.0
 40
0.0
 40
0.2500054226
 40
0.5
 40
0.7499945774
 40
1.0
 40
1.0
 40
1.0
 40
1.0
 10
37.1157354725
 20
20.068520619
 30
0.0
 10
36.6612982353
 20
19.9552850901
 30
0.0
 10
35.7391471054
 20
19.777488224
 30
0.0
 10
34.3333312131
 20
19.6856907763
 30
0.0
 10
32.9275153207
 20
19.777488224
 30
0.0
 10
32.0053641909
 20
19.9552850901
 30
0.0
 10
31.5509269536
 20
20.068520619
 30
0.0
  0
SPLINE
  5
2BE
100
AcDbEntity
  8
0
100
AcDbSpline
 62
7
  6
BYLAYER
 70
0
 71
3
 72
12
 73
8
 74
0
 42
0.0000001
 43
0.0000001
 44
0.0000000001
 40
0.0
 40
0.0
 40
0.0
 40
0.0
 40
0.1250006457
 40
0.2500015655
 40
0.5000004045
 40
0.7499999106
 40
1.0
 40
1.0
 40
1.0
 40
1.0
 10
37.1157354725
 20
20.068520619
 30
0.0
 10
37.2070410519
 20
20.5437132363
 30
0.0
 10
37.3813332082
 20
21.4957085604
 30
0.0
 10
37.7040613543
 20
23.4041845008
 30
0.0
 10
38.0688797514
 20
25.7960855426
 30
0.0
 10
38.4640391856
 20
28.6724214709
 30
0.0
 10
38.7061699446
 20
30.592782805
 30
0.0
 10
38.8230969749
 20
31.5534586053
 30
0.0
  0
SPLINE
  5
2BF
100
AcDbEntity
  8
0
100
AcDbSpline
 62
7
  6
BYLAYER
 70
0
 71
3
 72
12
 73
8
 74
0
 42
0.0000001
 43
0.0000001
 44
0.0000000001
 40
0.0
 40
0.0
 40
0.0
 40
0.0
 40
0.2499712063
 40
0.4999241767
 40
0.7498684178
 40
0.8749302426
 40
1.0
 40
1.0
 40
1.0
 40
1.0
 10
13.4560524265
 20
118.9964469302
 30
0.0
 10
13.3289907072
 20
118.8067122097
 30
0.0
 10
13.1037451861
 20
118.4069499771
 30
0.0
 10
12.8628163028
 20
117.7629781067
 30
0.0
 10
12.7466747788
 20
117.2015157372
 30
0.0
 10
12.7049194707
 20
116.7463007662
 30
0.0
 10
12.6992342581
 20
116.517710724
 30
0.0
 10
12.6992342581
 20
116.4034586053
 30
0.0
  0
SPLINE
  5
2C0
100
AcDbEntity
  8
0
100
AcDbSpline
 62
7
  6
BYLAYER
 70
0
 71
3
 72
12
 73
8
 74
0
 42
0.0000001
 43
0.0000001
 44
0.0000000001
 40
0.0
 40
0.0
 40
0.0
 40
0.0
 40
0.1250692379
 40
0.2501302086
 40
0.5000728962
 40
0.7500261549
 40
1.0
 40
1.0
 40
1.0
 40
1.0
 10
12.6992342581
 20
116.4034586053
 30
0.0
 10
12.6992342581
 20
116.2892069691
 30
0.0
 10
12.7049197932
 20
116.0606182188
 30
0.0
 10
12.7466739798
 20
115.6054058528
 30
0.0
 10
12.8628152625
 20
115.043945569
 30
0.0
 10
13.1037410539
 20
114.3999712014
 30
0.0
 10
13.3289889845
 20
114.0002071308
 30
0.0
 10
13.4560520362
 20
113.8104704205
 30
0.0
  0
LINE
  5
2C1
100
AcDbEntity
  8
0
100
AcDbLine
 62
7
  6
BYLAYER
 10
13.4560520362
 20
113.8104704205
 11
13.954843327
 21
113.6315208826
  0
LINE
  5
2C2
100
AcDbEntity
  8
0
100
AcDbLine
 62
7
  6
BYLAYER
 10
13.954843327
 20
119.175396328
 11
13.4560524265
 21
118.9964469302
  0
SPLINE
  5
2C3
100
AcDbEntity
  8
0
100
AcDbSpline
 62
7
  6
BYLAYER
 70
0
 71
3
 72
12
 73
8
 74
0
 42
0.0000001
 43
0.0000001
 44
0.0000000001
 40
0.0
 40
0.0
 40
0.0
 40
0.0
 40
0.2499712063
 40
0.4999241767
 40
0.7498684178
 40
0.8749302426
 40
1.0
 40
1.0
 40
1.0
 40
1.0
 10
39.4263195379
 20
121.1707373919
 30
0.0
 10
39.2365848174
 20
121.2977991112
 30
0.0
 10
38.8368225848
 20
121.5230446322
 30
0.0
 10
38.1928507144
 20
121.7639735156
 30
0.0
 10
37.6313883449
 20
121.8801150396
 30
0.0
 10
37.176173374
 20
121.9218703476
 30
0.0
 10
36.9475833318
 20
121.9275555603
 30
0.0
 10
36.8333312131
 20
121.9275555603
 30
0.0
  0
SPLINE
  5
2C4
100
AcDbEntity
  8
0
100
AcDbSpline
 62
7
  6
BYLAYER
 70
0
 71
3
 72
12
 73
8
 74
0
 42
0.0000001
 43
0.0000001
 44
0.0000000001
 40
0.0
 40
0.0
 40
0.0
 40
0.0
 40
0.1250692379
 40
0.2501302086
 40
0.5000728962
 40
0.7500261549
 40
1.0
 40
1.0
 40
1.0
 40
1.0
 10
36.8333312131
 20
121.9275555603
 30
0.0
 10
36.7190795768
 20
121.9275555603
 30
0.0
 10
36.4904908266
 20
121.9218700252
 30
0.0
 10
36.0352784606
 20
121.8801158386
 30
0.0
 10
35.4738181767
 20
121.7639745559
 30
0.0
 10
34.8298438091
 20
121.5230487645
 30
0.0
 10
34.4300797385
 20
121.2978008339
 30
0.0
 10
34.2403430283
 20
121.1707377822
 30
0.0
  0
LINE
  5
2C5
100
AcDbEntity
  8
0
100
AcDbLine
 62
7
  6
BYLAYER
 10
34.2403430283
 20
121.1707377822
 11
34.0613934904
 21
120.6719464914
  0
LINE
  5
2C6
100
AcDbEntity
  8
0
100
AcDbLine
 62
7
  6
BYLAYER
 10
39.6052689358
 20
120.6719464914
 11
39.4263195379
 21
121.1707373919
  0
SPLINE
  5
2C7
100
AcDbEntity
  8
0
100
AcDbSpline
 62
7
  6
BYLAYER
 70
0
 71
3
 72
9
 73
5
 74
0
 42
0.0000001
 43
0.0000001
 44
0.0000000001
 40
0.0
 40
0.0
 40
0.0
 40
0.0
 40
0.4237920196
 40
1.0
 40
1.0
 40
1.0
 40
1.0
 10
58.070300583
 20
120.3619421415
 30
0.0
 10
58.4230982327
 20
120.3375732596
 30
0.0
 10
59.2567946283
 20
120.2978789839
 30
0.0
 10
60.0913155313
 20
120.2842522962
 30
0.0
 10
60.5721391011
 20
120.2842522962
 30
0.0
  0
SPLINE
  5
2C8
100
AcDbEntity
  8
0
100
AcDbSpline
 62
7
  6
BYLAYER
 70
0
 71
3
 72
16
 73
12
 74
0
 42
0.0000001
 43
0.0000001
 44
0.0000000001
 40
0.0
 40
0.0
 40
0.0
 40
0.0
 40
0.2218810143
 40
0.4272706076
 40
0.6043224026
 40
0.7479925577
 40
0.8576338466
 40
0.9344299107
 40
0.9804897589
 40
0.9929722841
 40
1.0
 40
1.0
 40
1.0
 40
1.0
 10
65.3333312131
 20
120.2842522962
 30
0.0
 10
65.3706431233
 20
120.2842522962
 30
0.0
 10
65.4424961742
 20
120.2848798913
 30
0.0
 10
65.5440871251
 20
120.2875545133
 30
0.0
 10
65.6324820148
 20
120.2916158533
 30
0.0
 10
65.7046614461
 20
120.2966146642
 30
0.0
 10
65.759973472
 20
120.3021692165
 30
0.0
 10
65.798532343
 20
120.3078111397
 30
0.0
 10
65.820976231
 20
120.3131339708
 30
0.0
 10
65.830915747
 20
120.3175372623
 30
0.0
 10
65.8333312131
 20
120.3204094223
 30
0.0
 10
65.8333312131
 20
120.3215912156
 30
0.0
  0
SPLINE
  5
2C9
100
AcDbEntity
  8
0
100
AcDbSpline
 62
7
  6
BYLAYER
 70
0
 71
3
 72
11
 73
7
 74
0
 42
0.0000001
 43
0.0000001
 44
0.0000000001
 40
0.0
 40
0.0
 40
0.0
 40
0.0
 40
0.254793536
 40
0.5066429158
 40
0.7548570302
 40
1.0
 40
1.0
 40
1.0
 40
1.0
 10
81.6931718481
 20
118.7484049758
 30
0.0
 10
81.7343558185
 20
118.7490475023
 30
0.0
 10
81.8164672767
 20
118.7627384207
 30
0.0
 10
81.9283176186
 20
118.8140786246
 30
0.0
 10
82.026014277
 20
118.8855706602
 30
0.0
 10
82.0827977355
 20
118.941929847
 30
0.0
 10
82.109292578
 20
118.9713997235
 30
0.0
  0
SPLINE
  5
2CA
100
AcDbEntity
  8
0
100
AcDbSpline
 62
7
  6
BYLAYER
 70
0
 71
3
 72
12
 73
8
 74
0
 42
0.0000001
 43
0.0000001
 44
0.0000000001
 40
0.0
 40
0.0
 40
0.0
 40
0.0
 40
0.3505445905
 40
0.6418713563
 40
0.8597852264
 40
0.9393752926
 40
1.0
 40
1.0
 40
1.0
 40
1.0
 10
82.1091959371
 20
118.9713997235
 30
0.0
 10
82.175071328
 20
118.9774904711
 30
0.0
 10
82.2955047698
 20
118.9916859716
 30
0.0
 10
82.4549656869
 20
119.021750669
 30
0.0
 10
82.5622381632
 20
119.0529969172
 30
0.0
 10
82.6231961857
 20
119.0824104821
 30
0.0
 10
82.6450410501
 20
119.0978955597
 30
0.0
 10
82.6530988657
 20
119.1060181541
 30
0.0
  0
SPLINE
  5
2CB
100
AcDbEntity
  8
0
100
AcDbSpline
 62
7
  6
BYLAYER
 70
0
 71
3
 72
13
 73
9
 74
0
 42
0.0000001
 43
0.0000001
 44
0.0000000001
 40
0.0
 40
0.0
 40
0.0
 40
0.0
 40
0.0552002113
 40
0.1333725537
 40
0.2347438733
 40
0.357471613
 40
0.6558182689
 40
1.0
 40
1.0
 40
1.0
 40
1.0
 10
15.4845233399
 20
119.1408974603
 30
0.0
 10
15.4964158855
 20
119.1292705558
 30
0.0
 10
15.5314394342
 20
119.1081251316
 30
0.0
 10
15.5973408447
 20
119.0825151314
 30
0.0
 10
15.6854462036
 20
119.0586936572
 30
0.0
 10
15.8399310213
 20
119.0282457235
 30
0.0
 10
16.0693226975
 20
119.0017403995
 30
0.0
 10
16.2628236986
 20
118.9926957107
 30
0.0
 10
16.3665114986
 20
118.9909824133
 30
0.0
  0
SPLINE
  5
2CC
100
AcDbEntity
  8
0
100
AcDbSpline
 62
7
  6
BYLAYER
 70
0
 71
3
 72
20
 73
16
 74
0
 42
0.0000001
 43
0.0000001
 44
0.0000000001
 40
0.0
 40
0.0
 40
0.0
 40
0.0
 40
0.0828410403
 40
0.1850324944
 40
0.3028218412
 40
0.431590946
 40
0.5679994787
 40
0.7094536626
 40
0.8539905875
 40
0.8904130587
 40
0.9269037541
 40
0.9451674442
 40
0.9634468318
 40
0.9817198266
 40
1.0
 40
1.0
 40
1.0
 40
1.0
 10
82.5391673274
 20
31.5574586053
 30
0.0
 10
82.5118595092
 20
31.5570463162
 30
0.0
 10
82.4510846294
 20
31.5703547368
 30
0.0
 10
82.3592508542
 20
31.6094238868
 30
0.0
 10
82.2577512134
 20
31.6638004915
 30
0.0
 10
82.1499782814
 20
31.7295892624
 30
0.0
 10
82.0376884773
 20
31.8028518533
 30
0.0
 10
81.9226099573
 20
31.8812752465
 30
0.0
 10
81.8354387222
 20
31.9421005458
 30
0.0
 10
81.7768416783
 20
31.983399933
 30
0.0
 10
81.7522236359
 20
32.0006484259
 30
0.0
 10
81.7326466808
 20
32.0146664336
 30
0.0
 10
81.7175818447
 20
32.0246618204
 30
0.0
 10
81.7032349212
 20
32.0356715994
 30
0.0
 10
81.6940239997
 20
32.0434687765
 30
0.0
 10
81.6891005602
 20
32.0469443291
 30
0.0
  0
ENDSEC
  0
SECTION
  2
OBJECTS
  0
DICTIONARY
  5
C
100
AcDbDictionary
280
0
281
1
  3
ACAD_GROUP
350
D
  3
ACAD_MLINESTYLE
350
17
  3
ACAD_LAYOUT
350
1A
  3
ACAD_PLOTSETTINGS
350
19
  3
ACAD_PLOTSTYLENAME
350
E
  0
DICTIONARY
  5
D
102
{ACAD_REACTORS
330
C
102
}
100
AcDbDictionary
280
0
281
1
  0
ACDBDICTIONARYWDFLT
  5
E
102
{ACAD_REACTORS
330
C
102
}
100
AcDbDictionary
281
1
  3
Normal
350
F
100
AcDbDictionaryWithDefault
340
F
  0
DICTIONARY
  5
17
102
{ACAD_REACTORS
330
C
102
}
100
AcDbDictionary
280
0
281
1
  3
Standard
350
18
  0
DICTIONARY
  5
19
102
{ACAD_REACTORS
330
C
102
}
100
AcDbDictionary
281
1
  0
DICTIONARY
  5
1A
102
{ACAD_REACTORS
330
C
102
}
100
AcDbDictionary
281
1
  3
Model
350
2CD
  3
Layout1
350
2CE
  0
ACDBPLACEHOLDER
  5
F
102
{ACAD_REACTORS
330
E
102
}
  0
MLINESTYLE
  5
18
102
{ACAD_REACTORS
330
17
102
}
100
AcDbMlineStyle
  2
STANDARD
 70
0
  3

 62
256
 51
90.0
 52
90.0
 71
2
 49
0.5
 62
256
  6
BYLAYER
 49
-0.5
 62
256
  6
BYLAYER
  0
LAYOUT
  5
2CD
102
{ACAD_REACTORS
330
1A
102
}
100
AcDbPlotSettings
  1

  2
none_device
  4

  6

 40
0.0
 41
0.0
 42
0.0
 43
0.0
 44
210.0
 45
297.0
 46
0.0
 47
0.0
 48
0.0
 49
0.0
140
0.0
141
0.0
142
1.0
143
1.0
 70
1024
 72
1
 73
0
 74
0
  7

 75
0
147
1.0
148
0.0
149
0.0
100
AcDbLayout
  1
Model
 70
0
 71
0
 10
0.0
 20
0.0
 11
210.0
 21
297.0
 12
0.0
 22
0.0
 32
0.0
 14
0.0
 24
0.0
 34
0.0
 15
0.0
 25
0.0
 35
0.0
146
0.0
 13
0.0
 23
0.0
 33
0.0
 16
1.0
 26
0.0
 36
0.0
 17
0.0
 27
1.0
 37
0.0
 76
0
330
210
345
0
346
0
  0
LAYOUT
  5
2CE
102
{ACAD_REACTORS
330
1A
102
}
100
AcDbPlotSettings
  1

  2
none_device
  4

  6

 40
0.0
 41
0.0
 42
0.0
 43
0.0
 44
210.0
 45
297.0
 46
0.0
 47
0.0
 48
0.0
 49
0.0
140
0.0
141
0.0
142
1.0
143
1.0
 70
0
 72
1
 73
0
 74
0
  7

 75
0
147
1.0
148
0.0
149
0.0
100
AcDbLayout
  1
Layout1
 70
0
 71
1
 10
0.0
 20
0.0
 11
210.0
 21
297.0
 12
0.0
 22
0.0
 32
0.0
 14
0.0
 24
0.0
 34
0.0
 15
0.0
 25
0.0
 35
0.0
146
0.0
 13
0.0
 23
0.0
 33
0.0
 16
1.0
 26
0.0
 36
0.0
 17
0.0
 27
1.0
 37
0.0
 76
0
330
211
345
0
346
0
  0
ENDSEC
  0
EOF
