999
DXF file: C:\Users\sesa63760\Dev\_Creo\CAD\MCADID0004138_3D-CAD\drw0001_5.dxf
999
Pro/ENGINEER 2019471 by Parametric Technology Corporation
  0
SECTION
  2
HEADER
  9
$ACADVER
  1
AC1024
  9
$DWGCODEPAGE
  3
ANSI_1252
  9
$EXTMAX
 10
81.7411717712
 20
115.605371505
 30
0.0
  9
$EXTMIN
 10
0.0
 20
0.0
 30
0.0
  9
$LIMMIN
 10
0.0
 20
0.0
  9
$LIMMAX
 10
81.7411717712
 20
115.605371505
  9
$VIEWCTR
 10
40.8705858856
 20
57.8026857525
  9
$VIEWSIZE
 40
115.605371505
  9
$CLAYER
  8
0
  9
$LTSCALE
 40
7.53575755
  9
$CELTYPE
  6
BYLAYER
  9
$DIMSCALE
 40
1.0
  9
$DIMASZ
 40
0.9731091878
  9
$DIMEXO
 40
1.0
  9
$DIMDLI
 40
5.2065233982
  9
$DIMEXE
 40
1.0
  9
$DIMCEN
 40
1.2331239627
  9
$DIMLFAC
 40
1.0
  9
$DIMBLK
  1
_FILLED
  9
$DIMALT
 70
0
  9
$DIMALTF
 40
0.0393700787
  9
$DIMTXT
 40
1.3623528629
  9
$DIMTOL
 70
1
  9
$DIMLIM
 70
0
  9
$DIMTFAC
 40
1.0
  9
$DIMTP
 40
0.01
  9
$DIMTM
 40
0.01
  9
$DIMGAP
 40
0.625
  9
$DIMDSEP
 70
46
  9
$AUNITS
 70
0
  9
$PDMODE
 70
3
  9
$PDSIZE
 40
0.3125
  9
$HANDSEED
  5
29D
  9
$TILEMODE
 70
1
  9
$MEASUREMENT
 70
1
  9
$INSUNITS
 70
4
  0
ENDSEC
  0
SECTION
  2
CLASSES
  0
CLASS
  1
ACDBDICTIONARYWDFLT
  2
AcDbDictionaryWithDefault
  3
AutoCAD 2000
 90
0
 91
1
280
0
281
0
  0
CLASS
  1
ACDBPLACEHOLDER
  2
AcDbPlaceHolder
  3
AutoCAD 2000
 90
0
 91
1
280
0
281
0
  0
CLASS
  1
LAYOUT
  2
AcDbLayout
  3
AutoCAD 2000
 90
0
 91
0
280
0
281
0
  0
ENDSEC
  0
SECTION
  2
TABLES
  0
TABLE
  2
VPORT
  5
8
100
AcDbSymbolTable
 70
2
  0
VPORT
  5
1F4
100
AcDbSymbolTableRecord
100
AcDbViewportTableRecord
  2
*ACTIVE
 70
0
 10
0.0
 20
0.0
 11
1.0
 21
1.0
 12
40.8705858856
 22
57.8026857525
 13
0.0
 23
0.0
 14
1.0
 24
1.0
 15
0.0
 25
0.0
 16
0.0
 26
0.0
 36
1.0
 17
0.0
 27
0.0
 37
0.0
 40
115.605371505
 41
0.7070707071
 42
50.0
 43
0.0
 44
0.0
 50
0.0
 51
0.0
 71
0
 72
100
 73
1
 74
1
 75
0
 76
0
 77
0
 78
0
  0
ENDTAB
  0
TABLE
  2
LTYPE
  5
5
100
AcDbSymbolTable
 70
6
  0
LTYPE
  5
14
100
AcDbSymbolTableRecord
100
AcDbLinetypeTableRecord
  2
BYBLOCK
 70
0
  3

 72
65
 73
0
 40
0.0
  0
LTYPE
  5
15
100
AcDbSymbolTableRecord
100
AcDbLinetypeTableRecord
  2
BYLAYER
 70
0
  3

 72
65
 73
0
 40
0.0
  0
LTYPE
  5
16
100
AcDbSymbolTableRecord
100
AcDbLinetypeTableRecord
  2
CONTINUOUS
 70
64
  3
Solid line
 72
65
 73
0
 40
0.0
  0
LTYPE
  5
1F5
100
AcDbSymbolTableRecord
100
AcDbLinetypeTableRecord
  2
CENTER
 70
64
  3
____ _ ____ _ ____ _ ____ _ ____ _ ____ _ ____
 72
65
 73
4
 40
0.6
 49
0.375
 74
0
 49
-0.075
 74
0
 49
0.075
 74
0
 49
-0.075
 74
0
  0
LTYPE
  5
1F6
100
AcDbSymbolTableRecord
100
AcDbLinetypeTableRecord
  2
HIDDEN
 70
64
  3
- - - - - - - - - - - - - - - - - - - -
 72
65
 73
2
 40
0.2
 49
0.1
 74
0
 49
-0.1
 74
0
  0
LTYPE
  5
1F7
100
AcDbSymbolTableRecord
100
AcDbLinetypeTableRecord
  2
PHANTOM
 70
64
  3
_____ _ _ _____ _ _ _____ _ _ _____
 72
65
 73
6
 40
0.8
 49
0.45
 74
0
 49
-0.05
 74
0
 49
0.1
 74
0
 49
-0.05
 74
0
 49
0.1
 74
0
 49
-0.05
 74
0
  0
LTYPE
  5
1F8
100
AcDbSymbolTableRecord
100
AcDbLinetypeTableRecord
  2
DOT
 70
64
  3
. . . . . . . . . . . . . . . . . . . .
 72
65
 73
2
 40
0.2
 49
0.1
 74
0
 49
-0.1
 74
0
  0
LTYPE
  5
1F9
100
AcDbSymbolTableRecord
100
AcDbLinetypeTableRecord
  2
DASHED
 70
64
  3
- - - - - - - - - - - - - - - - - - - -
 72
65
 73
2
 40
0.2
 49
0.1
 74
0
 49
-0.1
 74
0
  0
ENDTAB
  0
TABLE
  2
LAYER
  5
2
100
AcDbSymbolTable
 70
36
  0
LAYER
  5
10
100
AcDbSymbolTableRecord
100
AcDbLayerTableRecord
  2
0
 70
0
 62
7
  6
CONTINUOUS
370
-3
390
F
  0
LAYER
  5
1FA
100
AcDbSymbolTableRecord
100
AcDbLayerTableRecord
  2
DEFAULT_1
 70
0
 62
7
  6
CENTER
370
-3
390
F
  0
LAYER
  5
1FB
100
AcDbSymbolTableRecord
100
AcDbLayerTableRecord
  2
DEFAULT_2
 70
0
 62
7
  6
HIDDEN
370
-3
390
F
  0
LAYER
  5
1FC
100
AcDbSymbolTableRecord
100
AcDbLayerTableRecord
  2
DEFAULT_3
 70
0
 62
7
  6
PHANTOM
370
-3
390
F
  0
LAYER
  5
1FD
100
AcDbSymbolTableRecord
100
AcDbLayerTableRecord
  2
00_COMPONENTS
 70
0
 62
7
  6
CONTINUOUS
370
-3
390
F
  0
LAYER
  5
1FE
100
AcDbSymbolTableRecord
100
AcDbLayerTableRecord
  2
01_1_DEFAULT_DATUMS
 70
0
 62
7
  6
CONTINUOUS
370
-3
390
F
  0
LAYER
  5
1FF
100
AcDbSymbolTableRecord
100
AcDbLayerTableRecord
  2
01_PLANES
 70
0
 62
7
  6
CONTINUOUS
370
-3
390
F
  0
LAYER
  5
200
100
AcDbSymbolTableRecord
100
AcDbLayerTableRecord
  2
02_COORD_SYS
 70
0
 62
7
  6
CONTINUOUS
370
-3
390
F
  0
LAYER
  5
201
100
AcDbSymbolTableRecord
100
AcDbLayerTableRecord
  2
03_AXES
 70
0
 62
7
  6
CONTINUOUS
370
-3
390
F
  0
LAYER
  5
202
100
AcDbSymbolTableRecord
100
AcDbLayerTableRecord
  2
04_POINTS
 70
0
 62
7
  6
CONTINUOUS
370
-3
390
F
  0
LAYER
  5
203
100
AcDbSymbolTableRecord
100
AcDbLayerTableRecord
  2
05_CURVES
 70
0
 62
7
  6
CONTINUOUS
370
-3
390
F
  0
LAYER
  5
204
100
AcDbSymbolTableRecord
100
AcDbLayerTableRecord
  2
06_SURFS
 70
0
 62
7
  6
CONTINUOUS
370
-3
390
F
  0
LAYER
  5
205
100
AcDbSymbolTableRecord
100
AcDbLayerTableRecord
  2
07_COSMETICS
 70
0
 62
7
  6
CONTINUOUS
370
-3
390
F
  0
LAYER
  5
206
100
AcDbSymbolTableRecord
100
AcDbLayerTableRecord
  2
10_NOTES
 70
0
 62
7
  6
CONTINUOUS
370
-3
390
F
  0
LAYER
  5
207
100
AcDbSymbolTableRecord
100
AcDbLayerTableRecord
  2
11_NOTES_PUB
 70
0
 62
7
  6
CONTINUOUS
370
-3
390
F
  0
LAYER
  5
208
100
AcDbSymbolTableRecord
100
AcDbLayerTableRecord
  2
13_REF_GTOL
 70
0
 62
7
  6
CONTINUOUS
370
-3
390
F
  0
LAYER
  5
209
100
AcDbSymbolTableRecord
100
AcDbLayerTableRecord
  2
16_MISC
 70
0
 62
7
  6
CONTINUOUS
370
-3
390
F
  0
LAYER
  5
20A
100
AcDbSymbolTableRecord
100
AcDbLayerTableRecord
  2
17_NO_PRINT
 70
0
 62
7
  6
CONTINUOUS
370
-3
390
F
  0
LAYER
  5
20B
100
AcDbSymbolTableRecord
100
AcDbLayerTableRecord
  2
18_DATUM_CAMS_JOINTS
 70
0
 62
7
  6
CONTINUOUS
370
-3
390
F
  0
LAYER
  5
20C
100
AcDbSymbolTableRecord
100
AcDbLayerTableRecord
  2
19_DATUM_FUNCTIONAL
 70
0
 62
7
  6
CONTINUOUS
370
-3
390
F
  0
LAYER
  5
20D
100
AcDbSymbolTableRecord
100
AcDbLayerTableRecord
  2
20_DATUM_KINEMATIC_SCHEME
 70
0
 62
7
  6
CONTINUOUS
370
-3
390
F
  0
ENDTAB
  0
TABLE
  2
STYLE
  5
3
100
AcDbSymbolTable
 70
1
  0
STYLE
  5
11
100
AcDbSymbolTableRecord
100
AcDbTextStyleTableRecord
  2
STANDARD
 70
0
 40
0.0
 41
1.0
 50
0.0
 71
0
 42
0.2
  3
ARIAL.TTF
  4

  0
STYLE
  5
20E
100
AcDbSymbolTableRecord
100
AcDbTextStyleTableRecord
  2
TEXTSTYLE_1
 70
0
 40
0.0
 41
0.8
 50
0.0
 71
0
 42
0.2
  3
gdt
  4

  0
ENDTAB
  0
TABLE
  2
VIEW
  5
6
100
AcDbSymbolTable
 70
0
  0
ENDTAB
  0
TABLE
  2
UCS
  5
7
100
AcDbSymbolTable
 70
0
  0
ENDTAB
  0
TABLE
  2
APPID
  5
9
100
AcDbSymbolTable
 70
1
  0
APPID
  5
20F
100
AcDbSymbolTableRecord
100
AcDbRegAppTableRecord
  2
ACAD
 70
0
  0
ENDTAB
  0
TABLE
  2
BLOCK_RECORD
  5
1
100
AcDbSymbolTable
 70
0
  0
BLOCK_RECORD
  5
210
100
AcDbSymbolTableRecord
100
AcDbBlockTableRecord
  2
*Model_Space
  0
BLOCK_RECORD
  5
211
100
AcDbSymbolTableRecord
100
AcDbBlockTableRecord
  2
*Paper_Space
  0
BLOCK_RECORD
  5
212
100
AcDbSymbolTableRecord
100
AcDbBlockTableRecord
  2
_FILLED
  0
ENDTAB
  0
TABLE
  2
DIMSTYLE
  5
A
100
AcDbSymbolTable
 70
1
100
AcDbDimStyleTable
 71
0
  0
DIMSTYLE
105
213
100
AcDbSymbolTableRecord
100
AcDbDimStyleTableRecord
  2
STANDARD
 70
0
  3

  4

 40
1.0
 41
0.9731091878
 42
1.0
 43
0.38
 44
1.0
 45
0.0
 46
0.0
 47
0.01
 48
0.01
140
1.3623528629
141
0.09
142
0.0
143
25.4
144
1.0
145
0.0
146
1.0
147
0.625
 71
1
 72
0
 73
0
 74
0
 75
0
 76
0
 77
1
 78
8
 79
2
170
0
171
1
172
0
173
0
174
0
175
0
176
0
177
0
178
0
270
2
179
2
271
2
272
2
273
2
274
2
275
0
280
0
281
0
282
0
283
1
284
8
285
0
286
0
287
3
288
0
340
11
278
46
341
212
342
212
343
212
344
212
  0
ENDTAB
  0
ENDSEC
  0
SECTION
  2
BLOCKS
  0
BLOCK
  5
20
100
AcDbEntity
  8
0
100
AcDbBlockBegin
  2
*Model_Space
 70
0
 10
0.0
 20
0.0
 30
0.0
  3
*Model_Space
  1

  0
ENDBLK
  5
21
100
AcDbEntity
  8
0
100
AcDbBlockEnd
  0
BLOCK
  5
1C
100
AcDbEntity
  8
0
100
AcDbBlockBegin
  2
*Paper_Space
 70
0
 10
0.0
 20
0.0
 30
0.0
  3
*Paper_Space
  1

  0
ENDBLK
  5
1D
100
AcDbEntity
  8
0
100
AcDbBlockEnd
  0
BLOCK
  5
214
100
AcDbEntity
  8
0
100
AcDbBlockBegin
  2
_FILLED
 70
64
 10
0.0
 20
0.0
  3
_FILLED
  1

  0
SOLID
  5
215
100
AcDbEntity
  8
0
  6
BYBLOCK
 62
0
100
AcDbTrace
 10
0.0
 20
0.0
 11
-1.0
 21
0.25
 12
-1.0
 22
-0.25
 13
-1.0
 23
-0.25
  0
ENDBLK
  5
216
100
AcDbEntity
  8
0
  6
BYBLOCK
 62
0
100
AcDbBlockEnd
  0
ENDSEC
  0
SECTION
  2
ENTITIES
  0
LINE
  5
217
100
AcDbEntity
  8
0
100
AcDbLine
 62
7
  6
BYLAYER
 10
9.5283707224
 20
53.1316476905
 11
9.5283707224
 21
62.7567232525
  0
LINE
  5
218
100
AcDbEntity
  8
0
100
AcDbLine
 62
7
  6
BYLAYER
 10
9.6403525598
 20
52.9548427003
 11
9.6403525598
 21
62.9335282426
  0
LINE
  5
219
100
AcDbEntity
  8
0
100
AcDbLine
 62
7
  6
BYLAYER
 10
9.9814297376
 20
52.7941854715
 11
9.9814297378
 21
63.0941854715
  0
LINE
  5
21A
100
AcDbEntity
  8
0
100
AcDbLine
 62
7
  6
BYLAYER
 10
11.7267014496
 20
52.7003191587
 11
11.7267014496
 21
63.1880517843
  0
LINE
  5
21B
100
AcDbEntity
  8
0
100
AcDbLine
 62
7
  6
BYLAYER
 10
11.8825503556
 20
52.5441854715
 11
11.8825503558
 21
63.3441854715
  0
LINE
  5
21C
100
AcDbEntity
  8
0
100
AcDbLine
 62
7
  6
BYLAYER
 10
12.4261198538
 20
63.3441854715
 11
12.4261198538
 21
52.5441854715
  0
LINE
  5
21D
100
AcDbEntity
  8
0
100
AcDbLine
 62
7
  6
BYLAYER
 10
12.5262514044
 20
52.6451374562
 11
12.5262514044
 21
63.2432334868
  0
LINE
  5
21E
100
AcDbEntity
  8
0
100
AcDbLine
 62
7
  6
BYLAYER
 10
13.6304519406
 20
63.2432334868
 11
13.6304519406
 21
52.6451374562
  0
LINE
  5
21F
100
AcDbEntity
  8
0
100
AcDbLine
 62
7
  6
BYLAYER
 10
14.3362104827
 20
51.9441854715
 11
14.3362104826
 21
63.9441854715
  0
LINE
  5
220
100
AcDbEntity
  8
0
100
AcDbLine
 62
7
  6
BYLAYER
 10
13.6304519406
 20
63.2432334868
 11
14.3362104827
 21
63.9441854714
  0
LINE
  5
221
100
AcDbEntity
  8
0
100
AcDbLine
 62
7
  6
BYLAYER
 10
13.6304519406
 20
52.6451374562
 11
14.3362104827
 21
51.9441854715
  0
LINE
  5
222
100
AcDbEntity
  8
0
100
AcDbLine
 62
7
  6
BYLAYER
 10
20.0537586364
 20
63.9441854715
 11
20.0537586364
 21
51.9441854715
  0
LINE
  5
223
100
AcDbEntity
  8
0
100
AcDbLine
 62
7
  6
BYLAYER
 10
20.5280374461
 20
51.4441978214
 11
20.5280374461
 21
64.4441731215
  0
LINE
  5
224
100
AcDbEntity
  8
0
100
AcDbLine
 62
7
  6
BYLAYER
 10
23.5280374461
 20
64.4441854715
 11
23.5280374461
 21
51.4441854715
  0
LINE
  5
225
100
AcDbEntity
  8
0
100
AcDbLine
 62
7
  6
BYLAYER
 10
9.6403525598
 20
62.9335282426
 11
9.9814297374
 21
63.0941854715
  0
LINE
  5
226
100
AcDbEntity
  8
0
100
AcDbLine
 62
7
  6
BYLAYER
 10
74.3285623411
 20
46.6724148961
 11
73.4767985317
 21
46.4441854712
  0
LINE
  5
227
100
AcDbEntity
  8
0
100
AcDbLine
 62
7
  6
BYLAYER
 10
73.6250347234
 20
46.6770904046
 11
74.3285623411
 21
46.8656000616
  0
LINE
  5
228
100
AcDbEntity
  8
0
100
AcDbLine
 62
7
  6
BYLAYER
 10
9.6403525598
 20
52.9548427003
 11
9.9814297374
 21
52.7941854715
  0
LINE
  5
229
100
AcDbEntity
  8
0
100
AcDbLine
 62
7
  6
BYLAYER
 10
25.2767985324
 20
69.2441854714
 11
25.2767985324
 21
64.7972119824
  0
LINE
  5
22A
100
AcDbEntity
  8
0
100
AcDbLine
 62
7
  6
BYLAYER
 10
25.2767985324
 20
51.0909378088
 11
25.2767985324
 21
46.6441854715
  0
LINE
  5
22B
100
AcDbEntity
  8
0
100
AcDbLine
 62
7
  6
BYLAYER
 10
25.3353771767
 20
46.6441854715
 11
25.3353771767
 21
51.0791049922
  0
LINE
  5
22C
100
AcDbEntity
  8
0
100
AcDbLine
 62
7
  6
BYLAYER
 10
25.3353771767
 20
64.8090373921
 11
25.3353771767
 21
69.2441854714
  0
LINE
  5
22D
100
AcDbEntity
  8
0
100
AcDbLine
 62
7
  6
BYLAYER
 10
12.5262514046
 20
52.645137456
 11
12.4261198538
 21
52.5441854715
  0
LINE
  5
22E
100
AcDbEntity
  8
0
100
AcDbLine
 62
7
  6
BYLAYER
 10
12.5262514046
 20
63.243233487
 11
12.4261198538
 21
63.3441854714
  0
LINE
  5
22F
100
AcDbEntity
  8
0
100
AcDbLine
 62
7
  6
BYLAYER
 10
25.4767985316
 20
46.4441854715
 11
73.4767985316
 21
46.4441854715
  0
LINE
  5
230
100
AcDbEntity
  8
0
100
AcDbLine
 62
7
  6
BYLAYER
 10
73.4767985324
 20
46.6441854707
 11
25.2767985324
 21
46.6441854715
  0
LINE
  5
231
100
AcDbEntity
  8
0
100
AcDbLine
 62
7
  6
BYLAYER
 10
73.6250347234
 20
46.6770904044
 11
73.4767985324
 21
46.6770904044
  0
LINE
  5
232
100
AcDbEntity
  8
0
100
AcDbLine
 62
7
  6
BYLAYER
 10
74.4767985324
 20
46.8656000611
 11
74.3285623414
 21
46.8656000611
  0
LINE
  5
233
100
AcDbEntity
  8
0
100
AcDbLine
 62
7
  6
BYLAYER
 10
30.3794286053
 20
50.0299841685
 11
31.0823854749
 21
49.9460862162
  0
LINE
  5
234
100
AcDbEntity
  8
0
100
AcDbLine
 62
7
  6
BYLAYER
 10
31.0823854752
 20
49.9460862161
 11
30.3900328309
 21
50.0833863477
  0
LWPOLYLINE
  5
235
100
AcDbEntity
  8
0
100
AcDbPolyline
 62
7
  6
BYLAYER
 90
4
 70
0
 10
23.5280374463
 20
51.4441854717
 10
25.9010386162
 20
50.9648420531
 10
28.369079455
 20
50.4517407666
 10
30.3795023422
 20
50.0302850798
  0
LINE
  5
236
100
AcDbEntity
  8
0
100
AcDbLine
 62
7
  6
BYLAYER
 10
74.3285623414
 20
50.0227708821
 11
74.4767985324
 21
50.0227708821
  0
LINE
  5
237
100
AcDbEntity
  8
0
100
AcDbLine
 62
7
  6
BYLAYER
 10
73.4767985324
 20
50.2112805381
 11
73.6250347234
 21
50.2112805381
  0
LINE
  5
238
100
AcDbEntity
  8
0
100
AcDbLine
 62
7
  6
BYLAYER
 10
31.0823854749
 20
49.9460862162
 11
31.2056905907
 21
49.9441854715
  0
LINE
  5
239
100
AcDbEntity
  8
0
100
AcDbLine
 62
7
  6
BYLAYER
 10
23.5280374461
 20
51.4441854715
 11
20.5280374461
 21
51.4441854715
  0
LINE
  5
23A
100
AcDbEntity
  8
0
100
AcDbLine
 62
7
  6
BYLAYER
 10
20.0537586364
 20
51.9441854715
 11
14.3362104828
 21
51.9441854715
  0
LINE
  5
23B
100
AcDbEntity
  8
0
100
AcDbLine
 62
7
  6
BYLAYER
 10
12.4261198538
 20
52.5441854715
 11
11.8825503556
 21
52.5441854715
  0
LINE
  5
23C
100
AcDbEntity
  8
0
100
AcDbLine
 62
7
  6
BYLAYER
 10
13.6304519406
 20
52.6451374562
 11
12.5262514048
 21
52.6451374562
  0
LINE
  5
23D
100
AcDbEntity
  8
0
100
AcDbLine
 62
7
  6
BYLAYER
 10
11.7267014496
 20
52.7941854715
 11
9.9814297376
 21
52.7941854715
  0
LINE
  5
23E
100
AcDbEntity
  8
0
100
AcDbLine
 62
7
  6
BYLAYER
 10
41.2770374461
 20
53.2668352033
 11
70.4770374461
 21
53.2668352033
  0
LINE
  5
23F
100
AcDbEntity
  8
0
100
AcDbLine
 62
7
  6
BYLAYER
 10
38.2182198887
 20
69.2441854714
 11
38.2182198887
 21
46.6441854715
  0
LINE
  5
240
100
AcDbEntity
  8
0
100
AcDbLine
 62
7
  6
BYLAYER
 10
38.3596412454
 20
46.4441854715
 11
38.3596412454
 21
69.4441854714
  0
LINE
  5
241
100
AcDbEntity
  8
0
100
AcDbLine
 62
7
  6
BYLAYER
 10
41.2770374461
 20
54.0668352023
 11
70.4770374461
 21
54.0668352023
  0
LINE
  5
242
100
AcDbEntity
  8
0
100
AcDbLine
 62
7
  6
BYLAYER
 10
41.2770374461
 20
53.2668352031
 11
41.2770374461
 21
62.6215357406
  0
LINE
  5
243
100
AcDbEntity
  8
0
100
AcDbLine
 62
7
  6
BYLAYER
 10
74.3285623411
 20
65.672414896
 11
73.6250347234
 21
65.483905239
  0
LINE
  5
244
100
AcDbEntity
  8
0
100
AcDbLine
 62
7
  6
BYLAYER
 10
73.6250347234
 20
65.6770904047
 11
74.3285623411
 21
65.8656000617
  0
LINE
  5
245
100
AcDbEntity
  8
0
100
AcDbLine
 62
7
  6
BYLAYER
 10
36.8625448402
 20
57.9441854715
 11
23.5280405973
 21
57.9441854715
  0
LINE
  5
246
100
AcDbEntity
  8
0
100
AcDbLine
 62
7
  6
BYLAYER
 10
74.3285623411
 20
50.0227708819
 11
73.6250347234
 21
50.211280538
  0
LINE
  5
247
100
AcDbEntity
  8
0
100
AcDbLine
 62
7
  6
BYLAYER
 10
73.6250347234
 20
50.404465704
 11
74.3285623416
 21
50.2159560468
  0
LINE
  5
248
100
AcDbEntity
  8
0
100
AcDbLine
 62
7
  6
BYLAYER
 10
41.2770374461
 20
61.8215357399
 11
70.4770374461
 21
61.8215357399
  0
LINE
  5
249
100
AcDbEntity
  8
0
100
AcDbLine
 62
7
  6
BYLAYER
 10
41.2770374461
 20
62.6215357407
 11
70.4770374461
 21
62.6215357407
  0
LINE
  5
24A
100
AcDbEntity
  8
0
100
AcDbLine
 62
7
  6
BYLAYER
 10
11.7267014496
 20
63.0941854715
 11
9.9814297378
 21
63.0941854715
  0
LINE
  5
24B
100
AcDbEntity
  8
0
100
AcDbLine
 62
7
  6
BYLAYER
 10
13.6304519406
 20
63.2432334868
 11
12.5262514048
 21
63.2432334868
  0
LINE
  5
24C
100
AcDbEntity
  8
0
100
AcDbLine
 62
7
  6
BYLAYER
 10
12.4261198538
 20
63.3441854715
 11
11.8825503558
 21
63.3441854715
  0
LINE
  5
24D
100
AcDbEntity
  8
0
100
AcDbLine
 62
7
  6
BYLAYER
 10
20.0537586364
 20
63.9441854715
 11
14.3362104828
 21
63.9441854715
  0
LINE
  5
24E
100
AcDbEntity
  8
0
100
AcDbLine
 62
7
  6
BYLAYER
 10
23.528037446
 20
64.4441854715
 11
20.5280374461
 21
64.4441854715
  0
LINE
  5
24F
100
AcDbEntity
  8
0
100
AcDbLine
 62
7
  6
BYLAYER
 10
31.082385475
 20
65.9422847267
 11
30.3785201075
 21
65.858196969
  0
LINE
  5
250
100
AcDbEntity
  8
0
100
AcDbLine
 62
7
  6
BYLAYER
 10
31.2056905907
 20
65.9441854715
 11
31.082385475
 21
65.9422847267
  0
LINE
  5
251
100
AcDbEntity
  8
0
100
AcDbLine
 62
7
  6
BYLAYER
 10
73.6250347234
 20
65.6770904103
 11
73.4767985324
 21
65.6770904103
  0
LINE
  5
252
100
AcDbEntity
  8
0
100
AcDbLine
 62
7
  6
BYLAYER
 10
74.4767985324
 20
65.8656000611
 11
74.3285623411
 21
65.8656000611
  0
LWPOLYLINE
  5
253
100
AcDbEntity
  8
0
100
AcDbPolyline
 62
7
  6
BYLAYER
 90
4
 70
0
 10
30.3786004549
 20
65.8578970677
 10
28.3684286937
 20
65.436123027
 10
25.9020771567
 20
64.9234384596
 10
23.5280374486
 20
64.4441854395
  0
LINE
  5
254
100
AcDbEntity
  8
0
100
AcDbLine
 62
7
  6
BYLAYER
 10
31.0824381886
 20
65.9422951804
 11
30.3891290464
 21
65.8048053663
  0
LINE
  5
255
100
AcDbEntity
  8
0
100
AcDbLine
 62
7
  6
BYLAYER
 10
74.3285623411
 20
69.0227708821
 11
74.4767985324
 21
69.0227708821
  0
LINE
  5
256
100
AcDbEntity
  8
0
100
AcDbLine
 62
7
  6
BYLAYER
 10
73.4767985324
 20
69.2112805381
 11
73.6250347234
 21
69.2112805381
  0
LINE
  5
257
100
AcDbEntity
  8
0
100
AcDbLine
 62
7
  6
BYLAYER
 10
25.2767985324
 20
69.2441854714
 11
73.4767985324
 21
69.2441854722
  0
LINE
  5
258
100
AcDbEntity
  8
0
100
AcDbLine
 62
7
  6
BYLAYER
 10
25.4767985324
 20
69.4441854714
 11
73.2767985324
 21
69.4441854714
  0
LINE
  5
259
100
AcDbEntity
  8
0
100
AcDbLine
 62
7
  6
BYLAYER
 10
73.2920735966
 20
69.4441854714
 11
73.4767985324
 21
69.4441854714
  0
LINE
  5
25A
100
AcDbEntity
  8
0
100
AcDbLine
 62
7
  6
BYLAYER
 10
74.3285623411
 20
69.0227708819
 11
73.6250347234
 21
69.2112805381
  0
LINE
  5
25B
100
AcDbEntity
  8
0
100
AcDbLine
 62
7
  6
BYLAYER
 10
73.4767985324
 20
69.4441854715
 11
74.3285623422
 21
69.2159560466
  0
LINE
  5
25C
100
AcDbEntity
  8
0
100
AcDbLine
 62
7
  6
BYLAYER
 10
70.4770374461
 20
53.2668352031
 11
70.4770374461
 21
62.6215357404
  0
LINE
  5
25D
100
AcDbEntity
  8
0
100
AcDbLine
 62
7
  6
BYLAYER
 10
73.2767985324
 20
69.4441854714
 11
73.2767985324
 21
46.4441854715
  0
LINE
  5
25E
100
AcDbEntity
  8
0
100
AcDbLine
 62
7
  6
BYLAYER
 10
73.4767985324
 20
46.6441854707
 11
73.4767985324
 21
69.2441854722
  0
LINE
  5
25F
100
AcDbEntity
  8
0
100
AcDbLine
 62
7
  6
BYLAYER
 10
73.6250347234
 20
46.6770904046
 11
73.6250347234
 21
50.211280538
  0
LINE
  5
260
100
AcDbEntity
  8
0
100
AcDbLine
 62
7
  6
BYLAYER
 10
73.6250347234
 20
65.6770904047
 11
73.6250347234
 21
69.2112805381
  0
LINE
  5
261
100
AcDbEntity
  8
0
100
AcDbLine
 62
7
  6
BYLAYER
 10
74.3285623411
 20
69.0227708819
 11
74.3285623411
 21
65.8656000617
  0
LINE
  5
262
100
AcDbEntity
  8
0
100
AcDbLine
 62
7
  6
BYLAYER
 10
74.3285623411
 20
50.0227708819
 11
74.3285623411
 21
46.8656000616
  0
LINE
  5
263
100
AcDbEntity
  8
0
100
AcDbLine
 62
7
  6
BYLAYER
 10
74.4767985324
 20
46.8656000615
 11
74.4767985324
 21
50.0227708816
  0
LINE
  5
264
100
AcDbEntity
  8
0
100
AcDbLine
 62
7
  6
BYLAYER
 10
74.4767985324
 20
65.8656000614
 11
74.4767985324
 21
69.0227708815
  0
ARC
  5
265
100
AcDbEntity
  8
0
100
AcDbCircle
 62
7
  6
BYLAYER
 10
20.0537586364
 20
51.4699066618
 40
0.4742788097
100
AcDbArc
 50
0.0
 51
90.0
  0
ARC
  5
266
100
AcDbEntity
  8
0
100
AcDbCircle
 62
7
  6
BYLAYER
 10
25.6171258107
 20
46.6441634072
 40
0.2817486357
100
AcDbArc
 50
179.9955130542
 51
185.4042246339
  0
ARC
  5
267
100
AcDbEntity
  8
0
100
AcDbCircle
 62
7
  6
BYLAYER
 10
25.4767985324
 20
46.6441854715
 40
0.2
100
AcDbArc
 50
180.0
 51
270.0
  0
ARC
  5
268
100
AcDbEntity
  8
0
100
AcDbCircle
 62
7
  6
BYLAYER
 10
9.7235029921
 20
53.1313720415
 40
0.1951322697
100
AcDbArc
 50
180.0
 51
244.7782063217
  0
ARC
  5
269
100
AcDbEntity
  8
0
100
AcDbCircle
 62
7
  6
BYLAYER
 10
11.8825503554
 20
52.7000343773
 40
0.1558489058
100
AcDbArc
 50
180.0
 51
270.0
  0
ARC
  5
26A
100
AcDbEntity
  8
0
100
AcDbCircle
 62
7
  6
BYLAYER
 10
20.0537586364
 20
64.4184642811
 40
0.4742788097
100
AcDbArc
 50
270.0
 51
360.0
  0
ARC
  5
26B
100
AcDbEntity
  8
0
100
AcDbCircle
 62
7
  6
BYLAYER
 10
38.4999685435
 20
69.2442075348
 40
0.2817486562
100
AcDbArc
 50
174.595775577
 51
180.004486749
  0
ARC
  5
26C
100
AcDbEntity
  8
0
100
AcDbCircle
 62
7
  6
BYLAYER
 10
25.4767985324
 20
69.2441854714
 40
0.2
100
AcDbArc
 50
90.0
 51
180.0
  0
ARC
  5
26D
100
AcDbEntity
  8
0
100
AcDbCircle
 62
7
  6
BYLAYER
 10
9.7235029921
 20
62.7569989014
 40
0.1951322697
100
AcDbArc
 50
115.2217936783
 51
180.0
  0
ARC
  5
26E
100
AcDbEntity
  8
0
100
AcDbCircle
 62
7
  6
BYLAYER
 10
11.8825503554
 20
63.1883365656
 40
0.1558489058
100
AcDbArc
 50
90.0
 51
180.0
  0
ARC
  5
26F
100
AcDbEntity
  8
0
100
AcDbCircle
 62
7
  6
BYLAYER
 10
74.706618733
 20
46.4385636931
 40
1.1075734619
100
AcDbArc
 50
167.5633677681
 51
168.4858429521
  0
ARC
  5
270
100
AcDbEntity
  8
0
100
AcDbCircle
 62
7
  6
BYLAYER
 10
73.284522765
 20
46.8263722841
 40
0.3865024618
100
AcDbArc
 50
309.2409098568
 51
316.6963941611
  0
ARC
  5
271
100
AcDbEntity
  8
0
100
AcDbCircle
 62
7
  6
BYLAYER
 10
74.2767985324
 20
50.0227708816
 40
0.2
100
AcDbArc
 50
0.0
 51
75.0
  0
ARC
  5
272
100
AcDbEntity
  8
0
100
AcDbCircle
 62
7
  6
BYLAYER
 10
74.2767985324
 20
46.8656000615
 40
0.2
100
AcDbArc
 50
284.9999998934
 51
360.0
  0
ARC
  5
273
100
AcDbEntity
  8
0
100
AcDbCircle
 62
7
  6
BYLAYER
 10
73.6767985324
 20
50.5976508692
 40
0.2
100
AcDbArc
 50
180.0000000286
 51
255.0
  0
ARC
  5
274
100
AcDbEntity
  8
0
100
AcDbCircle
 62
7
  6
BYLAYER
 10
73.2767985324
 20
46.6441854715
 40
0.2
100
AcDbArc
 50
270.0
 51
360.0
  0
ARC
  5
275
100
AcDbEntity
  8
0
100
AcDbCircle
 62
7
  6
BYLAYER
 10
74.7065985456
 20
69.4498027894
 40
1.1075527857
100
AcDbArc
 50
191.5141420096
 51
192.4366318121
  0
ARC
  5
276
100
AcDbEntity
  8
0
100
AcDbCircle
 62
7
  6
BYLAYER
 10
73.2946863554
 20
69.0713107204
 40
0.3727298137
100
AcDbArc
 50
43.7830093378
 51
45.1783572968
  0
ARC
  5
277
100
AcDbEntity
  8
0
100
AcDbCircle
 62
7
  6
BYLAYER
 10
74.2767985324
 20
65.8656000614
 40
0.2
100
AcDbArc
 50
284.9999999045
 51
360.0
  0
ARC
  5
278
100
AcDbEntity
  8
0
100
AcDbCircle
 62
7
  6
BYLAYER
 10
74.2767985324
 20
69.0227708815
 40
0.2
100
AcDbArc
 50
0.0
 51
75.0
  0
ARC
  5
279
100
AcDbEntity
  8
0
100
AcDbCircle
 62
7
  6
BYLAYER
 10
73.2767985324
 20
69.2441854714
 40
0.2
100
AcDbArc
 50
0.0000002149
 51
90.0
  0
ARC
  5
27A
100
AcDbEntity
  8
0
100
AcDbCircle
 62
7
  6
BYLAYER
 10
73.6767985324
 20
65.2907200737
 40
0.2
100
AcDbArc
 50
104.9999999942
 51
180.0
  0
SPLINE
  5
27B
100
AcDbEntity
  8
0
100
AcDbSpline
 62
7
  6
BYLAYER
 70
0
 71
3
 72
9
 73
5
 74
0
 42
0.0000001
 43
0.0000001
 44
0.0000000001
 40
0.0
 40
0.0
 40
0.0
 40
0.0
 40
0.5134147859
 40
1.0
 40
1.0
 40
1.0
 40
1.0
 10
38.2928412222
 20
46.4679029881
 30
0.0
 10
38.3026404238
 20
46.4604764205
 30
0.0
 10
38.3238771648
 20
46.4485135952
 30
0.0
 10
38.347988313
 20
46.4441854714
 30
0.0
 10
38.3596412449
 20
46.4441854715
 30
0.0
  0
SPLINE
  5
27C
100
AcDbEntity
  8
0
100
AcDbSpline
 62
7
  6
BYLAYER
 70
0
 71
3
 72
17
 73
13
 74
0
 42
0.0000001
 43
0.0000001
 44
0.0000000001
 40
0.0
 40
0.0
 40
0.0
 40
0.0
 40
0.0514974983
 40
0.1034841583
 40
0.1564159366
 40
0.2106924154
 40
0.3242833194
 40
0.4459625577
 40
0.5758267628
 40
0.7128259409
 40
0.8550372029
 40
1.0
 40
1.0
 40
1.0
 40
1.0
 10
31.3471119358
 20
65.9441137383
 30
0.0
 10
31.5323783798
 20
65.94411358
 30
0.0
 10
31.9051862209
 20
65.9181462836
 30
0.0
 10
32.4574071072
 20
65.8016700621
 30
0.0
 10
32.9985971131
 20
65.6091234747
 30
0.0
 10
33.7084057319
 20
65.2484067614
 30
0.0
 10
34.5426615073
 20
64.6080249598
 30
0.0
 10
35.3983401731
 20
63.6006585547
 30
0.0
 10
36.0971432077
 20
62.3819848407
 30
0.0
 10
36.6145422269
 20
60.9979270999
 30
0.0
 10
36.9326534869
 20
59.5003107033
 30
0.0
 10
37.0039661968
 20
58.4657009393
 30
0.0
 10
37.0039661968
 20
57.9441854711
 30
0.0
  0
SPLINE
  5
27D
100
AcDbEntity
  8
0
100
AcDbSpline
 62
7
  6
BYLAYER
 70
0
 71
3
 72
17
 73
13
 74
0
 42
0.0000001
 43
0.0000001
 44
0.0000000001
 40
0.0
 40
0.0
 40
0.0
 40
0.0
 40
0.1449605379
 40
0.2871698103
 40
0.4241683566
 40
0.5540330242
 40
0.6757137041
 40
0.7893062455
 40
0.8435833799
 40
0.896515592
 40
0.9485024851
 40
1.0
 40
1.0
 40
1.0
 40
1.0
 10
37.0039661968
 20
57.9441854711
 30
0.0
 10
37.0039661968
 20
57.4226781437
 30
0.0
 10
36.9326563316
 20
56.3880836712
 30
0.0
 10
36.614552465
 20
54.8904839371
 30
0.0
 10
36.0971642033
 20
53.5064306769
 30
0.0
 10
35.3983658601
 20
52.2877490277
 30
0.0
 10
34.5426850527
 20
51.2803675707
 30
0.0
 10
33.7084210771
 20
50.6399739112
 30
0.0
 10
32.9986047466
 20
50.279250641
 30
0.0
 10
32.4574104084
 20
50.0867018652
 30
0.0
 10
31.9051871789
 20
49.9702250844
 30
0.0
 10
31.5323784567
 20
49.9442570444
 30
0.0
 10
31.3471119576
 20
49.9442572028
 30
0.0
  0
SPLINE
  5
27E
100
AcDbEntity
  8
0
100
AcDbSpline
 62
7
  6
BYLAYER
 70
0
 71
3
 72
9
 73
5
 74
0
 42
0.0000001
 43
0.0000001
 44
0.0000000001
 40
0.0
 40
0.0
 40
0.0
 40
0.0
 40
0.2519366402
 40
1.0
 40
1.0
 40
1.0
 40
1.0
 10
25.3353771767
 20
69.2441854714
 30
0.0
 10
25.3353771767
 20
69.2501302465
 30
0.0
 10
25.3361388814
 20
69.2737183241
 30
0.0
 10
25.3398436873
 20
69.2972279027
 30
0.0
 10
25.3443508964
 20
69.3142942951
 30
0.0
  0
SPLINE
  5
27F
100
AcDbEntity
  8
0
100
AcDbSpline
 62
7
  6
BYLAYER
 70
0
 71
3
 72
9
 73
5
 74
0
 42
0.0000001
 43
0.0000001
 44
0.0000000001
 40
0.0
 40
0.0
 40
0.0
 40
0.0
 40
0.2586354485
 40
1.0
 40
1.0
 40
1.0
 40
1.0
 10
25.3443508964
 20
69.3142942951
 30
0.0
 10
25.3458265516
 20
69.3198818128
 30
0.0
 10
25.3522634166
 20
69.3412788722
 30
0.0
 10
25.361660697
 20
69.3618395804
 30
0.0
 10
25.3703885071
 20
69.3759193425
 30
0.0
  0
SPLINE
  5
280
100
AcDbEntity
  8
0
100
AcDbSpline
 62
7
  6
BYLAYER
 70
0
 71
3
 72
9
 73
5
 74
0
 42
0.0000001
 43
0.0000001
 44
0.0000000001
 40
0.0
 40
0.0
 40
0.0
 40
0.0
 40
0.2626345177
 40
1.0
 40
1.0
 40
1.0
 40
1.0
 10
25.3703885071
 20
69.3759193425
 30
0.0
 10
25.3731463971
 20
69.3803683892
 30
0.0
 10
25.3843199691
 20
69.3968669198
 30
0.0
 10
25.3982859429
 20
69.4115912956
 30
0.0
 10
25.4099985102
 20
69.4204679548
 30
0.0
  0
SPLINE
  5
281
100
AcDbEntity
  8
0
100
AcDbSpline
 62
7
  6
BYLAYER
 70
0
 71
3
 72
9
 73
5
 74
0
 42
0.0000001
 43
0.0000001
 44
0.0000000001
 40
0.0
 40
0.0
 40
0.0
 40
0.0
 40
0.5134147859
 40
1.0
 40
1.0
 40
1.0
 40
1.0
 10
25.4099985102
 20
69.4204679548
 30
0.0
 10
25.4197977119
 20
69.4278945224
 30
0.0
 10
25.4410344528
 20
69.4398573478
 30
0.0
 10
25.4651456011
 20
69.4441854714
 30
0.0
 10
25.4767985329
 20
69.4441854714
 30
0.0
  0
SPLINE
  5
282
100
AcDbEntity
  8
0
100
AcDbSpline
 62
7
  6
BYLAYER
 70
0
 71
3
 72
19
 73
15
 74
0
 42
0.0000001
 43
0.0000001
 44
0.0000000001
 40
0.0
 40
0.0
 40
0.0
 40
0.0
 40
0.0514870974
 40
0.1034659791
 40
0.1563794693
 40
0.2106278452
 40
0.2665548751
 40
0.3243821084
 40
0.4460126065
 40
0.5100129895
 40
0.5759699293
 40
0.712898356
 40
0.8550743875
 40
1.0
 40
1.0
 40
1.0
 40
1.0
 10
31.2057472555
 20
49.9441853853
 30
0.0
 10
31.3910307379
 20
49.9442414002
 30
0.0
 10
31.7638585473
 20
49.9705641933
 30
0.0
 10
32.31608553
 20
50.0870712037
 30
0.0
 10
32.857356984
 20
50.279175463
 30
0.0
 10
33.3820814671
 20
50.5454938998
 30
0.0
 10
33.8848166111
 20
50.8839242428
 30
0.0
 10
34.5307596596
 20
51.434092194
 30
0.0
 10
35.1031815255
 20
52.106422066
 30
0.0
 10
35.5905898715
 20
52.8703102487
 30
0.0
 10
36.036080824
 20
53.7223907237
 30
0.0
 10
36.4739569063
 20
54.8903901839
 30
0.0
 10
36.790708487
 20
56.3880496595
 30
0.0
 10
36.8627249596
 20
57.4226504708
 30
0.0
 10
36.8627249664
 20
57.9441854715
 30
0.0
  0
SPLINE
  5
283
100
AcDbEntity
  8
0
100
AcDbSpline
 62
7
  6
BYLAYER
 70
0
 71
3
 72
11
 73
7
 74
0
 42
0.0000001
 43
0.0000001
 44
0.0000000001
 40
0.0
 40
0.0
 40
0.0
 40
0.0
 40
0.2119196716
 40
0.4467411565
 40
0.7121333819
 40
1.0
 40
1.0
 40
1.0
 40
1.0
 10
25.4767985321
 20
46.4441854715
 30
0.0
 10
25.4596947852
 20
46.4441854715
 30
0.0
 10
25.4232576053
 20
46.4542238174
 30
0.0
 10
25.3792363323
 20
46.4934646037
 30
0.0
 10
25.3486406366
 20
46.5503349867
 30
0.0
 10
25.3388207242
 20
46.5944980735
 30
0.0
 10
25.3366295412
 20
46.6176278362
 30
0.0
  0
SPLINE
  5
284
100
AcDbEntity
  8
0
100
AcDbSpline
 62
7
  6
BYLAYER
 70
0
 71
3
 72
12
 73
8
 74
0
 42
0.0000001
 43
0.0000001
 44
0.0000000001
 40
0.0
 40
0.0
 40
0.0
 40
0.0
 40
0.1217693436
 40
0.2139418719
 40
0.3300370946
 40
0.6296875936
 40
1.0
 40
1.0
 40
1.0
 40
1.0
 10
74.3285623416
 20
50.2159560467
 30
0.0
 10
74.3342421156
 20
50.2144341559
 30
0.0
 10
74.3411209274
 20
50.2044536781
 30
0.0
 10
74.3451493323
 20
50.189404225
 30
0.0
 10
74.3483738946
 20
50.1648598325
 30
0.0
 10
74.3472695243
 20
50.1268527424
 30
0.0
 10
74.3430919264
 20
50.0947123247
 30
0.0
 10
74.3400630998
 20
50.0770886385
 30
0.0
  0
SPLINE
  5
285
100
AcDbEntity
  8
0
100
AcDbSpline
 62
7
  6
BYLAYER
 70
0
 71
3
 72
9
 73
5
 74
0
 42
0.0000001
 43
0.0000001
 44
0.0000000001
 40
0.0
 40
0.0
 40
0.0
 40
0.0
 40
0.2441290106
 40
1.0
 40
1.0
 40
1.0
 40
1.0
 10
74.3400630998
 20
50.0770886385
 30
0.0
 10
74.3392977203
 20
50.0726351624
 30
0.0
 10
74.3359774445
 20
50.0544249863
 30
0.0
 10
74.3319556534
 20
50.0363441287
 30
0.0
 10
74.3285623416
 20
50.0227708813
 30
0.0
  0
LINE
  5
286
100
AcDbEntity
  8
0
100
AcDbLine
 62
7
  6
BYLAYER
 10
30.3900328309
 20
50.0833863477
 11
23.5280374461
 21
51.4441854715
  0
SPLINE
  5
287
100
AcDbEntity
  8
0
100
AcDbSpline
 62
7
  6
BYLAYER
 70
0
 71
3
 72
11
 73
7
 74
0
 42
0.0000001
 43
0.0000001
 44
0.0000000001
 40
0.0
 40
0.0
 40
0.0
 40
0.0
 40
0.2662615136
 40
0.5193315994
 40
0.762363668
 40
1.0
 40
1.0
 40
1.0
 40
1.0
 10
34.4717330638
 20
64.4761888288
 30
0.0
 10
34.2414006622
 20
64.7065179885
 30
0.0
 10
33.755043637
 20
65.1209071139
 30
0.0
 10
32.943195384
 20
65.5912140884
 30
0.0
 10
32.0863089341
 20
65.8788273197
 30
0.0
 10
31.4964368687
 20
65.9441219545
 30
0.0
 10
31.2057192102
 20
65.9441818415
 30
0.0
  0
LINE
  5
288
100
AcDbEntity
  8
0
100
AcDbLine
 62
7
  6
BYLAYER
 10
30.3891290464
 20
65.8048053663
 11
23.5280382791
 21
64.4441856367
  0
SPLINE
  5
289
100
AcDbEntity
  8
0
100
AcDbSpline
 62
7
  6
BYLAYER
 70
0
 71
3
 72
13
 73
9
 74
0
 42
0.0000001
 43
0.0000001
 44
0.0000000001
 40
0.0
 40
0.0
 40
0.0
 40
0.0
 40
0.2666950512
 40
0.3978226494
 40
0.5262454084
 40
0.6512151035
 40
0.772140701
 40
1.0
 40
1.0
 40
1.0
 40
1.0
 10
36.862569646
 20
57.9441854715
 30
0.0
 10
36.8625696472
 20
58.5772949811
 30
0.0
 10
36.7834915829
 20
59.5244610763
 30
0.0
 10
36.5183716405
 20
60.7464363282
 30
0.0
 10
36.2456115126
 20
61.6189232914
 30
0.0
 10
35.9009960134
 20
62.4397031403
 30
0.0
 10
35.3643545234
 20
63.4291211384
 30
0.0
 10
34.85417904
 20
64.0936811398
 30
0.0
 10
34.4716922243
 20
64.4761664924
 30
0.0
  0
SPLINE
  5
28A
100
AcDbEntity
  8
0
100
AcDbSpline
 62
7
  6
BYLAYER
 70
0
 71
3
 72
13
 73
9
 74
0
 42
0.0000001
 43
0.0000001
 44
0.0000000001
 40
0.0
 40
0.0
 40
0.0
 40
0.0
 40
0.2599822429
 40
0.3916749421
 40
0.5179796525
 40
0.6455058676
 40
0.767712537
 40
1.0
 40
1.0
 40
1.0
 40
1.0
 10
34.4716989543
 20
64.4761597624
 30
0.0
 10
33.5251854029
 20
64.4055948248
 30
0.0
 10
32.0980372841
 20
64.314108316
 30
0.0
 10
30.2089954937
 20
64.2265271419
 30
0.0
 10
28.8023224758
 20
64.1783427637
 30
0.0
 10
27.4298405019
 20
64.1462085288
 30
0.0
 10
25.6702320681
 20
64.1219102347
 30
0.0
 10
24.3760473706
 20
64.1166129317
 30
0.0
 10
23.5280359923
 20
64.1106268987
 30
0.0
  0
SPLINE
  5
28B
100
AcDbEntity
  8
0
100
AcDbSpline
 62
7
  6
BYLAYER
 70
0
 71
3
 72
13
 73
9
 74
0
 42
0.0000001
 43
0.0000001
 44
0.0000000001
 40
0.0
 40
0.0
 40
0.0
 40
0.0
 40
0.3623023143
 40
0.5253766479
 40
0.6691854933
 40
0.7897248106
 40
0.8845369534
 40
1.0
 40
1.0
 40
1.0
 40
1.0
 10
74.3285623406
 20
46.8656000612
 30
0.0
 10
74.3344222364
 20
46.8421604782
 30
0.0
 10
74.3414612652
 20
46.807771527
 30
0.0
 10
74.346646561
 20
46.7633860397
 30
0.0
 10
74.3481027056
 20
46.7349890238
 30
0.0
 10
74.3469685021
 20
46.7107234204
 30
0.0
 10
74.3436307936
 20
46.6897795302
 30
0.0
 10
74.3359998928
 20
46.674407782
 30
0.0
 10
74.3285623405
 20
46.6724148959
 30
0.0
  0
SPLINE
  5
28C
100
AcDbEntity
  8
0
100
AcDbSpline
 62
7
  6
BYLAYER
 70
0
 71
3
 72
17
 73
13
 74
0
 42
0.0000001
 43
0.0000001
 44
0.0000000001
 40
0.0
 40
0.0
 40
0.0
 40
0.0
 40
0.1921885758
 40
0.3803564032
 40
0.5551879527
 40
0.706465056
 40
0.8252941793
 40
0.909128292
 40
0.9384348581
 40
0.9610976104
 40
0.9802025989
 40
1.0
 40
1.0
 40
1.0
 40
1.0
 10
73.6250347323
 20
65.6770904067
 30
0.0
 10
73.6221757336
 20
65.6643542393
 30
0.0
 10
73.6170535656
 20
65.6390257698
 30
0.0
 10
73.6110944322
 20
65.6017784105
 30
0.0
 10
73.6071817169
 20
65.5670629274
 30
0.0
 10
73.6055777396
 20
65.5368352382
 30
0.0
 10
73.6068119418
 20
65.512815324
 30
0.0
 10
73.6098727552
 20
65.4971865138
 30
0.0
 10
73.6138254004
 20
65.4887976266
 30
0.0
 10
73.617023939
 20
65.485043304
 30
0.0
 10
73.621001264
 20
65.4832800872
 30
0.0
 10
73.6237359345
 20
65.4835572296
 30
0.0
 10
73.6250347234
 20
65.483905239
 30
0.0
  0
SPLINE
  5
28D
100
AcDbEntity
  8
0
100
AcDbSpline
 62
7
  6
BYLAYER
 70
0
 71
3
 72
13
 73
9
 74
0
 42
0.0000001
 43
0.0000001
 44
0.0000000001
 40
0.0
 40
0.0
 40
0.0
 40
0.0
 40
0.3623023142
 40
0.5253766477
 40
0.6691854931
 40
0.7897248104
 40
0.8845369532
 40
1.0
 40
1.0
 40
1.0
 40
1.0
 10
74.3285623406
 20
65.8656000612
 30
0.0
 10
74.3344222364
 20
65.8421604781
 30
0.0
 10
74.3414612652
 20
65.8077715269
 30
0.0
 10
74.3466465611
 20
65.7633860397
 30
0.0
 10
74.3481027056
 20
65.7349890238
 30
0.0
 10
74.3469685022
 20
65.7107234204
 30
0.0
 10
74.3436307937
 20
65.6897795302
 30
0.0
 10
74.3359998929
 20
65.674407782
 30
0.0
 10
74.3285623406
 20
65.6724148959
 30
0.0
  0
SPLINE
  5
28E
100
AcDbEntity
  8
0
100
AcDbSpline
 62
7
  6
BYLAYER
 70
0
 71
3
 72
17
 73
13
 74
0
 42
0.0000001
 43
0.0000001
 44
0.0000000001
 40
0.0
 40
0.0
 40
0.0
 40
0.0
 40
0.1919130498
 40
0.379807655
 40
0.5545067511
 40
0.7057924433
 40
0.8246076927
 40
0.9082582121
 40
0.9374995867
 40
0.9602408137
 40
0.9796775517
 40
1.0
 40
1.0
 40
1.0
 40
1.0
 10
73.6250347234
 20
50.2112805385
 30
0.0
 10
73.622279032
 20
50.2240378094
 30
0.0
 10
73.6173179163
 20
50.2493933715
 30
0.0
 10
73.6114461915
 20
50.2866554381
 30
0.0
 10
73.6074135589
 20
50.3213724205
 30
0.0
 10
73.6055706845
 20
50.3516158857
 30
0.0
 10
73.6065829417
 20
50.3756606654
 30
0.0
 10
73.609544793
 20
50.3913251708
 30
0.0
 10
73.6135443162
 20
50.3996996646
 30
0.0
 10
73.6168324312
 20
50.4034255475
 30
0.0
 10
73.6209111669
 20
50.4051249803
 30
0.0
 10
73.6236997397
 20
50.4048234117
 30
0.0
 10
73.6250347233
 20
50.4044657039
 30
0.0
  0
SPLINE
  5
28F
100
AcDbEntity
  8
0
100
AcDbSpline
 62
7
  6
BYLAYER
 70
0
 71
3
 72
10
 73
6
 74
0
 42
0.0000001
 43
0.0000001
 44
0.0000000001
 40
0.0
 40
0.0
 40
0.0
 40
0.0
 40
0.3490265524
 40
0.635628684
 40
1.0
 40
1.0
 40
1.0
 40
1.0
 10
74.3285623406
 20
69.215956047
 30
0.0
 10
74.3359998929
 20
69.2139631609
 30
0.0
 10
74.3436330582
 20
69.1985864279
 30
0.0
 10
74.346961353
 20
69.1776632591
 30
0.0
 10
74.3476683956
 20
69.1630542919
 30
0.0
 10
74.3476683956
 20
69.1550158483
 30
0.0
  0
SPLINE
  5
290
100
AcDbEntity
  8
0
100
AcDbSpline
 62
7
  6
BYLAYER
 70
0
 71
3
 72
9
 73
5
 74
0
 42
0.0000001
 43
0.0000001
 44
0.0000000001
 40
0.0
 40
0.0
 40
0.0
 40
0.0
 40
0.4584395016
 40
1.0
 40
1.0
 40
1.0
 40
1.0
 10
74.3476683956
 20
69.1550158483
 30
0.0
 10
74.3476683956
 20
69.1345632069
 30
0.0
 10
74.3433073959
 20
69.0899821302
 30
0.0
 10
74.3344222363
 20
69.0462104646
 30
0.0
 10
74.3285623406
 20
69.0227708816
 30
0.0
  0
SPLINE
  5
291
100
AcDbEntity
  8
0
100
AcDbSpline
 62
7
  6
BYLAYER
 70
0
 71
3
 72
9
 73
5
 74
0
 42
0.0000001
 43
0.0000001
 44
0.0000000001
 40
0.0
 40
0.0
 40
0.0
 40
0.0
 40
0.501700374
 40
1.0
 40
1.0
 40
1.0
 40
1.0
 10
73.3784225593
 20
46.4441768945
 30
0.0
 10
73.4051579351
 20
46.4549682351
 30
0.0
 10
73.4580542184
 20
46.4776530903
 30
0.0
 10
73.5068377968
 20
46.5089162383
 30
0.0
 10
73.5290174434
 20
46.5270288272
 30
0.0
  0
SPLINE
  5
292
100
AcDbEntity
  8
0
100
AcDbSpline
 62
7
  6
BYLAYER
 70
0
 71
3
 72
9
 73
5
 74
0
 42
0.0000001
 43
0.0000001
 44
0.0000000001
 40
0.0
 40
0.0
 40
0.0
 40
0.0
 40
0.498724444
 40
1.0
 40
1.0
 40
1.0
 40
1.0
 10
73.5658375074
 20
46.5613310242
 30
0.0
 10
73.5788373366
 20
46.5751240911
 30
0.0
 10
73.6030978443
 20
46.6049504954
 30
0.0
 10
73.6169287431
 20
46.6411123025
 30
0.0
 10
73.62133474
 20
46.6596464902
 30
0.0
  0
SPLINE
  5
293
100
AcDbEntity
  8
0
100
AcDbSpline
 62
7
  6
BYLAYER
 70
0
 71
3
 72
11
 73
7
 74
0
 42
0.0000001
 43
0.0000001
 44
0.0000000001
 40
0.0
 40
0.0
 40
0.0
 40
0.0
 40
0.3416452509
 40
0.6340974019
 40
0.8582598543
 40
1.0
 40
1.0
 40
1.0
 40
1.0
 10
73.621334767
 20
46.6596465907
 30
0.0
 10
73.6055256551
 20
46.6592794318
 30
0.0
 10
73.5761961834
 20
46.6582785695
 30
0.0
 10
73.5365119995
 20
46.6559179823
 30
0.0
 10
73.5062394754
 20
46.6527975832
 30
0.0
 10
73.4894133714
 20
46.6501580971
 30
0.0
 10
73.4831496166
 20
46.6482070591
 30
0.0
  0
SPLINE
  5
294
100
AcDbEntity
  8
0
100
AcDbSpline
 62
7
  6
BYLAYER
 70
0
 71
3
 72
12
 73
8
 74
0
 42
0.0000001
 43
0.0000001
 44
0.0000000001
 40
0.0
 40
0.0
 40
0.0
 40
0.0
 40
0.029038507
 40
0.0828715471
 40
0.2785514732
 40
0.5885400238
 40
1.0
 40
1.0
 40
1.0
 40
1.0
 10
73.4767985324
 20
69.244185412
 30
0.0
 10
73.4767985322
 20
69.2434929249
 30
0.0
 10
73.4784151303
 20
69.2418503136
 30
0.0
 10
73.4844621874
 20
69.2395338177
 30
0.0
 10
73.4977446721
 20
69.2367522675
 30
0.0
 10
73.5193511222
 20
69.2340949979
 30
0.0
 10
73.536534803
 20
69.2326689758
 30
0.0
 10
73.5463234962
 20
69.2319906388
 30
0.0
  0
SPLINE
  5
295
100
AcDbEntity
  8
0
100
AcDbSpline
 62
7
  6
BYLAYER
 70
0
 71
3
 72
9
 73
5
 74
0
 42
0.0000001
 43
0.0000001
 44
0.0000000001
 40
0.0
 40
0.0
 40
0.0
 40
0.0
 40
0.2268721429
 40
1.0
 40
1.0
 40
1.0
 40
1.0
 10
73.5463234962
 20
69.2319906388
 30
0.0
 10
73.5519882275
 20
69.2315980842
 30
0.0
 10
73.5769705168
 20
69.2300629596
 30
0.0
 10
73.601989593
 20
69.2291736283
 30
0.0
 10
73.6213347681
 20
69.2287243456
 30
0.0
  0
SPLINE
  5
296
100
AcDbEntity
  8
0
100
AcDbSpline
 62
7
  6
BYLAYER
 70
0
 71
3
 72
9
 73
5
 74
0
 42
0.0000001
 43
0.0000001
 44
0.0000000001
 40
0.0
 40
0.0
 40
0.0
 40
0.0
 40
0.5012447224
 40
1.0
 40
1.0
 40
1.0
 40
1.0
 10
73.6213347567
 20
69.2287244051
 30
0.0
 10
73.6169416306
 20
69.2477649577
 30
0.0
 10
73.602189879
 20
69.2846917682
 30
0.0
 10
73.5772376777
 20
69.3151752331
 30
0.0
 10
73.5637844018
 20
69.3292133288
 30
0.0
  0
SPLINE
  5
297
100
AcDbEntity
  8
0
100
AcDbSpline
 62
7
  6
BYLAYER
 70
0
 71
3
 72
8
 73
4
 74
0
 42
0.0000001
 43
0.0000001
 44
0.0000000001
 40
0.0
 40
0.0
 40
0.0
 40
0.0
 40
1.0
 40
1.0
 40
1.0
 40
1.0
 10
73.5574244175
 20
69.3356896619
 30
0.0
 10
73.544199004
 20
69.3488337338
 30
0.0
 10
73.5299583152
 20
69.3610146355
 30
0.0
 10
73.5150109775
 20
69.3721616207
 30
0.0
  0
SPLINE
  5
298
100
AcDbEntity
  8
0
100
AcDbSpline
 62
7
  6
BYLAYER
 70
0
 71
3
 72
9
 73
5
 74
0
 42
0.0000001
 43
0.0000001
 44
0.0000000001
 40
0.0
 40
0.0
 40
0.0
 40
0.0
 40
0.4986395769
 40
1.0
 40
1.0
 40
1.0
 40
1.0
 10
73.5150109775
 20
69.3721616207
 30
0.0
 10
73.4943225545
 20
69.3875900234
 30
0.0
 10
73.4498771517
 20
69.4147142821
 30
0.0
 10
73.4020670494
 20
69.4347717184
 30
0.0
 10
73.3778872373
 20
69.4441882776
 30
0.0
  0
SPLINE
  5
299
100
AcDbEntity
  8
0
100
AcDbSpline
 62
7
  6
BYLAYER
 70
0
 71
3
 72
11
 73
7
 74
0
 42
0.0000001
 43
0.0000001
 44
0.0000000001
 40
0.0
 40
0.0
 40
0.0
 40
0.0
 40
0.2119196717
 40
0.4467411565
 40
0.7121333819
 40
1.0
 40
1.0
 40
1.0
 40
1.0
 10
38.3596412445
 20
69.4441854714
 30
0.0
 10
38.3425374976
 20
69.4441854714
 30
0.0
 10
38.3061003177
 20
69.4341471256
 30
0.0
 10
38.2620790447
 20
69.3949063392
 30
0.0
 10
38.231483349
 20
69.3380359562
 30
0.0
 10
38.2216634365
 20
69.2938728694
 30
0.0
 10
38.2194722536
 20
69.2707431067
 30
0.0
  0
SPLINE
  5
29A
100
AcDbEntity
  8
0
100
AcDbSpline
 62
7
  6
BYLAYER
 70
0
 71
3
 72
9
 73
5
 74
0
 42
0.0000001
 43
0.0000001
 44
0.0000000001
 40
0.0
 40
0.0
 40
0.0
 40
0.0
 40
0.533382679
 40
1.0
 40
1.0
 40
1.0
 40
1.0
 10
38.2182198887
 20
46.6441854715
 30
0.0
 10
38.2182198887
 20
46.6092944716
 30
0.0
 10
38.2298063534
 20
46.5432835258
 30
0.0
 10
38.2685146237
 20
46.4863395032
 30
0.0
 10
38.2928412222
 20
46.4679029881
 30
0.0
  0
ENDSEC
  0
SECTION
  2
OBJECTS
  0
DICTIONARY
  5
C
100
AcDbDictionary
280
0
281
1
  3
ACAD_GROUP
350
D
  3
ACAD_MLINESTYLE
350
17
  3
ACAD_LAYOUT
350
1A
  3
ACAD_PLOTSETTINGS
350
19
  3
ACAD_PLOTSTYLENAME
350
E
  0
DICTIONARY
  5
D
102
{ACAD_REACTORS
330
C
102
}
100
AcDbDictionary
280
0
281
1
  0
ACDBDICTIONARYWDFLT
  5
E
102
{ACAD_REACTORS
330
C
102
}
100
AcDbDictionary
281
1
  3
Normal
350
F
100
AcDbDictionaryWithDefault
340
F
  0
DICTIONARY
  5
17
102
{ACAD_REACTORS
330
C
102
}
100
AcDbDictionary
280
0
281
1
  3
Standard
350
18
  0
DICTIONARY
  5
19
102
{ACAD_REACTORS
330
C
102
}
100
AcDbDictionary
281
1
  0
DICTIONARY
  5
1A
102
{ACAD_REACTORS
330
C
102
}
100
AcDbDictionary
281
1
  3
Model
350
29B
  3
Layout1
350
29C
  0
ACDBPLACEHOLDER
  5
F
102
{ACAD_REACTORS
330
E
102
}
  0
MLINESTYLE
  5
18
102
{ACAD_REACTORS
330
17
102
}
100
AcDbMlineStyle
  2
STANDARD
 70
0
  3

 62
256
 51
90.0
 52
90.0
 71
2
 49
0.5
 62
256
  6
BYLAYER
 49
-0.5
 62
256
  6
BYLAYER
  0
LAYOUT
  5
29B
102
{ACAD_REACTORS
330
1A
102
}
100
AcDbPlotSettings
  1

  2
none_device
  4

  6

 40
0.0
 41
0.0
 42
0.0
 43
0.0
 44
210.0
 45
297.0
 46
0.0
 47
0.0
 48
0.0
 49
0.0
140
0.0
141
0.0
142
1.0
143
1.0
 70
1024
 72
1
 73
0
 74
0
  7

 75
0
147
1.0
148
0.0
149
0.0
100
AcDbLayout
  1
Model
 70
0
 71
0
 10
0.0
 20
0.0
 11
210.0
 21
297.0
 12
0.0
 22
0.0
 32
0.0
 14
0.0
 24
0.0
 34
0.0
 15
0.0
 25
0.0
 35
0.0
146
0.0
 13
0.0
 23
0.0
 33
0.0
 16
1.0
 26
0.0
 36
0.0
 17
0.0
 27
1.0
 37
0.0
 76
0
330
210
345
0
346
0
  0
LAYOUT
  5
29C
102
{ACAD_REACTORS
330
1A
102
}
100
AcDbPlotSettings
  1

  2
none_device
  4

  6

 40
0.0
 41
0.0
 42
0.0
 43
0.0
 44
210.0
 45
297.0
 46
0.0
 47
0.0
 48
0.0
 49
0.0
140
0.0
141
0.0
142
1.0
143
1.0
 70
0
 72
1
 73
0
 74
0
  7

 75
0
147
1.0
148
0.0
149
0.0
100
AcDbLayout
  1
Layout1
 70
0
 71
1
 10
0.0
 20
0.0
 11
210.0
 21
297.0
 12
0.0
 22
0.0
 32
0.0
 14
0.0
 24
0.0
 34
0.0
 15
0.0
 25
0.0
 35
0.0
146
0.0
 13
0.0
 23
0.0
 33
0.0
 16
1.0
 26
0.0
 36
0.0
 17
0.0
 27
1.0
 37
0.0
 76
0
330
211
345
0
346
0
  0
ENDSEC
  0
EOF
