999
DXF file: C:\Users\sesa63760\Dev\_Creo\CAD\MCADID0004767_3D-CAD\drw0001_5.dxf
999
Pro/ENGINEER 2019471 by Parametric Technology Corporation
  0
SECTION
  2
HEADER
  9
$ACADVER
  1
AC1024
  9
$DWGCODEPAGE
  3
ANSI_1252
  9
$EXTMAX
 10
55.7307398267
 20
78.8191891835
 30
0.0
  9
$EXTMIN
 10
0.0
 20
0.0
 30
0.0
  9
$LIMMIN
 10
0.0
 20
0.0
  9
$LIMMAX
 10
55.7307398267
 20
78.8191891835
  9
$VIEWCTR
 10
27.8653699134
 20
39.4095945918
  9
$VIEWSIZE
 40
78.8191891835
  9
$CLAYER
  8
0
  9
$LTSCALE
 40
5.1378434431
  9
$CELTYPE
  6
BYLAYER
  9
$DIMSCALE
 40
1.0
  9
$DIMASZ
 40
0.6634611884
  9
$DIMEXO
 40
1.0
  9
$DIMDLI
 40
3.5497827425
  9
$DIMEXE
 40
1.0
  9
$DIMCEN
 40
0.840738018
  9
$DIMLFAC
 40
1.0
  9
$DIMBLK
  1
_FILLED
  9
$DIMALT
 70
0
  9
$DIMALTF
 40
0.0393700787
  9
$DIMTXT
 40
0.9288456638
  9
$DIMTOL
 70
1
  9
$DIMLIM
 70
0
  9
$DIMTFAC
 40
1.0
  9
$DIMTP
 40
0.01
  9
$DIMTM
 40
0.01
  9
$DIMGAP
 40
0.625
  9
$DIMDSEP
 70
46
  9
$AUNITS
 70
0
  9
$PDMODE
 70
3
  9
$PDSIZE
 40
0.3125
  9
$HANDSEED
  5
2B1
  9
$TILEMODE
 70
1
  9
$MEASUREMENT
 70
1
  9
$INSUNITS
 70
4
  0
ENDSEC
  0
SECTION
  2
CLASSES
  0
CLASS
  1
ACDBDICTIONARYWDFLT
  2
AcDbDictionaryWithDefault
  3
AutoCAD 2000
 90
0
 91
1
280
0
281
0
  0
CLASS
  1
ACDBPLACEHOLDER
  2
AcDbPlaceHolder
  3
AutoCAD 2000
 90
0
 91
1
280
0
281
0
  0
CLASS
  1
LAYOUT
  2
AcDbLayout
  3
AutoCAD 2000
 90
0
 91
0
280
0
281
0
  0
ENDSEC
  0
SECTION
  2
TABLES
  0
TABLE
  2
VPORT
  5
8
100
AcDbSymbolTable
 70
2
  0
VPORT
  5
1F4
100
AcDbSymbolTableRecord
100
AcDbViewportTableRecord
  2
*ACTIVE
 70
0
 10
0.0
 20
0.0
 11
1.0
 21
1.0
 12
27.8653699134
 22
39.4095945918
 13
0.0
 23
0.0
 14
1.0
 24
1.0
 15
0.0
 25
0.0
 16
0.0
 26
0.0
 36
1.0
 17
0.0
 27
0.0
 37
0.0
 40
78.8191891835
 41
0.7070707071
 42
50.0
 43
0.0
 44
0.0
 50
0.0
 51
0.0
 71
0
 72
100
 73
1
 74
1
 75
0
 76
0
 77
0
 78
0
  0
ENDTAB
  0
TABLE
  2
LTYPE
  5
5
100
AcDbSymbolTable
 70
6
  0
LTYPE
  5
14
100
AcDbSymbolTableRecord
100
AcDbLinetypeTableRecord
  2
BYBLOCK
 70
0
  3

 72
65
 73
0
 40
0.0
  0
LTYPE
  5
15
100
AcDbSymbolTableRecord
100
AcDbLinetypeTableRecord
  2
BYLAYER
 70
0
  3

 72
65
 73
0
 40
0.0
  0
LTYPE
  5
16
100
AcDbSymbolTableRecord
100
AcDbLinetypeTableRecord
  2
CONTINUOUS
 70
64
  3
Solid line
 72
65
 73
0
 40
0.0
  0
LTYPE
  5
1F5
100
AcDbSymbolTableRecord
100
AcDbLinetypeTableRecord
  2
CENTER
 70
64
  3
____ _ ____ _ ____ _ ____ _ ____ _ ____ _ ____
 72
65
 73
4
 40
0.6
 49
0.375
 74
0
 49
-0.075
 74
0
 49
0.075
 74
0
 49
-0.075
 74
0
  0
LTYPE
  5
1F6
100
AcDbSymbolTableRecord
100
AcDbLinetypeTableRecord
  2
HIDDEN
 70
64
  3
- - - - - - - - - - - - - - - - - - - -
 72
65
 73
2
 40
0.2
 49
0.1
 74
0
 49
-0.1
 74
0
  0
LTYPE
  5
1F7
100
AcDbSymbolTableRecord
100
AcDbLinetypeTableRecord
  2
PHANTOM
 70
64
  3
_____ _ _ _____ _ _ _____ _ _ _____
 72
65
 73
6
 40
0.8
 49
0.45
 74
0
 49
-0.05
 74
0
 49
0.1
 74
0
 49
-0.05
 74
0
 49
0.1
 74
0
 49
-0.05
 74
0
  0
LTYPE
  5
1F8
100
AcDbSymbolTableRecord
100
AcDbLinetypeTableRecord
  2
DOT
 70
64
  3
. . . . . . . . . . . . . . . . . . . .
 72
65
 73
2
 40
0.2
 49
0.1
 74
0
 49
-0.1
 74
0
  0
LTYPE
  5
1F9
100
AcDbSymbolTableRecord
100
AcDbLinetypeTableRecord
  2
DASHED
 70
64
  3
- - - - - - - - - - - - - - - - - - - -
 72
65
 73
2
 40
0.2
 49
0.1
 74
0
 49
-0.1
 74
0
  0
ENDTAB
  0
TABLE
  2
LAYER
  5
2
100
AcDbSymbolTable
 70
36
  0
LAYER
  5
10
100
AcDbSymbolTableRecord
100
AcDbLayerTableRecord
  2
0
 70
0
 62
7
  6
CONTINUOUS
370
-3
390
F
  0
LAYER
  5
1FA
100
AcDbSymbolTableRecord
100
AcDbLayerTableRecord
  2
DEFAULT_1
 70
0
 62
7
  6
CENTER
370
-3
390
F
  0
LAYER
  5
1FB
100
AcDbSymbolTableRecord
100
AcDbLayerTableRecord
  2
DEFAULT_2
 70
0
 62
7
  6
HIDDEN
370
-3
390
F
  0
LAYER
  5
1FC
100
AcDbSymbolTableRecord
100
AcDbLayerTableRecord
  2
DEFAULT_3
 70
0
 62
7
  6
PHANTOM
370
-3
390
F
  0
LAYER
  5
1FD
100
AcDbSymbolTableRecord
100
AcDbLayerTableRecord
  2
00_COMPONENTS
 70
0
 62
7
  6
CONTINUOUS
370
-3
390
F
  0
LAYER
  5
1FE
100
AcDbSymbolTableRecord
100
AcDbLayerTableRecord
  2
01_1_DEFAULT_DATUMS
 70
0
 62
7
  6
CONTINUOUS
370
-3
390
F
  0
LAYER
  5
1FF
100
AcDbSymbolTableRecord
100
AcDbLayerTableRecord
  2
01_PLANES
 70
0
 62
7
  6
CONTINUOUS
370
-3
390
F
  0
LAYER
  5
200
100
AcDbSymbolTableRecord
100
AcDbLayerTableRecord
  2
02_COORD_SYS
 70
0
 62
7
  6
CONTINUOUS
370
-3
390
F
  0
LAYER
  5
201
100
AcDbSymbolTableRecord
100
AcDbLayerTableRecord
  2
03_AXES
 70
0
 62
7
  6
CONTINUOUS
370
-3
390
F
  0
LAYER
  5
202
100
AcDbSymbolTableRecord
100
AcDbLayerTableRecord
  2
04_POINTS
 70
0
 62
7
  6
CONTINUOUS
370
-3
390
F
  0
LAYER
  5
203
100
AcDbSymbolTableRecord
100
AcDbLayerTableRecord
  2
05_CURVES
 70
0
 62
7
  6
CONTINUOUS
370
-3
390
F
  0
LAYER
  5
204
100
AcDbSymbolTableRecord
100
AcDbLayerTableRecord
  2
06_SURFS
 70
0
 62
7
  6
CONTINUOUS
370
-3
390
F
  0
LAYER
  5
205
100
AcDbSymbolTableRecord
100
AcDbLayerTableRecord
  2
07_COSMETICS
 70
0
 62
7
  6
CONTINUOUS
370
-3
390
F
  0
LAYER
  5
206
100
AcDbSymbolTableRecord
100
AcDbLayerTableRecord
  2
10_NOTES
 70
0
 62
7
  6
CONTINUOUS
370
-3
390
F
  0
LAYER
  5
207
100
AcDbSymbolTableRecord
100
AcDbLayerTableRecord
  2
11_NOTES_PUB
 70
0
 62
7
  6
CONTINUOUS
370
-3
390
F
  0
LAYER
  5
208
100
AcDbSymbolTableRecord
100
AcDbLayerTableRecord
  2
13_REF_GTOL
 70
0
 62
7
  6
CONTINUOUS
370
-3
390
F
  0
LAYER
  5
209
100
AcDbSymbolTableRecord
100
AcDbLayerTableRecord
  2
16_MISC
 70
0
 62
7
  6
CONTINUOUS
370
-3
390
F
  0
LAYER
  5
20A
100
AcDbSymbolTableRecord
100
AcDbLayerTableRecord
  2
17_NO_PRINT
 70
0
 62
7
  6
CONTINUOUS
370
-3
390
F
  0
LAYER
  5
20B
100
AcDbSymbolTableRecord
100
AcDbLayerTableRecord
  2
18_DATUM_CAMS_JOINTS
 70
0
 62
7
  6
CONTINUOUS
370
-3
390
F
  0
LAYER
  5
20C
100
AcDbSymbolTableRecord
100
AcDbLayerTableRecord
  2
19_DATUM_FUNCTIONAL
 70
0
 62
7
  6
CONTINUOUS
370
-3
390
F
  0
LAYER
  5
20D
100
AcDbSymbolTableRecord
100
AcDbLayerTableRecord
  2
20_DATUM_KINEMATIC_SCHEME
 70
0
 62
7
  6
CONTINUOUS
370
-3
390
F
  0
ENDTAB
  0
TABLE
  2
STYLE
  5
3
100
AcDbSymbolTable
 70
1
  0
STYLE
  5
11
100
AcDbSymbolTableRecord
100
AcDbTextStyleTableRecord
  2
STANDARD
 70
0
 40
0.0
 41
1.0
 50
0.0
 71
0
 42
0.2
  3
ARIAL.TTF
  4

  0
STYLE
  5
20E
100
AcDbSymbolTableRecord
100
AcDbTextStyleTableRecord
  2
TEXTSTYLE_1
 70
0
 40
0.0
 41
0.8
 50
0.0
 71
0
 42
0.2
  3
gdt
  4

  0
ENDTAB
  0
TABLE
  2
VIEW
  5
6
100
AcDbSymbolTable
 70
0
  0
ENDTAB
  0
TABLE
  2
UCS
  5
7
100
AcDbSymbolTable
 70
0
  0
ENDTAB
  0
TABLE
  2
APPID
  5
9
100
AcDbSymbolTable
 70
1
  0
APPID
  5
20F
100
AcDbSymbolTableRecord
100
AcDbRegAppTableRecord
  2
ACAD
 70
0
  0
ENDTAB
  0
TABLE
  2
BLOCK_RECORD
  5
1
100
AcDbSymbolTable
 70
0
  0
BLOCK_RECORD
  5
210
100
AcDbSymbolTableRecord
100
AcDbBlockTableRecord
  2
*Model_Space
  0
BLOCK_RECORD
  5
211
100
AcDbSymbolTableRecord
100
AcDbBlockTableRecord
  2
*Paper_Space
  0
BLOCK_RECORD
  5
212
100
AcDbSymbolTableRecord
100
AcDbBlockTableRecord
  2
_FILLED
  0
ENDTAB
  0
TABLE
  2
DIMSTYLE
  5
A
100
AcDbSymbolTable
 70
1
100
AcDbDimStyleTable
 71
0
  0
DIMSTYLE
105
213
100
AcDbSymbolTableRecord
100
AcDbDimStyleTableRecord
  2
STANDARD
 70
0
  3

  4

 40
1.0
 41
0.6634611884
 42
1.0
 43
0.38
 44
1.0
 45
0.0
 46
0.0
 47
0.01
 48
0.01
140
0.9288456638
141
0.09
142
0.0
143
25.4
144
1.0
145
0.0
146
1.0
147
0.625
 71
1
 72
0
 73
0
 74
0
 75
0
 76
0
 77
1
 78
8
 79
2
170
0
171
1
172
0
173
0
174
0
175
0
176
0
177
0
178
0
270
2
179
2
271
2
272
2
273
2
274
2
275
0
280
0
281
0
282
0
283
1
284
8
285
0
286
0
287
3
288
0
340
11
278
46
341
212
342
212
343
212
344
212
  0
ENDTAB
  0
ENDSEC
  0
SECTION
  2
BLOCKS
  0
BLOCK
  5
20
100
AcDbEntity
  8
0
100
AcDbBlockBegin
  2
*Model_Space
 70
0
 10
0.0
 20
0.0
 30
0.0
  3
*Model_Space
  1

  0
ENDBLK
  5
21
100
AcDbEntity
  8
0
100
AcDbBlockEnd
  0
BLOCK
  5
1C
100
AcDbEntity
  8
0
100
AcDbBlockBegin
  2
*Paper_Space
 70
0
 10
0.0
 20
0.0
 30
0.0
  3
*Paper_Space
  1

  0
ENDBLK
  5
1D
100
AcDbEntity
  8
0
100
AcDbBlockEnd
  0
BLOCK
  5
214
100
AcDbEntity
  8
0
100
AcDbBlockBegin
  2
_FILLED
 70
64
 10
0.0
 20
0.0
  3
_FILLED
  1

  0
SOLID
  5
215
100
AcDbEntity
  8
0
  6
BYBLOCK
 62
0
100
AcDbTrace
 10
0.0
 20
0.0
 11
-1.0
 21
0.25
 12
-1.0
 22
-0.25
 13
-1.0
 23
-0.25
  0
ENDBLK
  5
216
100
AcDbEntity
  8
0
  6
BYBLOCK
 62
0
100
AcDbBlockEnd
  0
ENDSEC
  0
SECTION
  2
ENTITIES
  0
LINE
  5
217
100
AcDbEntity
  8
0
100
AcDbLine
 62
7
  6
BYLAYER
 10
31.4640861475
 20
6.4155153987
 11
18.7102363315
 21
6.4155153987
  0
LINE
  5
218
100
AcDbEntity
  8
0
100
AcDbLine
 62
7
  6
BYLAYER
 10
31.8148089744
 20
6.8286913098
 11
30.400595412
 21
6.8286913098
  0
LINE
  5
219
100
AcDbEntity
  8
0
100
AcDbLine
 62
7
  6
BYLAYER
 10
28.5438859651
 20
6.8286913098
 11
21.630436514
 21
6.8286913098
  0
LINE
  5
21A
100
AcDbEntity
  8
0
100
AcDbLine
 62
7
  6
BYLAYER
 10
19.773727067
 20
6.8286913098
 11
18.3595135047
 21
6.8286913098
  0
LINE
  5
21B
100
AcDbEntity
  8
0
100
AcDbLine
 62
7
  6
BYLAYER
 10
21.3115965368
 20
9.3523394875
 11
28.8627259423
 21
9.3523394875
  0
LINE
  5
21C
100
AcDbEntity
  8
0
100
AcDbLine
 62
7
  6
BYLAYER
 10
34.232405556
 20
9.7655153987
 11
15.9422607316
 21
9.7655153987
  0
LINE
  5
21D
100
AcDbEntity
  8
0
100
AcDbLine
 62
7
  6
BYLAYER
 10
34.665473403
 20
10.0155153987
 11
18.6770594089
 21
10.0155153987
  0
LINE
  5
21E
100
AcDbEntity
  8
0
100
AcDbLine
 62
7
  6
BYLAYER
 10
17.9699526278
 20
10.0155153987
 11
15.508849076
 21
10.0155153987
  0
LINE
  5
21F
100
AcDbEntity
  8
0
100
AcDbLine
 62
7
  6
BYLAYER
 10
14.9420145882
 20
10.9976527354
 11
17.5684799771
 21
10.9976527354
  0
LINE
  5
220
100
AcDbEntity
  8
0
100
AcDbLine
 62
7
  6
BYLAYER
 10
18.2755867583
 20
10.9976527354
 11
35.2325106588
 21
10.9976527354
  0
LINE
  5
221
100
AcDbEntity
  8
0
100
AcDbLine
 62
7
  6
BYLAYER
 10
35.2994218045
 20
11.2389265322
 11
18.2282162472
 21
11.2389265322
  0
LINE
  5
222
100
AcDbEntity
  8
0
100
AcDbLine
 62
7
  6
BYLAYER
 10
17.521109466
 20
11.2389265322
 11
14.8751047798
 21
11.2389265322
  0
LINE
  5
223
100
AcDbEntity
  8
0
100
AcDbLine
 62
7
  6
BYLAYER
 10
15.508849076
 20
10.0155153987
 11
14.9418118202
 21
10.9976527354
  0
LINE
  5
224
100
AcDbEntity
  8
0
100
AcDbLine
 62
7
  6
BYLAYER
 10
22.5871612395
 20
67.6186076326
 11
23.0871612395
 21
68.1186076326
  0
LINE
  5
225
100
AcDbEntity
  8
0
100
AcDbLine
 62
7
  6
BYLAYER
 10
35.3871612395
 20
16.2655153989
 11
18.1661012383
 21
16.2655153989
  0
LINE
  5
226
100
AcDbEntity
  8
0
100
AcDbLine
 62
7
  6
BYLAYER
 10
17.4589944571
 20
16.2655153989
 11
14.7871612395
 21
16.2655153989
  0
LINE
  5
227
100
AcDbEntity
  8
0
100
AcDbLine
 62
7
  6
BYLAYER
 10
37.0871160302
 20
16.6655153987
 11
30.6195826961
 21
16.6655153987
  0
LINE
  5
228
100
AcDbEntity
  8
0
100
AcDbLine
 62
7
  6
BYLAYER
 10
19.554739783
 20
16.6655153987
 11
13.0872064489
 21
16.6655153987
  0
LINE
  5
229
100
AcDbEntity
  8
0
100
AcDbLine
 62
7
  6
BYLAYER
 10
38.5871612395
 20
17.2655153987
 11
11.5871612395
 21
17.2655153987
  0
LINE
  5
22A
100
AcDbEntity
  8
0
100
AcDbLine
 62
7
  6
BYLAYER
 10
14.9418118202
 20
10.9976527354
 11
14.8749006746
 21
11.2389265322
  0
LINE
  5
22B
100
AcDbEntity
  8
0
100
AcDbLine
 62
7
  6
BYLAYER
 10
11.5871612395
 20
17.2655153987
 11
11.5871612395
 21
23.7655153987
  0
LINE
  5
22C
100
AcDbEntity
  8
0
100
AcDbLine
 62
7
  6
BYLAYER
 10
11.6371612395
 20
23.7655153987
 11
11.6371612395
 21
45.6655153987
  0
LINE
  5
22D
100
AcDbEntity
  8
0
100
AcDbLine
 62
7
  6
BYLAYER
 10
12.2870634279
 20
17.2655153987
 11
12.2870604941
 21
23.7655153987
  0
LINE
  5
22E
100
AcDbEntity
  8
0
100
AcDbLine
 62
7
  6
BYLAYER
 10
13.0871612395
 20
16.6655153987
 11
13.0871612395
 21
17.2655153987
  0
LINE
  5
22F
100
AcDbEntity
  8
0
100
AcDbLine
 62
7
  6
BYLAYER
 10
13.2458200934
 20
16.6655153987
 11
13.2458200934
 21
17.2655153987
  0
LINE
  5
230
100
AcDbEntity
  8
0
100
AcDbLine
 62
7
  6
BYLAYER
 10
13.4405596046
 20
16.6655153987
 11
13.4487640181
 21
17.2655153987
  0
LINE
  5
231
100
AcDbEntity
  8
0
100
AcDbLine
 62
7
  6
BYLAYER
 10
11.5871612395
 20
23.7655153987
 11
38.5871612395
 21
23.7655153987
  0
LINE
  5
232
100
AcDbEntity
  8
0
100
AcDbLine
 62
7
  6
BYLAYER
 10
14.8749006746
 20
11.2389265322
 11
14.7871612395
 21
16.2655153989
  0
LINE
  5
233
100
AcDbEntity
  8
0
100
AcDbLine
 62
7
  6
BYLAYER
 10
14.3064802652
 20
17.2655153987
 11
14.3064802652
 21
16.6655153987
  0
LINE
  5
234
100
AcDbEntity
  8
0
100
AcDbLine
 62
7
  6
BYLAYER
 10
14.7871612395
 20
16.2655153989
 11
14.7871612395
 21
16.6655153987
  0
LINE
  5
235
100
AcDbEntity
  8
0
100
AcDbLine
 62
7
  6
BYLAYER
 10
15.6047993297
 20
16.6655153987
 11
15.6047993297
 21
17.2655153987
  0
LINE
  5
236
100
AcDbEntity
  8
0
100
AcDbLine
 62
7
  6
BYLAYER
 10
31.8371612395
 20
25.7655153987
 11
38.5371612395
 21
25.7655153987
  0
LINE
  5
237
100
AcDbEntity
  8
0
100
AcDbLine
 62
7
  6
BYLAYER
 10
17.4589944571
 20
16.265515399
 11
17.521109466
 21
11.2389265322
  0
LINE
  5
238
100
AcDbEntity
  8
0
100
AcDbLine
 62
7
  6
BYLAYER
 10
18.2282163524
 20
11.2389180217
 11
18.1661012383
 21
16.265515399
  0
LINE
  5
239
100
AcDbEntity
  8
0
100
AcDbLine
 62
7
  6
BYLAYER
 10
17.4589944571
 20
16.265515399
 11
17.4589944571
 21
16.6655153987
  0
LINE
  5
23A
100
AcDbEntity
  8
0
100
AcDbLine
 62
7
  6
BYLAYER
 10
18.0246798821
 20
9.9141450732
 11
18.0246798821
 21
16.6655153987
  0
LINE
  5
23B
100
AcDbEntity
  8
0
100
AcDbLine
 62
7
  6
BYLAYER
 10
18.1661012383
 20
16.6655153987
 11
18.1661012383
 21
16.265515399
  0
LINE
  5
23C
100
AcDbEntity
  8
0
100
AcDbLine
 62
7
  6
BYLAYER
 10
18.3371612395
 20
43.1655153987
 11
18.3371612395
 21
45.6655153987
  0
LINE
  5
23D
100
AcDbEntity
  8
0
100
AcDbLine
 62
7
  6
BYLAYER
 10
19.554739783
 20
17.2655153987
 11
19.554739783
 21
16.6655153987
  0
LINE
  5
23E
100
AcDbEntity
  8
0
100
AcDbLine
 62
7
  6
BYLAYER
 10
39.2871612395
 20
30.1890162857
 11
37.2871612395
 21
30.1890162857
  0
LINE
  5
23F
100
AcDbEntity
  8
0
100
AcDbLine
 62
7
  6
BYLAYER
 10
37.2871612395
 20
30.3237220672
 11
39.2871612395
 21
30.3237220672
  0
LINE
  5
240
100
AcDbEntity
  8
0
100
AcDbLine
 62
7
  6
BYLAYER
 10
22.5871612395
 20
58.6186650139
 11
22.5871612395
 21
67.6185502513
  0
LINE
  5
241
100
AcDbEntity
  8
0
100
AcDbLine
 62
7
  6
BYLAYER
 10
23.0871612395
 20
58.1186076326
 11
23.0871612395
 21
68.1186076326
  0
LINE
  5
242
100
AcDbEntity
  8
0
100
AcDbLine
 62
7
  6
BYLAYER
 10
36.7871612395
 20
33.1655153987
 11
37.2871612395
 21
33.1655153987
  0
LINE
  5
243
100
AcDbEntity
  8
0
100
AcDbLine
 62
7
  6
BYLAYER
 10
34.6871580539
 20
33.5405153987
 11
33.3371612395
 21
33.5405153987
  0
LINE
  5
244
100
AcDbEntity
  8
0
100
AcDbLine
 62
7
  6
BYLAYER
 10
39.7490414549
 20
34.1655153987
 11
41.5252810242
 21
34.1655153987
  0
LINE
  5
245
100
AcDbEntity
  8
0
100
AcDbLine
 62
7
  6
BYLAYER
 10
24.0871612395
 20
68.118604873
 11
24.0871612395
 21
58.1186103922
  0
LINE
  5
246
100
AcDbEntity
  8
0
100
AcDbLine
 62
7
  6
BYLAYER
 10
24.7871612395
 20
58.6186464963
 11
24.7871612395
 21
67.618568769
  0
LINE
  5
247
100
AcDbEntity
  8
0
100
AcDbLine
 62
7
  6
BYLAYER
 10
25.2871612395
 20
53.6186867866
 11
25.2871612395
 21
72.6185284786
  0
LINE
  5
248
100
AcDbEntity
  8
0
100
AcDbLine
 62
7
  6
BYLAYER
 10
34.9871612395
 20
35.0091452405
 11
36.4871595411
 21
35.0091452405
  0
LINE
  5
249
100
AcDbEntity
  8
0
100
AcDbLine
 62
7
  6
BYLAYER
 10
45.287130064
 20
35.6655153987
 11
41.9871612395
 21
35.6655153987
  0
LINE
  5
24A
100
AcDbEntity
  8
0
100
AcDbLine
 62
7
  6
BYLAYER
 10
39.7490414549
 20
36.1655153987
 11
41.5252810242
 21
36.1655153987
  0
LINE
  5
24B
100
AcDbEntity
  8
0
100
AcDbLine
 62
7
  6
BYLAYER
 10
39.2871612395
 20
37.5527659391
 11
37.2871612395
 21
37.5527659391
  0
LINE
  5
24C
100
AcDbEntity
  8
0
100
AcDbLine
 62
7
  6
BYLAYER
 10
39.2871612395
 20
39.5573549804
 11
37.2871612395
 21
39.5573549804
  0
LINE
  5
24D
100
AcDbEntity
  8
0
100
AcDbLine
 62
7
  6
BYLAYER
 10
37.2871612395
 20
39.7486380557
 11
39.2871612395
 21
39.7486380557
  0
LINE
  5
24E
100
AcDbEntity
  8
0
100
AcDbLine
 62
7
  6
BYLAYER
 10
30.2871612395
 20
72.6185284786
 11
30.2871612395
 21
53.6186867866
  0
LINE
  5
24F
100
AcDbEntity
  8
0
100
AcDbLine
 62
7
  6
BYLAYER
 10
30.6195826961
 20
16.6655153987
 11
30.6195826961
 21
17.2655153987
  0
LINE
  5
250
100
AcDbEntity
  8
0
100
AcDbLine
 62
7
  6
BYLAYER
 10
39.7490414549
 20
40.1655153987
 11
41.5252810242
 21
40.1655153987
  0
LINE
  5
251
100
AcDbEntity
  8
0
100
AcDbLine
 62
7
  6
BYLAYER
 10
45.287130064
 20
40.6655153987
 11
41.9871612395
 21
40.6655153987
  0
LINE
  5
252
100
AcDbEntity
  8
0
100
AcDbLine
 62
7
  6
BYLAYER
 10
36.4871595411
 20
42.1655153987
 11
34.9871612395
 21
42.1655153987
  0
LINE
  5
253
100
AcDbEntity
  8
0
100
AcDbLine
 62
7
  6
BYLAYER
 10
39.7490414549
 20
42.1655153987
 11
41.5252810242
 21
42.1655153987
  0
LINE
  5
254
100
AcDbEntity
  8
0
100
AcDbLine
 62
7
  6
BYLAYER
 10
31.8371612395
 20
25.7655153987
 11
31.8371612395
 21
45.6655153987
  0
LINE
  5
255
100
AcDbEntity
  8
0
100
AcDbLine
 62
7
  6
BYLAYER
 10
32.2871612395
 20
58.6616514708
 11
32.2871612395
 21
68.1185297026
  0
LINE
  5
256
100
AcDbEntity
  8
0
100
AcDbLine
 62
7
  6
BYLAYER
 10
33.3371612395
 20
25.7655153987
 11
33.3371612395
 21
45.6655153987
  0
LINE
  5
257
100
AcDbEntity
  8
0
100
AcDbLine
 62
7
  6
BYLAYER
 10
33.7871612395
 20
65.1686049006
 11
33.7871612395
 21
61.0686103646
  0
LINE
  5
258
100
AcDbEntity
  8
0
100
AcDbLine
 62
7
  6
BYLAYER
 10
34.6871580539
 20
42.7905153987
 11
33.3371612395
 21
42.7905153987
  0
LINE
  5
259
100
AcDbEntity
  8
0
100
AcDbLine
 62
7
  6
BYLAYER
 10
39.2871612395
 20
42.9875837661
 11
37.2871612395
 21
42.9875837661
  0
LINE
  5
25A
100
AcDbEntity
  8
0
100
AcDbLine
 62
7
  6
BYLAYER
 10
18.3371612395
 20
43.1655153987
 11
11.6371612395
 21
43.1655153987
  0
LINE
  5
25B
100
AcDbEntity
  8
0
100
AcDbLine
 62
7
  6
BYLAYER
 10
36.7871612395
 20
43.1655153987
 11
37.2871612395
 21
43.1655153987
  0
LINE
  5
25C
100
AcDbEntity
  8
0
100
AcDbLine
 62
7
  6
BYLAYER
 10
34.5695231493
 20
17.2655153987
 11
34.5695231493
 21
16.6655153987
  0
LINE
  5
25D
100
AcDbEntity
  8
0
100
AcDbLine
 62
7
  6
BYLAYER
 10
34.6871580539
 20
42.7905153987
 11
34.6871580539
 21
33.5405153987
  0
LINE
  5
25E
100
AcDbEntity
  8
0
100
AcDbLine
 62
7
  6
BYLAYER
 10
34.9871612395
 20
42.4903599481
 11
34.9871612395
 21
33.8405996868
  0
LINE
  5
25F
100
AcDbEntity
  8
0
100
AcDbLine
 62
7
  6
BYLAYER
 10
35.3871612395
 20
16.6655153987
 11
35.3871612395
 21
16.2655153989
  0
LINE
  5
260
100
AcDbEntity
  8
0
100
AcDbLine
 62
7
  6
BYLAYER
 10
35.8678422138
 20
16.6655153987
 11
35.8678422138
 21
17.2655153987
  0
LINE
  5
261
100
AcDbEntity
  8
0
100
AcDbLine
 62
7
  6
BYLAYER
 10
35.3871612395
 20
16.2655153989
 11
35.2994218045
 21
11.2389265322
  0
LINE
  5
262
100
AcDbEntity
  8
0
100
AcDbLine
 62
7
  6
BYLAYER
 10
11.6371612395
 20
45.6655153987
 11
33.3371612395
 21
45.6655153987
  0
LINE
  5
263
100
AcDbEntity
  8
0
100
AcDbLine
 62
7
  6
BYLAYER
 10
34.9871612395
 20
42.4905124196
 11
34.6871580539
 21
42.7905153987
  0
LINE
  5
264
100
AcDbEntity
  8
0
100
AcDbLine
 62
7
  6
BYLAYER
 10
36.7871612395
 20
41.8655138276
 11
36.4871595411
 21
42.1655153987
  0
LINE
  5
265
100
AcDbEntity
  8
0
100
AcDbLine
 62
7
  6
BYLAYER
 10
39.2871612395
 20
34.9655153987
 11
39.7490414549
 21
34.1655153987
  0
LINE
  5
266
100
AcDbEntity
  8
0
100
AcDbLine
 62
7
  6
BYLAYER
 10
36.7255584609
 20
17.2655153987
 11
36.7337628745
 21
16.6655153987
  0
LINE
  5
267
100
AcDbEntity
  8
0
100
AcDbLine
 62
7
  6
BYLAYER
 10
36.4871595411
 20
42.1655153987
 11
36.4871595411
 21
35.0091452405
  0
LINE
  5
268
100
AcDbEntity
  8
0
100
AcDbLine
 62
7
  6
BYLAYER
 10
36.7871612395
 20
33.1655566998
 11
36.7871612395
 21
43.1654740975
  0
LINE
  5
269
100
AcDbEntity
  8
0
100
AcDbLine
 62
7
  6
BYLAYER
 10
36.9285023856
 20
17.2655153987
 11
36.9285023856
 21
16.6655153987
  0
LINE
  5
26A
100
AcDbEntity
  8
0
100
AcDbLine
 62
7
  6
BYLAYER
 10
37.0871612395
 20
16.6655153987
 11
37.0871612395
 21
17.2655153987
  0
LINE
  5
26B
100
AcDbEntity
  8
0
100
AcDbLine
 62
7
  6
BYLAYER
 10
37.2871612395
 20
39.5573549804
 11
37.2871612395
 21
37.9757027064
  0
LINE
  5
26C
100
AcDbEntity
  8
0
100
AcDbLine
 62
7
  6
BYLAYER
 10
37.2871612395
 20
30.1890162857
 11
37.2871612395
 21
37.5527659391
  0
LINE
  5
26D
100
AcDbEntity
  8
0
100
AcDbLine
 62
7
  6
BYLAYER
 10
37.2871612395
 20
39.5591818196
 11
37.2871612395
 21
49.6084543962
  0
LINE
  5
26E
100
AcDbEntity
  8
0
100
AcDbLine
 62
7
  6
BYLAYER
 10
37.8872590518
 20
23.7655153987
 11
37.8872590518
 21
17.2655153987
  0
LINE
  5
26F
100
AcDbEntity
  8
0
100
AcDbLine
 62
7
  6
BYLAYER
 10
38.5371612395
 20
23.7655153987
 11
38.5371612395
 21
25.7655153987
  0
LINE
  5
270
100
AcDbEntity
  8
0
100
AcDbLine
 62
7
  6
BYLAYER
 10
38.5871612395
 20
17.2655153987
 11
38.5871612395
 21
23.7655153987
  0
LINE
  5
271
100
AcDbEntity
  8
0
100
AcDbLine
 62
7
  6
BYLAYER
 10
39.2871612395
 20
41.3655153987
 11
39.7490414549
 21
42.1655153987
  0
LINE
  5
272
100
AcDbEntity
  8
0
100
AcDbLine
 62
7
  6
BYLAYER
 10
34.9871612395
 20
33.8405183777
 11
34.6871580539
 21
33.5405153987
  0
LINE
  5
273
100
AcDbEntity
  8
0
100
AcDbLine
 62
7
  6
BYLAYER
 10
39.2871612395
 20
48.4028702182
 11
37.2871612395
 21
48.4028702182
  0
LINE
  5
274
100
AcDbEntity
  8
0
100
AcDbLine
 62
7
  6
BYLAYER
 10
22.5871612395
 20
58.6186076326
 11
23.0871612395
 21
58.1186076326
  0
LINE
  5
275
100
AcDbEntity
  8
0
100
AcDbLine
 62
7
  6
BYLAYER
 10
39.2871612395
 20
30.1890162857
 11
39.2871612395
 21
50.3350290223
  0
LINE
  5
276
100
AcDbEntity
  8
0
100
AcDbLine
 62
7
  6
BYLAYER
 10
45.6871612395
 20
40.2654892115
 11
45.287130064
 21
40.6655153987
  0
LINE
  5
277
100
AcDbEntity
  8
0
100
AcDbLine
 62
7
  6
BYLAYER
 10
37.2871612395
 20
48.996155389
 11
30.2871612395
 21
57.3227778375
  0
LINE
  5
278
100
AcDbEntity
  8
0
100
AcDbLine
 62
7
  6
BYLAYER
 10
41.9871612395
 20
41.3655153987
 11
41.5252810242
 21
42.1655153987
  0
LINE
  5
279
100
AcDbEntity
  8
0
100
AcDbLine
 62
7
  6
BYLAYER
 10
41.9871612395
 20
41.3655136284
 11
41.9871612395
 21
34.9655171689
  0
LINE
  5
27A
100
AcDbEntity
  8
0
100
AcDbLine
 62
7
  6
BYLAYER
 10
35.2325106588
 20
10.9976527354
 11
35.2994218045
 21
11.2389265322
  0
LINE
  5
27B
100
AcDbEntity
  8
0
100
AcDbLine
 62
7
  6
BYLAYER
 10
41.9871612395
 20
34.9655153987
 11
41.5252810242
 21
34.1655153987
  0
LINE
  5
27C
100
AcDbEntity
  8
0
100
AcDbLine
 62
7
  6
BYLAYER
 10
45.6871612395
 20
36.0655415858
 11
45.287130064
 21
35.6655153987
  0
LINE
  5
27D
100
AcDbEntity
  8
0
100
AcDbLine
 62
7
  6
BYLAYER
 10
30.2871612395
 20
53.6186076326
 11
25.2871612395
 21
53.6186076326
  0
LINE
  5
27E
100
AcDbEntity
  8
0
100
AcDbLine
 62
7
  6
BYLAYER
 10
30.2871612395
 20
57.9350768447
 11
37.2871612395
 21
49.6084543962
  0
LINE
  5
27F
100
AcDbEntity
  8
0
100
AcDbLine
 62
7
  6
BYLAYER
 10
39.2871612395
 20
50.3350290223
 11
32.2871612395
 21
58.6616514708
  0
LINE
  5
280
100
AcDbEntity
  8
0
100
AcDbLine
 62
7
  6
BYLAYER
 10
45.287130064
 20
40.6655153987
 11
45.287130064
 21
35.6655153987
  0
LINE
  5
281
100
AcDbEntity
  8
0
100
AcDbLine
 62
7
  6
BYLAYER
 10
45.6871612395
 20
40.2653679364
 11
45.6871612395
 21
36.0656628609
  0
LINE
  5
282
100
AcDbEntity
  8
0
100
AcDbLine
 62
7
  6
BYLAYER
 10
35.2325106588
 20
10.9976527354
 11
34.665473403
 21
10.0155153987
  0
LINE
  5
283
100
AcDbEntity
  8
0
100
AcDbLine
 62
7
  6
BYLAYER
 10
23.0871612395
 20
58.1186076326
 11
24.0871612395
 21
58.1186076326
  0
LINE
  5
284
100
AcDbEntity
  8
0
100
AcDbLine
 62
7
  6
BYLAYER
 10
25.2871612395
 20
58.6186076326
 11
24.7871612395
 21
58.6186076326
  0
LINE
  5
285
100
AcDbEntity
  8
0
100
AcDbLine
 62
7
  6
BYLAYER
 10
24.0871612395
 20
60.1286076326
 11
24.7871612395
 21
60.1286076326
  0
LINE
  5
286
100
AcDbEntity
  8
0
100
AcDbLine
 62
7
  6
BYLAYER
 10
32.2871612395
 20
61.0686076326
 11
33.7871612395
 21
61.0686076326
  0
LINE
  5
287
100
AcDbEntity
  8
0
100
AcDbLine
 62
7
  6
BYLAYER
 10
30.2871612395
 20
63.4247571362
 11
32.2871612395
 21
63.4247571362
  0
LINE
  5
288
100
AcDbEntity
  8
0
100
AcDbLine
 62
7
  6
BYLAYER
 10
32.2871612395
 20
65.1686076326
 11
33.7871612395
 21
65.1686076326
  0
LINE
  5
289
100
AcDbEntity
  8
0
100
AcDbLine
 62
7
  6
BYLAYER
 10
24.0871612395
 20
66.1086076326
 11
24.7871612395
 21
66.1086076326
  0
LINE
  5
28A
100
AcDbEntity
  8
0
100
AcDbLine
 62
7
  6
BYLAYER
 10
25.2871612395
 20
67.6186076326
 11
24.7871612395
 21
67.6186076326
  0
LINE
  5
28B
100
AcDbEntity
  8
0
100
AcDbLine
 62
7
  6
BYLAYER
 10
23.0871612395
 20
68.1186076326
 11
24.0871612395
 21
68.1186076326
  0
LINE
  5
28C
100
AcDbEntity
  8
0
100
AcDbLine
 62
7
  6
BYLAYER
 10
30.2871612395
 20
68.1186076326
 11
32.2871612395
 21
68.1186076326
  0
LINE
  5
28D
100
AcDbEntity
  8
0
100
AcDbLine
 62
7
  6
BYLAYER
 10
30.2871612395
 20
72.6186076326
 11
25.2871612395
 21
72.6186076326
  0
ARC
  5
28E
100
AcDbEntity
  8
0
100
AcDbCircle
 62
7
  6
BYLAYER
 10
34.026131179
 20
61.6696111982
 40
26.7738138054
100
AcDbArc
 50
275.2740286583
 51
275.9191085839
  0
ARC
  5
28F
100
AcDbEntity
  8
0
100
AcDbCircle
 62
7
  6
BYLAYER
 10
18.384576531
 20
14.5993671963
 40
4.6980694858
100
AcDbArc
 50
269.922640198
 51
274.2382999183
  0
ARC
  5
290
100
AcDbEntity
  8
0
100
AcDbCircle
 62
7
  6
BYLAYER
 10
15.9418617779
 20
10.2655153987
 40
0.5
100
AcDbArc
 50
210.0
 51
270.0
  0
ARC
  5
291
100
AcDbEntity
  8
0
100
AcDbCircle
 62
7
  6
BYLAYER
 10
34.2324607011
 20
10.2655153987
 40
0.5
100
AcDbArc
 50
270.0
 51
330.0
  0
SPLINE
  5
292
100
AcDbEntity
  8
0
100
AcDbSpline
 62
7
  6
BYLAYER
 70
0
 71
3
 72
19
 73
15
 74
0
 42
0.0000001
 43
0.0000001
 44
0.0000000001
 40
0.0
 40
0.0
 40
0.0
 40
0.0
 40
0.1307723045
 40
0.2571511151
 40
0.3188552458
 40
0.3797385092
 40
0.4400271422
 40
0.5000014919
 40
0.5599759069
 40
0.6202640901
 40
0.681147172
 40
0.7428509158
 40
0.869228687
 40
1.0
 40
1.0
 40
1.0
 40
1.0
 10
41.5252810242
 20
36.1655153987
 30
0.0
 10
41.5714334784
 20
36.085577003
 30
0.0
 10
41.6561944588
 20
35.9247798556
 30
0.0
 10
41.7400387978
 20
35.7152798626
 30
0.0
 10
41.7885826012
 20
35.5462441896
 30
0.0
 10
41.8149715981
 20
35.4197565661
 30
0.0
 10
41.8310747655
 20
35.2927694154
 30
0.0
 10
41.8364675224
 20
35.1655121278
 30
0.0
 10
41.8310760216
 20
35.0382549456
 30
0.0
 10
41.8149693916
 20
34.9112687153
 30
0.0
 10
41.7885839307
 20
34.7847810998
 30
0.0
 10
41.740036056
 20
34.6157476722
 30
0.0
 10
41.6561940172
 20
34.4062489028
 30
0.0
 10
41.5714331285
 20
34.2454531883
 30
0.0
 10
41.5252810242
 20
34.1655153987
 30
0.0
  0
SPLINE
  5
293
100
AcDbEntity
  8
0
100
AcDbSpline
 62
7
  6
BYLAYER
 70
0
 71
3
 72
11
 73
7
 74
0
 42
0.0000001
 43
0.0000001
 44
0.0000000001
 40
0.0
 40
0.0
 40
0.0
 40
0.0
 40
0.2499913686
 40
0.4999857266
 40
0.7499885435
 40
1.0
 40
1.0
 40
1.0
 40
1.0
 10
41.8346821009
 20
38.1655153987
 30
0.0
 10
41.8346821009
 20
37.9963371004
 30
0.0
 10
41.8202483216
 20
37.6578130412
 30
0.0
 10
41.7573026904
 20
37.1536998722
 30
0.0
 10
41.6581786643
 20
36.6555389555
 30
0.0
 10
41.5722064122
 20
36.3280697109
 30
0.0
 10
41.5252810242
 20
36.1655153987
 30
0.0
  0
SPLINE
  5
294
100
AcDbEntity
  8
0
100
AcDbSpline
 62
7
  6
BYLAYER
 70
0
 71
3
 72
11
 73
7
 74
0
 42
0.0000001
 43
0.0000001
 44
0.0000000001
 40
0.0
 40
0.0
 40
0.0
 40
0.0
 40
0.2500114931
 40
0.5000143325
 40
0.7500086862
 40
1.0
 40
1.0
 40
1.0
 40
1.0
 10
39.7490414549
 20
36.1655153987
 30
0.0
 10
39.70211606
 20
36.3280697348
 30
0.0
 10
39.6161437888
 20
36.6555390158
 30
0.0
 10
39.5170197642
 20
37.1536999715
 30
0.0
 10
39.4540741585
 20
37.6578131186
 30
0.0
 10
39.4396403781
 20
37.9963371374
 30
0.0
 10
39.4396403781
 20
38.1655153987
 30
0.0
  0
SPLINE
  5
295
100
AcDbEntity
  8
0
100
AcDbSpline
 62
7
  6
BYLAYER
 70
0
 71
3
 72
19
 73
15
 74
0
 42
0.0000001
 43
0.0000001
 44
0.0000000001
 40
0.0
 40
0.0
 40
0.0
 40
0.0
 40
0.1307723242
 40
0.2571511129
 40
0.3188552547
 40
0.3797385161
 40
0.4400271435
 40
0.5000014946
 40
0.5599759075
 40
0.6202640939
 40
0.6811471796
 40
0.7428509133
 40
0.8692287029
 40
1.0
 40
1.0
 40
1.0
 40
1.0
 10
39.7490414549
 20
34.1655153987
 30
0.0
 10
39.7028889936
 20
34.2454538064
 30
0.0
 10
39.618127801
 20
34.4062508531
 30
0.0
 10
39.5342837949
 20
34.6157509838
 30
0.0
 10
39.4857398336
 20
34.7847865957
 30
0.0
 10
39.4593508385
 20
34.9112742294
 30
0.0
 10
39.4432478247
 20
35.0382613927
 30
0.0
 10
39.4378549676
 20
35.1655186647
 30
0.0
 10
39.4432463339
 20
35.29277586
 30
0.0
 10
39.459353107
 20
35.4197620804
 30
0.0
 10
39.4857386311
 20
35.5462496727
 30
0.0
 10
39.5342863101
 20
35.7152831693
 30
0.0
 10
39.6181286564
 20
35.9247818158
 30
0.0
 10
39.7028893561
 20
36.0855776188
 30
0.0
 10
39.7490414549
 20
36.1655153987
 30
0.0
  0
SPLINE
  5
296
100
AcDbEntity
  8
0
100
AcDbSpline
 62
7
  6
BYLAYER
 70
0
 71
3
 72
11
 73
7
 74
0
 42
0.0000001
 43
0.0000001
 44
0.0000000001
 40
0.0
 40
0.0
 40
0.0
 40
0.0
 40
0.250011602
 40
0.5000143442
 40
0.7500087087
 40
1.0
 40
1.0
 40
1.0
 40
1.0
 10
41.5252810242
 20
40.1655153987
 30
0.0
 10
41.5722064401
 20
40.0029609896
 30
0.0
 10
41.6581795854
 20
39.6754919192
 30
0.0
 10
41.7573027682
 20
39.1773307412
 30
0.0
 10
41.8202479953
 20
38.6732176494
 30
0.0
 10
41.8346821009
 20
38.3346936469
 30
0.0
 10
41.8346821009
 20
38.1655153987
 30
0.0
  0
SPLINE
  5
297
100
AcDbEntity
  8
0
100
AcDbSpline
 62
7
  6
BYLAYER
 70
0
 71
3
 72
19
 73
15
 74
0
 42
0.0000001
 43
0.0000001
 44
0.0000000001
 40
0.0
 40
0.0
 40
0.0
 40
0.0
 40
0.1307723045
 40
0.2571511151
 40
0.3188552458
 40
0.3797385092
 40
0.4400271422
 40
0.5000014919
 40
0.5599759069
 40
0.6202640901
 40
0.681147172
 40
0.7428509158
 40
0.869228687
 40
1.0
 40
1.0
 40
1.0
 40
1.0
 10
41.5252810242
 20
42.1655153987
 30
0.0
 10
41.5714334784
 20
42.085577003
 30
0.0
 10
41.6561944588
 20
41.9247798556
 30
0.0
 10
41.7400387978
 20
41.7152798626
 30
0.0
 10
41.7885826012
 20
41.5462441896
 30
0.0
 10
41.8149715981
 20
41.4197565661
 30
0.0
 10
41.8310747655
 20
41.2927694154
 30
0.0
 10
41.8364675224
 20
41.1655121278
 30
0.0
 10
41.8310760216
 20
41.0382549456
 30
0.0
 10
41.8149693916
 20
40.9112687153
 30
0.0
 10
41.7885839307
 20
40.7847810998
 30
0.0
 10
41.740036056
 20
40.6157476722
 30
0.0
 10
41.6561940172
 20
40.4062489028
 30
0.0
 10
41.5714331285
 20
40.2454531883
 30
0.0
 10
41.5252810242
 20
40.1655153987
 30
0.0
  0
SPLINE
  5
298
100
AcDbEntity
  8
0
100
AcDbSpline
 62
7
  6
BYLAYER
 70
0
 71
3
 72
19
 73
15
 74
0
 42
0.0000001
 43
0.0000001
 44
0.0000000001
 40
0.0
 40
0.0
 40
0.0
 40
0.0
 40
0.1307723242
 40
0.2571511129
 40
0.3188552547
 40
0.3797385161
 40
0.4400271435
 40
0.5000014946
 40
0.5599759075
 40
0.6202640939
 40
0.6811471796
 40
0.7428509133
 40
0.8692287029
 40
1.0
 40
1.0
 40
1.0
 40
1.0
 10
39.7490414549
 20
40.1655153987
 30
0.0
 10
39.7028889936
 20
40.2454538064
 30
0.0
 10
39.618127801
 20
40.4062508531
 30
0.0
 10
39.5342837949
 20
40.6157509838
 30
0.0
 10
39.4857398336
 20
40.7847865957
 30
0.0
 10
39.4593508385
 20
40.9112742294
 30
0.0
 10
39.4432478247
 20
41.0382613927
 30
0.0
 10
39.4378549676
 20
41.1655186647
 30
0.0
 10
39.4432463339
 20
41.29277586
 30
0.0
 10
39.459353107
 20
41.4197620804
 30
0.0
 10
39.4857386311
 20
41.5462496727
 30
0.0
 10
39.5342863101
 20
41.7152831693
 30
0.0
 10
39.6181286564
 20
41.9247818158
 30
0.0
 10
39.7028893561
 20
42.0855776188
 30
0.0
 10
39.7490414549
 20
42.1655153987
 30
0.0
  0
SPLINE
  5
299
100
AcDbEntity
  8
0
100
AcDbSpline
 62
7
  6
BYLAYER
 70
0
 71
3
 72
11
 73
7
 74
0
 42
0.0000001
 43
0.0000001
 44
0.0000000001
 40
0.0
 40
0.0
 40
0.0
 40
0.0
 40
0.2499913545
 40
0.4999857241
 40
0.7499884402
 40
1.0
 40
1.0
 40
1.0
 40
1.0
 10
39.4396403781
 20
38.1655153987
 30
0.0
 10
39.4396403781
 20
38.3346936896
 30
0.0
 10
39.4540744834
 20
38.6732177386
 30
0.0
 10
39.5170197309
 20
39.1773308571
 30
0.0
 10
39.6161429266
 20
39.6754919881
 30
0.0
 10
39.7021160469
 20
40.0029610171
 30
0.0
 10
39.7490414549
 20
40.1655153987
 30
0.0
  0
LINE
  5
29A
100
AcDbEntity
  8
0
100
AcDbLine
 62
7
  6
BYLAYER
 10
18.2755859461
 20
10.9976547225
 11
18.6770594089
 21
10.0155153987
  0
SPLINE
  5
29B
100
AcDbEntity
  8
0
100
AcDbSpline
 62
7
  6
BYLAYER
 70
0
 71
3
 72
9
 73
5
 74
0
 42
0.0000001
 43
0.0000001
 44
0.0000000001
 40
0.0
 40
0.0
 40
0.0
 40
0.0
 40
0.2429913941
 40
1.0
 40
1.0
 40
1.0
 40
1.0
 10
18.7317866633
 20
9.9141450732
 30
0.0
 10
18.726432433
 20
9.9218002771
 30
0.0
 10
18.7053542285
 20
9.9539684049
 30
0.0
 10
18.6880722912
 20
9.9885762359
 30
0.0
 10
18.6770594089
 20
10.0155153987
 30
0.0
  0
SPLINE
  5
29C
100
AcDbEntity
  8
0
100
AcDbSpline
 62
7
  6
BYLAYER
 70
0
 71
3
 72
9
 73
5
 74
0
 42
0.0000001
 43
0.0000001
 44
0.0000000001
 40
0.0
 40
0.0
 40
0.0
 40
0.0
 40
0.2432886601
 40
1.0
 40
1.0
 40
1.0
 40
1.0
 10
18.2755859461
 20
10.9976547225
 30
0.0
 10
18.2680167565
 20
11.0161728446
 30
0.0
 10
18.2408598206
 20
11.0938719672
 30
0.0
 10
18.2289852149
 20
11.1766993015
 30
0.0
 10
18.2282163524
 20
11.2389180217
 30
0.0
  0
SPLINE
  5
29D
100
AcDbEntity
  8
0
100
AcDbSpline
 62
7
  6
BYLAYER
 70
0
 71
3
 72
13
 73
9
 74
0
 42
0.0000001
 43
0.0000001
 44
0.0000000001
 40
0.0
 40
0.0
 40
0.0
 40
0.0
 40
0.1054869723
 40
0.2141282166
 40
0.328136856
 40
0.4491581316
 40
0.7126468478
 40
1.0
 40
1.0
 40
1.0
 40
1.0
 10
18.7102363315
 20
6.4155153987
 30
0.0
 10
18.6895442569
 20
6.4155153987
 30
0.0
 10
18.6473764748
 20
6.4207584567
 30
0.0
 10
18.5866858515
 20
6.4437887407
 30
0.0
 10
18.5300447518
 20
6.4812721582
 30
0.0
 10
18.4602497941
 20
6.5505139542
 30
0.0
 10
18.3931228945
 20
6.6666539335
 30
0.0
 10
18.3665345908
 20
6.7727637834
 30
0.0
 10
18.3595135047
 20
6.8286913098
 30
0.0
  0
LINE
  5
29E
100
AcDbEntity
  8
0
100
AcDbLine
 62
7
  6
BYLAYER
 10
17.9909722633
 20
9.7655153987
 11
18.3595135047
 21
6.8286913098
  0
LINE
  5
29F
100
AcDbEntity
  8
0
100
AcDbLine
 62
7
  6
BYLAYER
 10
31.8148089744
 20
6.8286913098
 11
32.1833502157
 21
9.7655153987
  0
SPLINE
  5
2A0
100
AcDbEntity
  8
0
100
AcDbSpline
 62
7
  6
BYLAYER
 70
0
 71
3
 72
13
 73
9
 74
0
 42
0.0000001
 43
0.0000001
 44
0.0000000001
 40
0.0
 40
0.0
 40
0.0
 40
0.0
 40
0.2873512054
 40
0.5508418367
 40
0.6718641929
 40
0.7858732948
 40
0.8945137053
 40
1.0
 40
1.0
 40
1.0
 40
1.0
 10
31.8148089744
 20
6.8286913098
 30
0.0
 10
31.8077879357
 20
6.7727641618
 30
0.0
 10
31.781199924
 20
6.6666542247
 30
0.0
 10
31.71407268
 20
6.5505142113
 30
0.0
 10
31.6442773541
 20
6.4812717762
 30
0.0
 10
31.5876359444
 20
6.4437886154
 30
0.0
 10
31.5269456371
 20
6.4207580475
 30
0.0
 10
31.4847780894
 20
6.4155153987
 30
0.0
 10
31.4640861475
 20
6.4155153987
 30
0.0
  0
LINE
  5
2A1
100
AcDbEntity
  8
0
100
AcDbLine
 62
7
  6
BYLAYER
 10
19.773727067
 20
6.8286913098
 11
19.4051858257
 21
9.7655153987
  0
SPLINE
  5
2A2
100
AcDbEntity
  8
0
100
AcDbSpline
 62
7
  6
BYLAYER
 70
0
 71
3
 72
13
 73
9
 74
0
 42
0.0000001
 43
0.0000001
 44
0.0000000001
 40
0.0
 40
0.0
 40
0.0
 40
0.0
 40
0.2874033106
 40
0.5507991206
 40
0.6717795137
 40
0.7857828752
 40
0.8944573436
 40
1.0
 40
1.0
 40
1.0
 40
1.0
 10
21.3115965368
 20
9.3523394875
 30
0.0
 10
21.3045247386
 20
9.4083654105
 30
0.0
 10
21.2777250646
 20
9.5146223009
 30
0.0
 10
21.2101589873
 20
9.6307560085
 30
0.0
 10
21.1400704524
 20
9.6998926933
 30
0.0
 10
21.0832507257
 20
9.7373007627
 30
0.0
 10
21.022412905
 20
9.7602816623
 30
0.0
 10
20.9801587004
 20
9.7655153987
 30
0.0
 10
20.9594211391
 20
9.7655153987
 30
0.0
  0
SPLINE
  5
2A3
100
AcDbEntity
  8
0
100
AcDbSpline
 62
7
  6
BYLAYER
 70
0
 71
3
 72
13
 73
9
 74
0
 42
0.0000001
 43
0.0000001
 44
0.0000000001
 40
0.0
 40
0.0
 40
0.0
 40
0.0
 40
0.1055954589
 40
0.2142795942
 40
0.3282449667
 40
0.449165842
 40
0.7124981279
 40
1.0
 40
1.0
 40
1.0
 40
1.0
 10
21.9840623685
 20
6.4155153987
 30
0.0
 10
21.9632741131
 20
6.4155153987
 30
0.0
 10
21.9209272987
 20
6.4207049724
 30
0.0
 10
21.8599039887
 20
6.4435519904
 30
0.0
 10
21.80285924
 20
6.4808252825
 30
0.0
 10
21.7324313915
 20
6.5498485394
 30
0.0
 10
21.6644722115
 20
6.6660746294
 30
0.0
 10
21.6375379382
 20
6.7725389615
 30
0.0
 10
21.630436514
 20
6.8286913098
 30
0.0
  0
SPLINE
  5
2A4
100
AcDbEntity
  8
0
100
AcDbSpline
 62
7
  6
BYLAYER
 70
0
 71
3
 72
13
 73
9
 74
0
 42
0.0000001
 43
0.0000001
 44
0.0000000001
 40
0.0
 40
0.0
 40
0.0
 40
0.0
 40
0.2873512054
 40
0.5508418367
 40
0.6718641929
 40
0.7858732948
 40
0.8945137053
 40
1.0
 40
1.0
 40
1.0
 40
1.0
 10
19.773727067
 20
6.8286913098
 30
0.0
 10
19.7807481057
 20
6.7727641618
 30
0.0
 10
19.8073361174
 20
6.6666542247
 30
0.0
 10
19.8744633614
 20
6.5505142113
 30
0.0
 10
19.9442586874
 20
6.4812717762
 30
0.0
 10
20.0009000971
 20
6.4437886154
 30
0.0
 10
20.0615904044
 20
6.4207580475
 30
0.0
 10
20.103757952
 20
6.4155153987
 30
0.0
 10
20.1244498939
 20
6.4155153987
 30
0.0
  0
SPLINE
  5
2A5
100
AcDbEntity
  8
0
100
AcDbSpline
 62
7
  6
BYLAYER
 70
0
 71
3
 72
13
 73
9
 74
0
 42
0.0000001
 43
0.0000001
 44
0.0000000001
 40
0.0
 40
0.0
 40
0.0
 40
0.0
 40
0.1054869723
 40
0.2141282166
 40
0.328136856
 40
0.4491581316
 40
0.7126468478
 40
1.0
 40
1.0
 40
1.0
 40
1.0
 10
30.0498725852
 20
6.4155153987
 30
0.0
 10
30.0705646598
 20
6.4155153987
 30
0.0
 10
30.1127324419
 20
6.4207584567
 30
0.0
 10
30.1734230652
 20
6.4437887407
 30
0.0
 10
30.2300641649
 20
6.4812721582
 30
0.0
 10
30.2998591226
 20
6.5505139542
 30
0.0
 10
30.3669860222
 20
6.6666539335
 30
0.0
 10
30.3935743259
 20
6.7727637834
 30
0.0
 10
30.400595412
 20
6.8286913098
 30
0.0
  0
SPLINE
  5
2A6
100
AcDbEntity
  8
0
100
AcDbSpline
 62
7
  6
BYLAYER
 70
0
 71
3
 72
13
 73
9
 74
0
 42
0.0000001
 43
0.0000001
 44
0.0000000001
 40
0.0
 40
0.0
 40
0.0
 40
0.0
 40
0.2875002892
 40
0.5508344458
 40
0.6717563247
 40
0.7857220342
 40
0.894405236
 40
1.0
 40
1.0
 40
1.0
 40
1.0
 10
28.5438859651
 20
6.8286913098
 30
0.0
 10
28.5367845799
 20
6.7725392703
 30
0.0
 10
28.5098505323
 20
6.6660748096
 30
0.0
 10
28.4418910106
 20
6.5498486088
 30
0.0
 10
28.371462721
 20
6.4808248558
 30
0.0
 10
28.3144177424
 20
6.4435518204
 30
0.0
 10
28.2533947854
 20
6.4207045391
 30
0.0
 10
28.2110482293
 20
6.4155153987
 30
0.0
 10
28.1902601105
 20
6.4155153987
 30
0.0
  0
SPLINE
  5
2A7
100
AcDbEntity
  8
0
100
AcDbSpline
 62
7
  6
BYLAYER
 70
0
 71
3
 72
13
 73
9
 74
0
 42
0.0000001
 43
0.0000001
 44
0.0000000001
 40
0.0
 40
0.0
 40
0.0
 40
0.0
 40
0.1055432913
 40
0.2142184192
 40
0.3282210968
 40
0.4492002238
 40
0.7125938762
 40
1.0
 40
1.0
 40
1.0
 40
1.0
 10
29.21490134
 20
9.7655153987
 30
0.0
 10
29.1941636524
 20
9.7655153987
 30
0.0
 10
29.1519092471
 20
9.7602812862
 30
0.0
 10
29.0910711957
 20
9.7373006733
 30
0.0
 10
29.0342518544
 20
9.6998924368
 30
0.0
 10
28.9641637184
 20
9.6307565519
 30
0.0
 10
28.8965975357
 20
9.5146229972
 30
0.0
 10
28.8697978102
 20
9.4083659629
 30
0.0
 10
28.8627259423
 20
9.3523394875
 30
0.0
  0
LINE
  5
2A8
100
AcDbEntity
  8
0
100
AcDbLine
 62
7
  6
BYLAYER
 10
30.7691366534
 20
9.7655153987
 11
30.400595412
 21
6.8286913098
  0
SPLINE
  5
2A9
100
AcDbEntity
  8
0
100
AcDbSpline
 62
7
  6
BYLAYER
 70
0
 71
3
 72
10
 73
6
 74
0
 42
0.0000001
 43
0.0000001
 44
0.0000000001
 40
0.0
 40
0.0
 40
0.0
 40
0.0
 40
0.2501526865
 40
0.6251475882
 40
1.0
 40
1.0
 40
1.0
 40
1.0
 10
18.0246798821
 20
9.9141450732
 30
0.0
 10
18.0541027791
 20
9.9119281685
 30
0.0
 10
18.1276971319
 20
9.9072422503
 30
0.0
 10
18.2455649036
 20
9.9023718104
 30
0.0
 10
18.3340182511
 20
9.9012978978
 30
0.0
 10
18.3782332727
 20
9.9012978978
 30
0.0
  0
LINE
  5
2AA
100
AcDbEntity
  8
0
100
AcDbLine
 62
7
  6
BYLAYER
 10
28.5438859651
 20
6.8286913098
 11
28.8627259423
 21
9.3523394875
  0
LINE
  5
2AB
100
AcDbEntity
  8
0
100
AcDbLine
 62
7
  6
BYLAYER
 10
21.3115965368
 20
9.3523394875
 11
21.630436514
 21
6.8286913098
  0
LINE
  5
2AC
100
AcDbEntity
  8
0
100
AcDbLine
 62
7
  6
BYLAYER
 10
17.9699526278
 20
10.0155153987
 11
17.5684799771
 21
10.9976527354
  0
SPLINE
  5
2AD
100
AcDbEntity
  8
0
100
AcDbSpline
 62
7
  6
BYLAYER
 70
0
 71
3
 72
9
 73
5
 74
0
 42
0.0000001
 43
0.0000001
 44
0.0000000001
 40
0.0
 40
0.0
 40
0.0
 40
0.0
 40
0.2558823341
 40
1.0
 40
1.0
 40
1.0
 40
1.0
 10
17.521109466
 20
11.2389265322
 30
0.0
 10
17.5213694377
 20
11.2178888229
 30
0.0
 10
17.5260758318
 20
11.1357898567
 30
0.0
 10
17.5453307525
 20
11.0542876184
 30
0.0
 10
17.5684799771
 20
10.9976527354
 30
0.0
  0
SPLINE
  5
2AE
100
AcDbEntity
  8
0
100
AcDbSpline
 62
7
  6
BYLAYER
 70
0
 71
3
 72
9
 73
5
 74
0
 42
0.0000001
 43
0.0000001
 44
0.0000000001
 40
0.0
 40
0.0
 40
0.0
 40
0.0
 40
0.2571257514
 40
1.0
 40
1.0
 40
1.0
 40
1.0
 10
17.9699526278
 20
10.0155153987
 30
0.0
 10
17.9736931037
 20
10.0063656333
 30
0.0
 10
17.9891469525
 20
9.9711638029
 30
0.0
 10
18.0083116202
 20
9.9375475746
 30
0.0
 10
18.0246798821
 20
9.9141450732
 30
0.0
  0
ENDSEC
  0
SECTION
  2
OBJECTS
  0
DICTIONARY
  5
C
100
AcDbDictionary
280
0
281
1
  3
ACAD_GROUP
350
D
  3
ACAD_MLINESTYLE
350
17
  3
ACAD_LAYOUT
350
1A
  3
ACAD_PLOTSETTINGS
350
19
  3
ACAD_PLOTSTYLENAME
350
E
  0
DICTIONARY
  5
D
102
{ACAD_REACTORS
330
C
102
}
100
AcDbDictionary
280
0
281
1
  0
ACDBDICTIONARYWDFLT
  5
E
102
{ACAD_REACTORS
330
C
102
}
100
AcDbDictionary
281
1
  3
Normal
350
F
100
AcDbDictionaryWithDefault
340
F
  0
DICTIONARY
  5
17
102
{ACAD_REACTORS
330
C
102
}
100
AcDbDictionary
280
0
281
1
  3
Standard
350
18
  0
DICTIONARY
  5
19
102
{ACAD_REACTORS
330
C
102
}
100
AcDbDictionary
281
1
  0
DICTIONARY
  5
1A
102
{ACAD_REACTORS
330
C
102
}
100
AcDbDictionary
281
1
  3
Model
350
2AF
  3
Layout1
350
2B0
  0
ACDBPLACEHOLDER
  5
F
102
{ACAD_REACTORS
330
E
102
}
  0
MLINESTYLE
  5
18
102
{ACAD_REACTORS
330
17
102
}
100
AcDbMlineStyle
  2
STANDARD
 70
0
  3

 62
256
 51
90.0
 52
90.0
 71
2
 49
0.5
 62
256
  6
BYLAYER
 49
-0.5
 62
256
  6
BYLAYER
  0
LAYOUT
  5
2AF
102
{ACAD_REACTORS
330
1A
102
}
100
AcDbPlotSettings
  1

  2
none_device
  4

  6

 40
0.0
 41
0.0
 42
0.0
 43
0.0
 44
210.0
 45
297.0
 46
0.0
 47
0.0
 48
0.0
 49
0.0
140
0.0
141
0.0
142
1.0
143
1.0
 70
1024
 72
1
 73
0
 74
0
  7

 75
0
147
1.0
148
0.0
149
0.0
100
AcDbLayout
  1
Model
 70
0
 71
0
 10
0.0
 20
0.0
 11
210.0
 21
297.0
 12
0.0
 22
0.0
 32
0.0
 14
0.0
 24
0.0
 34
0.0
 15
0.0
 25
0.0
 35
0.0
146
0.0
 13
0.0
 23
0.0
 33
0.0
 16
1.0
 26
0.0
 36
0.0
 17
0.0
 27
1.0
 37
0.0
 76
0
330
210
345
0
346
0
  0
LAYOUT
  5
2B0
102
{ACAD_REACTORS
330
1A
102
}
100
AcDbPlotSettings
  1

  2
none_device
  4

  6

 40
0.0
 41
0.0
 42
0.0
 43
0.0
 44
210.0
 45
297.0
 46
0.0
 47
0.0
 48
0.0
 49
0.0
140
0.0
141
0.0
142
1.0
143
1.0
 70
0
 72
1
 73
0
 74
0
  7

 75
0
147
1.0
148
0.0
149
0.0
100
AcDbLayout
  1
Layout1
 70
0
 71
1
 10
0.0
 20
0.0
 11
210.0
 21
297.0
 12
0.0
 22
0.0
 32
0.0
 14
0.0
 24
0.0
 34
0.0
 15
0.0
 25
0.0
 35
0.0
146
0.0
 13
0.0
 23
0.0
 33
0.0
 16
1.0
 26
0.0
 36
0.0
 17
0.0
 27
1.0
 37
0.0
 76
0
330
211
345
0
346
0
  0
ENDSEC
  0
EOF
