999
DXF file: C:\Users\sesa63760\Dev\_Creo\CAD\MCADID0004414_3D-CAD\drw0001_1.dxf
999
Pro/ENGINEER 2019471 by Parametric Technology Corporation
  0
SECTION
  2
HEADER
  9
$ACADVER
  1
AC1024
  9
$DWGCODEPAGE
  3
ANSI_1252
  9
$EXTMAX
 10
65.0356718947
 20
91.9790216796
 30
0.0
  9
$EXTMIN
 10
0.0
 20
0.0
 30
0.0
  9
$LIMMIN
 10
0.0
 20
0.0
  9
$LIMMAX
 10
65.0356718947
 20
91.9790216796
  9
$VIEWCTR
 10
32.5178359473
 20
45.9895108398
  9
$VIEWSIZE
 40
91.9790216796
  9
$CLAYER
  8
0
  9
$LTSCALE
 40
5.9956695613
  9
$CELTYPE
  6
BYLAYER
  9
$DIMSCALE
 40
1.0
  9
$DIMASZ
 40
0.7742341892
  9
$DIMEXO
 40
1.0
  9
$DIMDLI
 40
4.142462606
  9
$DIMEXE
 40
1.0
  9
$DIMCEN
 40
0.9811095646
  9
$DIMLFAC
 40
1.0
  9
$DIMBLK
  1
_FILLED
  9
$DIMALT
 70
0
  9
$DIMALTF
 40
0.0393700787
  9
$DIMTXT
 40
1.0839278649
  9
$DIMTOL
 70
1
  9
$DIMLIM
 70
0
  9
$DIMTFAC
 40
1.0
  9
$DIMTP
 40
0.01
  9
$DIMTM
 40
0.01
  9
$DIMGAP
 40
0.625
  9
$DIMDSEP
 70
46
  9
$AUNITS
 70
0
  9
$PDMODE
 70
3
  9
$PDSIZE
 40
0.3125
  9
$HANDSEED
  5
268
  9
$TILEMODE
 70
1
  9
$MEASUREMENT
 70
1
  9
$INSUNITS
 70
4
  0
ENDSEC
  0
SECTION
  2
CLASSES
  0
CLASS
  1
ACDBDICTIONARYWDFLT
  2
AcDbDictionaryWithDefault
  3
AutoCAD 2000
 90
0
 91
1
280
0
281
0
  0
CLASS
  1
ACDBPLACEHOLDER
  2
AcDbPlaceHolder
  3
AutoCAD 2000
 90
0
 91
1
280
0
281
0
  0
CLASS
  1
LAYOUT
  2
AcDbLayout
  3
AutoCAD 2000
 90
0
 91
0
280
0
281
0
  0
ENDSEC
  0
SECTION
  2
TABLES
  0
TABLE
  2
VPORT
  5
8
100
AcDbSymbolTable
 70
2
  0
VPORT
  5
1F4
100
AcDbSymbolTableRecord
100
AcDbViewportTableRecord
  2
*ACTIVE
 70
0
 10
0.0
 20
0.0
 11
1.0
 21
1.0
 12
32.5178359473
 22
45.9895108398
 13
0.0
 23
0.0
 14
1.0
 24
1.0
 15
0.0
 25
0.0
 16
0.0
 26
0.0
 36
1.0
 17
0.0
 27
0.0
 37
0.0
 40
91.9790216796
 41
0.7070707071
 42
50.0
 43
0.0
 44
0.0
 50
0.0
 51
0.0
 71
0
 72
100
 73
1
 74
1
 75
0
 76
0
 77
0
 78
0
  0
ENDTAB
  0
TABLE
  2
LTYPE
  5
5
100
AcDbSymbolTable
 70
6
  0
LTYPE
  5
14
100
AcDbSymbolTableRecord
100
AcDbLinetypeTableRecord
  2
BYBLOCK
 70
0
  3

 72
65
 73
0
 40
0.0
  0
LTYPE
  5
15
100
AcDbSymbolTableRecord
100
AcDbLinetypeTableRecord
  2
BYLAYER
 70
0
  3

 72
65
 73
0
 40
0.0
  0
LTYPE
  5
16
100
AcDbSymbolTableRecord
100
AcDbLinetypeTableRecord
  2
CONTINUOUS
 70
64
  3
Solid line
 72
65
 73
0
 40
0.0
  0
LTYPE
  5
1F5
100
AcDbSymbolTableRecord
100
AcDbLinetypeTableRecord
  2
CENTER
 70
64
  3
____ _ ____ _ ____ _ ____ _ ____ _ ____ _ ____
 72
65
 73
4
 40
0.6
 49
0.375
 74
0
 49
-0.075
 74
0
 49
0.075
 74
0
 49
-0.075
 74
0
  0
LTYPE
  5
1F6
100
AcDbSymbolTableRecord
100
AcDbLinetypeTableRecord
  2
HIDDEN
 70
64
  3
- - - - - - - - - - - - - - - - - - - -
 72
65
 73
2
 40
0.2
 49
0.1
 74
0
 49
-0.1
 74
0
  0
LTYPE
  5
1F7
100
AcDbSymbolTableRecord
100
AcDbLinetypeTableRecord
  2
PHANTOM
 70
64
  3
_____ _ _ _____ _ _ _____ _ _ _____
 72
65
 73
6
 40
0.8
 49
0.45
 74
0
 49
-0.05
 74
0
 49
0.1
 74
0
 49
-0.05
 74
0
 49
0.1
 74
0
 49
-0.05
 74
0
  0
LTYPE
  5
1F8
100
AcDbSymbolTableRecord
100
AcDbLinetypeTableRecord
  2
DOT
 70
64
  3
. . . . . . . . . . . . . . . . . . . .
 72
65
 73
2
 40
0.2
 49
0.1
 74
0
 49
-0.1
 74
0
  0
LTYPE
  5
1F9
100
AcDbSymbolTableRecord
100
AcDbLinetypeTableRecord
  2
DASHED
 70
64
  3
- - - - - - - - - - - - - - - - - - - -
 72
65
 73
2
 40
0.2
 49
0.1
 74
0
 49
-0.1
 74
0
  0
ENDTAB
  0
TABLE
  2
LAYER
  5
2
100
AcDbSymbolTable
 70
36
  0
LAYER
  5
10
100
AcDbSymbolTableRecord
100
AcDbLayerTableRecord
  2
0
 70
0
 62
7
  6
CONTINUOUS
370
-3
390
F
  0
LAYER
  5
1FA
100
AcDbSymbolTableRecord
100
AcDbLayerTableRecord
  2
DEFAULT_1
 70
0
 62
7
  6
CENTER
370
-3
390
F
  0
LAYER
  5
1FB
100
AcDbSymbolTableRecord
100
AcDbLayerTableRecord
  2
DEFAULT_2
 70
0
 62
7
  6
HIDDEN
370
-3
390
F
  0
LAYER
  5
1FC
100
AcDbSymbolTableRecord
100
AcDbLayerTableRecord
  2
DEFAULT_3
 70
0
 62
7
  6
PHANTOM
370
-3
390
F
  0
LAYER
  5
1FD
100
AcDbSymbolTableRecord
100
AcDbLayerTableRecord
  2
00_COMPONENTS
 70
0
 62
7
  6
CONTINUOUS
370
-3
390
F
  0
LAYER
  5
1FE
100
AcDbSymbolTableRecord
100
AcDbLayerTableRecord
  2
01_1_DEFAULT_DATUMS
 70
0
 62
7
  6
CONTINUOUS
370
-3
390
F
  0
LAYER
  5
1FF
100
AcDbSymbolTableRecord
100
AcDbLayerTableRecord
  2
01_PLANES
 70
0
 62
7
  6
CONTINUOUS
370
-3
390
F
  0
LAYER
  5
200
100
AcDbSymbolTableRecord
100
AcDbLayerTableRecord
  2
02_COORD_SYS
 70
0
 62
7
  6
CONTINUOUS
370
-3
390
F
  0
LAYER
  5
201
100
AcDbSymbolTableRecord
100
AcDbLayerTableRecord
  2
03_AXES
 70
0
 62
7
  6
CONTINUOUS
370
-3
390
F
  0
LAYER
  5
202
100
AcDbSymbolTableRecord
100
AcDbLayerTableRecord
  2
04_POINTS
 70
0
 62
7
  6
CONTINUOUS
370
-3
390
F
  0
LAYER
  5
203
100
AcDbSymbolTableRecord
100
AcDbLayerTableRecord
  2
05_CURVES
 70
0
 62
7
  6
CONTINUOUS
370
-3
390
F
  0
LAYER
  5
204
100
AcDbSymbolTableRecord
100
AcDbLayerTableRecord
  2
06_SURFS
 70
0
 62
7
  6
CONTINUOUS
370
-3
390
F
  0
LAYER
  5
205
100
AcDbSymbolTableRecord
100
AcDbLayerTableRecord
  2
07_COSMETICS
 70
0
 62
7
  6
CONTINUOUS
370
-3
390
F
  0
LAYER
  5
206
100
AcDbSymbolTableRecord
100
AcDbLayerTableRecord
  2
10_NOTES
 70
0
 62
7
  6
CONTINUOUS
370
-3
390
F
  0
LAYER
  5
207
100
AcDbSymbolTableRecord
100
AcDbLayerTableRecord
  2
11_NOTES_PUB
 70
0
 62
7
  6
CONTINUOUS
370
-3
390
F
  0
LAYER
  5
208
100
AcDbSymbolTableRecord
100
AcDbLayerTableRecord
  2
13_REF_GTOL
 70
0
 62
7
  6
CONTINUOUS
370
-3
390
F
  0
LAYER
  5
209
100
AcDbSymbolTableRecord
100
AcDbLayerTableRecord
  2
16_MISC
 70
0
 62
7
  6
CONTINUOUS
370
-3
390
F
  0
LAYER
  5
20A
100
AcDbSymbolTableRecord
100
AcDbLayerTableRecord
  2
17_NO_PRINT
 70
0
 62
7
  6
CONTINUOUS
370
-3
390
F
  0
LAYER
  5
20B
100
AcDbSymbolTableRecord
100
AcDbLayerTableRecord
  2
18_DATUM_CAMS_JOINTS
 70
0
 62
7
  6
CONTINUOUS
370
-3
390
F
  0
LAYER
  5
20C
100
AcDbSymbolTableRecord
100
AcDbLayerTableRecord
  2
19_DATUM_FUNCTIONAL
 70
0
 62
7
  6
CONTINUOUS
370
-3
390
F
  0
LAYER
  5
20D
100
AcDbSymbolTableRecord
100
AcDbLayerTableRecord
  2
20_DATUM_KINEMATIC_SCHEME
 70
0
 62
7
  6
CONTINUOUS
370
-3
390
F
  0
ENDTAB
  0
TABLE
  2
STYLE
  5
3
100
AcDbSymbolTable
 70
1
  0
STYLE
  5
11
100
AcDbSymbolTableRecord
100
AcDbTextStyleTableRecord
  2
STANDARD
 70
0
 40
0.0
 41
1.0
 50
0.0
 71
0
 42
0.2
  3
ARIAL.TTF
  4

  0
STYLE
  5
20E
100
AcDbSymbolTableRecord
100
AcDbTextStyleTableRecord
  2
TEXTSTYLE_1
 70
0
 40
0.0
 41
0.8
 50
0.0
 71
0
 42
0.2
  3
gdt
  4

  0
ENDTAB
  0
TABLE
  2
VIEW
  5
6
100
AcDbSymbolTable
 70
0
  0
ENDTAB
  0
TABLE
  2
UCS
  5
7
100
AcDbSymbolTable
 70
0
  0
ENDTAB
  0
TABLE
  2
APPID
  5
9
100
AcDbSymbolTable
 70
1
  0
APPID
  5
20F
100
AcDbSymbolTableRecord
100
AcDbRegAppTableRecord
  2
ACAD
 70
0
  0
ENDTAB
  0
TABLE
  2
BLOCK_RECORD
  5
1
100
AcDbSymbolTable
 70
0
  0
BLOCK_RECORD
  5
210
100
AcDbSymbolTableRecord
100
AcDbBlockTableRecord
  2
*Model_Space
  0
BLOCK_RECORD
  5
211
100
AcDbSymbolTableRecord
100
AcDbBlockTableRecord
  2
*Paper_Space
  0
BLOCK_RECORD
  5
212
100
AcDbSymbolTableRecord
100
AcDbBlockTableRecord
  2
_FILLED
  0
ENDTAB
  0
TABLE
  2
DIMSTYLE
  5
A
100
AcDbSymbolTable
 70
1
100
AcDbDimStyleTable
 71
0
  0
DIMSTYLE
105
213
100
AcDbSymbolTableRecord
100
AcDbDimStyleTableRecord
  2
STANDARD
 70
0
  3

  4

 40
1.0
 41
0.7742341892
 42
1.0
 43
0.38
 44
1.0
 45
0.0
 46
0.0
 47
0.01
 48
0.01
140
1.0839278649
141
0.09
142
0.0
143
25.4
144
1.0
145
0.0
146
1.0
147
0.625
 71
1
 72
0
 73
0
 74
0
 75
0
 76
0
 77
1
 78
8
 79
2
170
0
171
1
172
0
173
0
174
0
175
0
176
0
177
0
178
0
270
2
179
2
271
2
272
2
273
2
274
2
275
0
280
0
281
0
282
0
283
1
284
8
285
0
286
0
287
3
288
0
340
11
278
46
341
212
342
212
343
212
344
212
  0
ENDTAB
  0
ENDSEC
  0
SECTION
  2
BLOCKS
  0
BLOCK
  5
20
100
AcDbEntity
  8
0
100
AcDbBlockBegin
  2
*Model_Space
 70
0
 10
0.0
 20
0.0
 30
0.0
  3
*Model_Space
  1

  0
ENDBLK
  5
21
100
AcDbEntity
  8
0
100
AcDbBlockEnd
  0
BLOCK
  5
1C
100
AcDbEntity
  8
0
100
AcDbBlockBegin
  2
*Paper_Space
 70
0
 10
0.0
 20
0.0
 30
0.0
  3
*Paper_Space
  1

  0
ENDBLK
  5
1D
100
AcDbEntity
  8
0
100
AcDbBlockEnd
  0
BLOCK
  5
214
100
AcDbEntity
  8
0
100
AcDbBlockBegin
  2
_FILLED
 70
64
 10
0.0
 20
0.0
  3
_FILLED
  1

  0
SOLID
  5
215
100
AcDbEntity
  8
0
  6
BYBLOCK
 62
0
100
AcDbTrace
 10
0.0
 20
0.0
 11
-1.0
 21
0.25
 12
-1.0
 22
-0.25
 13
-1.0
 23
-0.25
  0
ENDBLK
  5
216
100
AcDbEntity
  8
0
  6
BYBLOCK
 62
0
100
AcDbBlockEnd
  0
ENDSEC
  0
SECTION
  2
ENTITIES
  0
LINE
  5
217
100
AcDbEntity
  8
0
100
AcDbLine
 62
7
  6
BYLAYER
 10
11.124634784
 20
69.9841818505
 11
18.1956731561
 21
74.0666233892
  0
LINE
  5
218
100
AcDbEntity
  8
0
100
AcDbLine
 62
7
  6
BYLAYER
 10
7.5449925273
 20
49.9288880164
 11
7.5518771963
 21
49.1517116238
  0
LINE
  5
219
100
AcDbEntity
  8
0
100
AcDbLine
 62
7
  6
BYLAYER
 10
10.4245960972
 20
44.365609577
 11
10.4245960972
 21
49.0702603225
  0
LINE
  5
21A
100
AcDbEntity
  8
0
100
AcDbLine
 62
7
  6
BYLAYER
 10
11.124634784
 20
69.9841818505
 11
11.124634784
 21
61.002655262
  0
LINE
  5
21B
100
AcDbEntity
  8
0
100
AcDbLine
 62
7
  6
BYLAYER
 10
11.124634784
 20
56.9201431764
 11
11.124634784
 21
41.4065972509
  0
LINE
  5
21C
100
AcDbEntity
  8
0
100
AcDbLine
 62
7
  6
BYLAYER
 10
11.4781896466
 20
60.7985348848
 11
11.4781896466
 21
56.7160227991
  0
LINE
  5
21D
100
AcDbEntity
  8
0
100
AcDbLine
 62
7
  6
BYLAYER
 10
11.124634784
 20
56.9201431764
 11
11.4781896466
 21
57.124266953
  0
LINE
  5
21E
100
AcDbEntity
  8
0
100
AcDbLine
 62
7
  6
BYLAYER
 10
10.4245960972
 20
49.0702603225
 11
11.124634784
 21
49.9411231709
  0
LINE
  5
21F
100
AcDbEntity
  8
0
100
AcDbLine
 62
7
  6
BYLAYER
 10
10.3801460835
 20
54.0838499954
 11
10.4088571143
 21
54.1002579465
  0
LINE
  5
220
100
AcDbEntity
  8
0
100
AcDbLine
 62
7
  6
BYLAYER
 10
9.710385894
 20
53.7050564572
 11
10.3800739712
 21
54.0839774867
  0
LINE
  5
221
100
AcDbEntity
  8
0
100
AcDbLine
 62
7
  6
BYLAYER
 10
11.124634784
 20
41.4065972509
 11
51.4298891174
 21
18.1368742433
  0
LINE
  5
222
100
AcDbEntity
  8
0
100
AcDbLine
 62
7
  6
BYLAYER
 10
22.4383844984
 20
54.470785681
 11
23.1455003331
 21
54.8790367615
  0
LINE
  5
223
100
AcDbEntity
  8
0
100
AcDbLine
 62
7
  6
BYLAYER
 10
11.1317058224
 20
43.9573688225
 11
10.4245960972
 21
44.365609577
  0
LINE
  5
224
100
AcDbEntity
  8
0
100
AcDbLine
 62
7
  6
BYLAYER
 10
21.0241709361
 20
54.4707822816
 11
21.0241709361
 21
52.0212750302
  0
LINE
  5
225
100
AcDbEntity
  8
0
100
AcDbLine
 62
7
  6
BYLAYER
 10
22.4383844984
 20
52.0212784296
 11
22.4383844984
 21
54.470785681
  0
LINE
  5
226
100
AcDbEntity
  8
0
100
AcDbLine
 62
7
  6
BYLAYER
 10
22.4383903864
 20
49.5717886869
 11
23.1454942236
 21
50.7965352579
  0
LINE
  5
227
100
AcDbEntity
  8
0
100
AcDbLine
 62
7
  6
BYLAYER
 10
25.2668903831
 20
53.6543073157
 11
22.4383844984
 21
52.0212784296
  0
LINE
  5
228
100
AcDbEntity
  8
0
100
AcDbLine
 62
7
  6
BYLAYER
 10
8.3801800176
 20
47.3537191201
 11
10.4245960972
 21
46.1734016485
  0
LINE
  5
229
100
AcDbEntity
  8
0
100
AcDbLine
 62
7
  6
BYLAYER
 10
23.1454942236
 20
50.7965352579
 11
26.6811220527
 21
52.837818752
  0
LINE
  5
22A
100
AcDbEntity
  8
0
100
AcDbLine
 62
7
  6
BYLAYER
 10
11.1317058224
 20
48.662019568
 11
10.4245960972
 21
49.0702603225
  0
LINE
  5
22B
100
AcDbEntity
  8
0
100
AcDbLine
 62
7
  6
BYLAYER
 10
22.4383903864
 20
49.5717886869
 11
51.4298891174
 21
32.8339177516
  0
LINE
  5
22C
100
AcDbEntity
  8
0
100
AcDbLine
 62
7
  6
BYLAYER
 10
11.4781896466
 20
56.7160227991
 11
11.124634784
 21
56.9201431764
  0
LINE
  5
22D
100
AcDbEntity
  8
0
100
AcDbLine
 62
7
  6
BYLAYER
 10
51.4298832295
 20
34.4669050771
 11
23.1454942236
 21
50.7965352579
  0
LINE
  5
22E
100
AcDbEntity
  8
0
100
AcDbLine
 62
7
  6
BYLAYER
 10
11.124634784
 20
61.002655262
 11
11.4781896466
 21
60.7985348848
  0
LINE
  5
22F
100
AcDbEntity
  8
0
100
AcDbLine
 62
7
  6
BYLAYER
 10
51.4298891174
 20
38.5494346715
 11
22.4383903864
 21
55.2873056068
  0
LINE
  5
230
100
AcDbEntity
  8
0
100
AcDbLine
 62
7
  6
BYLAYER
 10
53.551091986
 20
39.7741044084
 11
58.5009274895
 21
36.9163592903
  0
LINE
  5
231
100
AcDbEntity
  8
0
100
AcDbLine
 62
7
  6
BYLAYER
 10
22.4383844984
 20
52.0212784296
 11
21.0241709361
 21
52.0212750302
  0
LINE
  5
232
100
AcDbEntity
  8
0
100
AcDbLine
 62
7
  6
BYLAYER
 10
51.4298891174
 20
46.7144588428
 11
58.5009274895
 21
50.7969003815
  0
LINE
  5
233
100
AcDbEntity
  8
0
100
AcDbLine
 62
7
  6
BYLAYER
 10
21.0241709361
 20
54.4707822816
 11
22.4383844984
 21
54.470785681
  0
LINE
  5
234
100
AcDbEntity
  8
0
100
AcDbLine
 62
7
  6
BYLAYER
 10
51.4298891174
 20
46.7144588428
 11
11.124634784
 21
69.9841818505
  0
LINE
  5
235
100
AcDbEntity
  8
0
100
AcDbLine
 62
7
  6
BYLAYER
 10
51.4298891174
 20
38.5494346715
 11
58.5009274895
 21
42.6318762102
  0
LINE
  5
236
100
AcDbEntity
  8
0
100
AcDbLine
 62
7
  6
BYLAYER
 10
58.5009274895
 20
50.7969003815
 11
18.1956731561
 21
74.0666233892
  0
LINE
  5
237
100
AcDbEntity
  8
0
100
AcDbLine
 62
7
  6
BYLAYER
 10
51.4298891174
 20
18.1368742433
 11
51.4298832295
 21
34.4669050771
  0
LINE
  5
238
100
AcDbEntity
  8
0
100
AcDbLine
 62
7
  6
BYLAYER
 10
51.4298891174
 20
38.5494346715
 11
51.4298891174
 21
46.7144588428
  0
LINE
  5
239
100
AcDbEntity
  8
0
100
AcDbLine
 62
7
  6
BYLAYER
 10
51.4298832295
 20
34.4669050771
 11
57.0867139272
 21
37.7328583081
  0
LINE
  5
23A
100
AcDbEntity
  8
0
100
AcDbLine
 62
7
  6
BYLAYER
 10
51.4298891174
 20
32.8339177516
 11
58.5009274895
 21
36.9163592903
  0
LINE
  5
23B
100
AcDbEntity
  8
0
100
AcDbLine
 62
7
  6
BYLAYER
 10
58.5009274895
 20
22.219315782
 11
58.5009274895
 21
36.9163592903
  0
LINE
  5
23C
100
AcDbEntity
  8
0
100
AcDbLine
 62
7
  6
BYLAYER
 10
58.5009274895
 20
42.6318762102
 11
58.5009274895
 21
50.7969003815
  0
LINE
  5
23D
100
AcDbEntity
  8
0
100
AcDbLine
 62
7
  6
BYLAYER
 10
51.4298891174
 20
18.1368742433
 11
58.5009274895
 21
22.219315782
  0
ARC
  5
23E
100
AcDbEntity
  8
0
100
AcDbCircle
 62
7
  6
BYLAYER
 10
51.93121175
 20
36.941008293
 40
0.5909361851
100
AcDbArc
 50
201.7648498476
 51
205.4792367249
  0
ARC
  5
23F
100
AcDbEntity
  8
0
100
AcDbCircle
 62
7
  6
BYLAYER
 10
51.9288390415
 20
36.6886799198
 40
0.5883298978
100
AcDbArc
 50
155.2055677751
 51
158.2060884803
  0
ARC
  5
240
100
AcDbEntity
  8
0
100
AcDbCircle
 62
7
  6
BYLAYER
 10
53.7598310529
 20
36.6887822308
 40
0.5878187943
100
AcDbArc
 50
21.804602044
 51
24.7803762842
  0
ARC
  5
241
100
AcDbEntity
  8
0
100
AcDbCircle
 62
7
  6
BYLAYER
 10
53.7606352821
 20
36.9393733487
 40
0.586904766
100
AcDbArc
 50
335.5113446166
 51
338.1897855295
  0
SPLINE
  5
242
100
AcDbEntity
  8
0
100
AcDbSpline
 62
7
  6
BYLAYER
 70
0
 71
3
 72
19
 73
15
 74
0
 42
0.0000001
 43
0.0000001
 44
0.0000000001
 40
0.0
 40
0.0
 40
0.0
 40
0.0
 40
0.0428394104
 40
0.0874448899
 40
0.1352571039
 40
0.1871950253
 40
0.2436735499
 40
0.3046656819
 40
0.4382689093
 40
0.5825434307
 40
0.7296392143
 40
0.871166535
 40
0.9376088396
 40
1.0
 40
1.0
 40
1.0
 40
1.0
 10
13.6601912984
 20
52.9367260172
 30
0.0
 10
13.7094956877
 20
52.9651967174
 30
0.0
 10
13.8181955229
 20
53.0103322161
 30
0.0
 10
13.9975982226
 20
53.0366681539
 30
0.0
 10
14.1902586599
 20
53.0224585619
 30
0.0
 10
14.3918874126
 20
52.968902553
 30
0.0
 10
14.5985479892
 20
52.8775919948
 30
0.0
 10
14.8838143332
 20
52.7029679752
 30
0.0
 10
15.2236571625
 20
52.4020129696
 30
0.0
 10
15.5729498046
 20
51.9548212903
 30
0.0
 10
15.8479912631
 20
51.4465731598
 30
0.0
 10
16.0001824953
 20
50.9967653927
 30
0.0
 10
16.0631048611
 20
50.6424554011
 30
0.0
 10
16.07440286
 20
50.4711157835
 30
0.0
 10
16.07440286
 20
50.3881970177
 30
0.0
  0
SPLINE
  5
243
100
AcDbEntity
  8
0
100
AcDbSpline
 62
7
  6
BYLAYER
 70
0
 71
3
 72
19
 73
15
 74
0
 42
0.0000001
 43
0.0000001
 44
0.0000000001
 40
0.0
 40
0.0
 40
0.0
 40
0.0
 40
0.0428394104
 40
0.0874448899
 40
0.1352571039
 40
0.1871950253
 40
0.2436735499
 40
0.3046656819
 40
0.4382689093
 40
0.5825434307
 40
0.7296392143
 40
0.871166535
 40
0.9376088396
 40
1.0
 40
1.0
 40
1.0
 40
1.0
 10
13.6601912984
 20
57.83574052
 30
0.0
 10
13.7094956877
 20
57.8642112202
 30
0.0
 10
13.8181955229
 20
57.9093467189
 30
0.0
 10
13.9975982226
 20
57.9356826567
 30
0.0
 10
14.1902586599
 20
57.9214730647
 30
0.0
 10
14.3918874126
 20
57.8679170558
 30
0.0
 10
14.5985479892
 20
57.7766064975
 30
0.0
 10
14.8838143332
 20
57.601982478
 30
0.0
 10
15.2236571625
 20
57.3010274724
 30
0.0
 10
15.5729498046
 20
56.8538357931
 30
0.0
 10
15.8479912631
 20
56.3455876626
 30
0.0
 10
16.0001824953
 20
55.8957798955
 30
0.0
 10
16.0631048611
 20
55.5414699039
 30
0.0
 10
16.07440286
 20
55.3701302863
 30
0.0
 10
16.07440286
 20
55.2872115204
 30
0.0
  0
SPLINE
  5
244
100
AcDbEntity
  8
0
100
AcDbSpline
 62
7
  6
BYLAYER
 70
0
 71
3
 72
19
 73
15
 74
0
 42
0.0000001
 43
0.0000001
 44
0.0000000001
 40
0.0
 40
0.0
 40
0.0
 40
0.0
 40
0.0428394104
 40
0.0874448899
 40
0.1352571039
 40
0.1871950253
 40
0.2436735499
 40
0.3046656819
 40
0.4382689093
 40
0.5825434307
 40
0.7296392143
 40
0.871166535
 40
0.9376088396
 40
1.0
 40
1.0
 40
1.0
 40
1.0
 10
13.6601912984
 20
64.367759857
 30
0.0
 10
13.7094956877
 20
64.3962305572
 30
0.0
 10
13.8181955229
 20
64.441366056
 30
0.0
 10
13.9975982226
 20
64.4677019937
 30
0.0
 10
14.1902586599
 20
64.4534924017
 30
0.0
 10
14.3918874126
 20
64.3999363928
 30
0.0
 10
14.5985479892
 20
64.3086258346
 30
0.0
 10
14.8838143332
 20
64.134001815
 30
0.0
 10
15.2236571625
 20
63.8330468094
 30
0.0
 10
15.5729498046
 20
63.3858551301
 30
0.0
 10
15.8479912631
 20
62.8776069996
 30
0.0
 10
16.0001824953
 20
62.4277992325
 30
0.0
 10
16.0631048611
 20
62.0734892409
 30
0.0
 10
16.07440286
 20
61.9021496233
 30
0.0
 10
16.07440286
 20
61.8192308575
 30
0.0
  0
SPLINE
  5
245
100
AcDbEntity
  8
0
100
AcDbSpline
 62
7
  6
BYLAYER
 70
0
 71
3
 72
19
 73
15
 74
0
 42
0.0000001
 43
0.0000001
 44
0.0000000001
 40
0.0
 40
0.0
 40
0.0
 40
0.0
 40
0.0428394104
 40
0.0874448899
 40
0.1352571039
 40
0.1871950253
 40
0.2436735499
 40
0.3046656819
 40
0.4382689093
 40
0.5825434307
 40
0.7296392143
 40
0.871166535
 40
0.9376088396
 40
1.0
 40
1.0
 40
1.0
 40
1.0
 10
44.0659094797
 20
35.3823735728
 30
0.0
 10
44.115213869
 20
35.410844273
 30
0.0
 10
44.2239137042
 20
35.4559797718
 30
0.0
 10
44.4033164039
 20
35.4823157096
 30
0.0
 10
44.5959768412
 20
35.4681061175
 30
0.0
 10
44.7976055939
 20
35.4145501086
 30
0.0
 10
45.0042661705
 20
35.3232395504
 30
0.0
 10
45.2895325146
 20
35.1486155309
 30
0.0
 10
45.6293753438
 20
34.8476605253
 30
0.0
 10
45.9786679859
 20
34.4004688459
 30
0.0
 10
46.2537094444
 20
33.8922207155
 30
0.0
 10
46.4059006766
 20
33.4424129483
 30
0.0
 10
46.4688230424
 20
33.0881029567
 30
0.0
 10
46.4801210414
 20
32.9167633391
 30
0.0
 10
46.4801210414
 20
32.8338445733
 30
0.0
  0
SPLINE
  5
246
100
AcDbEntity
  8
0
100
AcDbSpline
 62
7
  6
BYLAYER
 70
0
 71
3
 72
12
 73
8
 74
0
 42
0.0000001
 43
0.0000001
 44
0.0000000001
 40
0.0
 40
0.0
 40
0.0
 40
0.0
 40
0.2894832083
 40
0.5486755374
 40
0.7816290778
 40
0.8918324007
 40
1.0
 40
1.0
 40
1.0
 40
1.0
 10
46.4801210414
 20
32.8338445733
 30
0.0
 10
46.4801210414
 20
32.7325086414
 30
0.0
 10
46.4647084314
 20
32.539761831
 30
0.0
 10
46.3868566544
 20
32.2750768537
 30
0.0
 10
46.2748131907
 20
32.0924508784
 30
0.0
 10
46.1617057438
 20
31.9812509402
 30
0.0
 10
46.0986843211
 20
31.9372134552
 30
0.0
 10
46.0658937024
 20
31.9182785918
 30
0.0
  0
SPLINE
  5
247
100
AcDbEntity
  8
0
100
AcDbSpline
 62
7
  6
BYLAYER
 70
0
 71
3
 72
12
 73
8
 74
0
 42
0.0000001
 43
0.0000001
 44
0.0000000001
 40
0.0
 40
0.0
 40
0.0
 40
0.0
 40
0.2894832083
 40
0.5486755374
 40
0.7816290778
 40
0.8918324007
 40
1.0
 40
1.0
 40
1.0
 40
1.0
 10
16.07440286
 20
61.8192308575
 30
0.0
 10
16.07440286
 20
61.7178949256
 30
0.0
 10
16.0589902501
 20
61.5251481152
 30
0.0
 10
15.9811384731
 20
61.2604631379
 30
0.0
 10
15.8690950093
 20
61.0778371626
 30
0.0
 10
15.7559875625
 20
60.9666372244
 30
0.0
 10
15.6929661398
 20
60.9225997394
 30
0.0
 10
15.6601755211
 20
60.903664876
 30
0.0
  0
SPLINE
  5
248
100
AcDbEntity
  8
0
100
AcDbSpline
 62
7
  6
BYLAYER
 70
0
 71
3
 72
12
 73
8
 74
0
 42
0.0000001
 43
0.0000001
 44
0.0000000001
 40
0.0
 40
0.0
 40
0.0
 40
0.0
 40
0.2894832083
 40
0.5486755374
 40
0.7816290778
 40
0.8918324007
 40
1.0
 40
1.0
 40
1.0
 40
1.0
 10
16.07440286
 20
55.2872115204
 30
0.0
 10
16.07440286
 20
55.1858755885
 30
0.0
 10
16.0589902501
 20
54.9931287781
 30
0.0
 10
15.9811384731
 20
54.7284438008
 30
0.0
 10
15.8690950093
 20
54.5458178256
 30
0.0
 10
15.7559875625
 20
54.4346178874
 30
0.0
 10
15.6929661398
 20
54.3905804023
 30
0.0
 10
15.6601755211
 20
54.371645539
 30
0.0
  0
SPLINE
  5
249
100
AcDbEntity
  8
0
100
AcDbSpline
 62
7
  6
BYLAYER
 70
0
 71
3
 72
12
 73
8
 74
0
 42
0.0000001
 43
0.0000001
 44
0.0000000001
 40
0.0
 40
0.0
 40
0.0
 40
0.0
 40
0.2894832083
 40
0.5486755374
 40
0.7816290778
 40
0.8918324007
 40
1.0
 40
1.0
 40
1.0
 40
1.0
 10
16.07440286
 20
50.3881970177
 30
0.0
 10
16.07440286
 20
50.2868610858
 30
0.0
 10
16.0589902501
 20
50.0941142753
 30
0.0
 10
15.9811384731
 20
49.8294292981
 30
0.0
 10
15.8690950093
 20
49.6468033228
 30
0.0
 10
15.7559875625
 20
49.5356033846
 30
0.0
 10
15.6929661398
 20
49.4915658995
 30
0.0
 10
15.6601755211
 20
49.4726310362
 30
0.0
  0
SPLINE
  5
24A
100
AcDbEntity
  8
0
100
AcDbSpline
 62
7
  6
BYLAYER
 70
0
 71
3
 72
9
 73
5
 74
0
 42
0.0000001
 43
0.0000001
 44
0.0000000001
 40
0.0
 40
0.0
 40
0.0
 40
0.0
 40
0.4938393305
 40
1.0
 40
1.0
 40
1.0
 40
1.0
 10
54.3440722312
 20
36.9163632188
 30
0.0
 10
54.344067739
 20
36.8834856417
 30
0.0
 10
54.3373858555
 20
36.8167568316
 30
0.0
 10
54.3180447986
 20
36.7526061244
 30
0.0
 10
54.3055291738
 20
36.721318651
 30
0.0
  0
SPLINE
  5
24B
100
AcDbEntity
  8
0
100
AcDbSpline
 62
7
  6
BYLAYER
 70
0
 71
3
 72
10
 73
6
 74
0
 42
0.0000001
 43
0.0000001
 44
0.0000000001
 40
0.0
 40
0.0
 40
0.0
 40
0.0
 40
0.4620168855
 40
0.7214509654
 40
1.0
 40
1.0
 40
1.0
 40
1.0
 10
54.294744069
 20
36.6960936574
 30
0.0
 10
54.2589918338
 20
36.6175743433
 30
0.0
 10
54.176135442
 20
36.5066974036
 30
0.0
 10
54.0341708357
 20
36.3852133796
 30
0.0
 10
53.9497905039
 20
36.3300096899
 30
0.0
 10
53.9047437157
 20
36.3040020699
 30
0.0
  0
SPLINE
  5
24C
100
AcDbEntity
  8
0
100
AcDbSpline
 62
7
  6
BYLAYER
 70
0
 71
3
 72
11
 73
7
 74
0
 42
0.0000001
 43
0.0000001
 44
0.0000000001
 40
0.0
 40
0.0
 40
0.0
 40
0.0
 40
0.2177868453
 40
0.4509169606
 40
0.7103006453
 40
1.0
 40
1.0
 40
1.0
 40
1.0
 10
22.645496462
 20
54.9285716226
 30
0.0
 10
22.6784828933
 20
54.9476162296
 30
0.0
 10
22.7542747898
 20
54.9751208813
 30
0.0
 10
22.8801622022
 20
54.978305843
 30
0.0
 10
23.0143273689
 20
54.9459062709
 30
0.0
 10
23.1016155995
 20
54.9043801059
 30
0.0
 10
23.1454942236
 20
54.8790473436
 30
0.0
  0
SPLINE
  5
24D
100
AcDbEntity
  8
0
100
AcDbSpline
 62
7
  6
BYLAYER
 70
0
 71
3
 72
14
 73
10
 74
0
 42
0.0000001
 43
0.0000001
 44
0.0000000001
 40
0.0
 40
0.0
 40
0.0
 40
0.0
 40
0.1083452369
 40
0.2186842558
 40
0.3328271038
 40
0.4522901787
 40
0.5781959192
 40
0.7113049609
 40
1.0
 40
1.0
 40
1.0
 40
1.0
 10
8.3801848379
 20
47.3537274701
 30
0.0
 10
8.3154521777
 20
47.3910904663
 30
0.0
 10
8.190954141
 20
47.4777651184
 30
0.0
 10
8.0261154385
 20
47.6389560582
 30
0.0
 10
7.8839033988
 20
47.8300283593
 30
0.0
 10
7.7657068514
 20
48.0489362784
 30
0.0
 10
7.6722914999
 20
48.2934789736
 30
0.0
 10
7.5794719778
 20
48.6603968056
 30
0.0
 10
7.5536521355
 20
48.9525722898
 30
0.0
 10
7.5518912207
 20
49.1517198853
 30
0.0
  0
SPLINE
  5
24E
100
AcDbEntity
  8
0
100
AcDbSpline
 62
7
  6
BYLAYER
 70
0
 71
3
 72
9
 73
5
 74
0
 42
0.0000001
 43
0.0000001
 44
0.0000000001
 40
0.0
 40
0.0
 40
0.0
 40
0.0
 40
0.5178277143
 40
1.0
 40
1.0
 40
1.0
 40
1.0
 10
10.4088571044
 20
54.1002568155
 30
0.0
 10
10.526863442
 20
54.1669953148
 30
0.0
 10
10.7620312783
 20
54.2835775315
 30
0.0
 10
11.0105572851
 20
54.3690304383
 30
0.0
 10
11.1327744053
 20
54.4006305245
 30
0.0
  0
SPLINE
  5
24F
100
AcDbEntity
  8
0
100
AcDbSpline
 62
7
  6
BYLAYER
 70
0
 71
3
 72
15
 73
11
 74
0
 42
0.0000001
 43
0.0000001
 44
0.0000000001
 40
0.0
 40
0.0
 40
0.0
 40
0.0
 40
0.1137599681
 40
0.2366986381
 40
0.366274217
 40
0.4993524934
 40
0.6325256903
 40
0.7623583223
 40
0.8857269029
 40
1.0
 40
1.0
 40
1.0
 40
1.0
 10
7.5449997447
 20
49.9288922729
 30
0.0
 10
7.5434756875
 20
50.100433172
 30
0.0
 10
7.5723156586
 20
50.4579766541
 30
0.0
 10
7.6948225601
 20
50.9980636954
 30
0.0
 10
7.8937638633
 20
51.5459624158
 30
0.0
 10
8.1615900573
 20
52.0808352807
 30
0.0
 10
8.488179084
 20
52.582451267
 30
0.0
 10
8.8611727006
 20
53.031910013
 30
0.0
 10
9.2664128364
 20
53.4120115475
 30
0.0
 10
9.5611509119
 20
53.6188961144
 30
0.0
 10
9.710385894
 20
53.7050564572
 30
0.0
  0
SPLINE
  5
250
100
AcDbEntity
  8
0
100
AcDbSpline
 62
7
  6
BYLAYER
 70
0
 71
3
 72
16
 73
12
 74
0
 42
0.0000001
 43
0.0000001
 44
0.0000000001
 40
0.0
 40
0.0
 40
0.0
 40
0.0
 40
0.1230559978
 40
0.2577523401
 40
0.3987563187
 40
0.5398149154
 40
0.6746761166
 40
0.7979823323
 40
0.8542309341
 40
0.9065773369
 40
1.0
 40
1.0
 40
1.0
 40
1.0
 10
53.9047437157
 20
36.3040020699
 30
0.0
 10
53.8069741273
 20
36.2475551086
 30
0.0
 10
53.5880260036
 20
36.1533142449
 30
0.0
 10
53.2303982186
 20
36.0696561389
 30
0.0
 10
52.8476710789
 20
36.0407578145
 30
0.0
 10
52.4647349271
 20
36.0685955941
 30
0.0
 10
52.1063914115
 20
36.1513395578
 30
0.0
 10
51.8390514473
 20
36.2651305679
 30
0.0
 10
51.6598513105
 20
36.3809105663
 30
0.0
 10
51.5180761869
 20
36.50050628
 30
0.0
 10
51.4345997766
 20
36.6094153396
 30
0.0
 10
51.3977492873
 20
36.6867970113
 30
0.0
  0
SPLINE
  5
251
100
AcDbEntity
  8
0
100
AcDbSpline
 62
7
  6
BYLAYER
 70
0
 71
3
 72
9
 73
5
 74
0
 42
0.0000001
 43
0.0000001
 44
0.0000000001
 40
0.0
 40
0.0
 40
0.0
 40
0.0
 40
0.5061366826
 40
1.0
 40
1.0
 40
1.0
 40
1.0
 10
51.3824013484
 20
36.7218902472
 30
0.0
 10
51.3699535364
 20
36.7530921467
 30
0.0
 10
51.3507163427
 20
36.8170582645
 30
0.0
 10
51.3440815461
 20
36.8835845397
 30
0.0
 10
51.3440860248
 20
36.9163631845
 30
0.0
  0
SPLINE
  5
252
100
AcDbEntity
  8
0
100
AcDbSpline
 62
7
  6
BYLAYER
 70
0
 71
3
 72
15
 73
11
 74
0
 42
0.0000001
 43
0.0000001
 44
0.0000000001
 40
0.0
 40
0.0
 40
0.0
 40
0.0
 40
0.1141217032
 40
0.2373437542
 40
0.366969704
 40
0.499998918
 40
0.6330282826
 40
0.7626546718
 40
0.8858774158
 40
1.0
 40
1.0
 40
1.0
 40
1.0
 10
23.1454942236
 20
50.7965352579
 30
0.0
 10
23.0971010322
 20
50.8244744479
 30
0.0
 10
23.0014935127
 20
50.8915183113
 30
0.0
 10
22.8699147978
 20
51.0145738586
 30
0.0
 10
22.748683206
 20
51.1600927172
 30
0.0
 10
22.6423184759
 20
51.3225208435
 30
0.0
 10
22.5548330389
 20
51.4958492411
 30
0.0
 10
22.4894246576
 20
51.67359855
 30
0.0
 10
22.4486434493
 20
51.849077528
 30
0.0
 10
22.4383844984
 20
51.9653986701
 30
0.0
 10
22.4383844984
 20
52.0212784296
 30
0.0
  0
SPLINE
  5
253
100
AcDbEntity
  8
0
100
AcDbSpline
 62
7
  6
BYLAYER
 70
0
 71
3
 72
19
 73
15
 74
0
 42
0.0000001
 43
0.0000001
 44
0.0000000001
 40
0.0
 40
0.0
 40
0.0
 40
0.0
 40
0.0428394104
 40
0.0874448899
 40
0.1352571039
 40
0.1871950253
 40
0.2436735499
 40
0.3046656819
 40
0.4382689093
 40
0.5825434307
 40
0.7296392143
 40
0.871166535
 40
0.9376088396
 40
1.0
 40
1.0
 40
1.0
 40
1.0
 10
46.0658937024
 20
31.9182785918
 30
0.0
 10
46.0165893131
 20
31.8898078916
 30
0.0
 10
45.9078894779
 20
31.8446723929
 30
0.0
 10
45.7284867782
 20
31.8183364551
 30
0.0
 10
45.5358263409
 20
31.8325460471
 30
0.0
 10
45.3341975883
 20
31.886102056
 30
0.0
 10
45.1275370116
 20
31.9774126143
 30
0.0
 10
44.8422706676
 20
32.1520366338
 30
0.0
 10
44.5024278383
 20
32.4529916394
 30
0.0
 10
44.1531351962
 20
32.9001833187
 30
0.0
 10
43.8780937377
 20
33.4084314492
 30
0.0
 10
43.7259025055
 20
33.8582392163
 30
0.0
 10
43.6629801397
 20
34.2125492079
 30
0.0
 10
43.6516821408
 20
34.3838888255
 30
0.0
 10
43.6516821408
 20
34.4668075914
 30
0.0
  0
SPLINE
  5
254
100
AcDbEntity
  8
0
100
AcDbSpline
 62
7
  6
BYLAYER
 70
0
 71
3
 72
9
 73
5
 74
0
 42
0.0000001
 43
0.0000001
 44
0.0000000001
 40
0.0
 40
0.0
 40
0.0
 40
0.0
 40
0.2470391179
 40
1.0
 40
1.0
 40
1.0
 40
1.0
 10
54.3335559663
 20
36.8145401286
 30
0.0
 10
54.3319469685
 20
36.8223459085
 30
0.0
 10
54.3247125358
 20
36.8537915794
 30
0.0
 10
54.3146140676
 20
36.8845677007
 30
0.0
 10
54.3055949366
 20
36.907123061
 30
0.0
  0
SPLINE
  5
255
100
AcDbEntity
  8
0
100
AcDbSpline
 62
7
  6
BYLAYER
 70
0
 71
3
 72
17
 73
13
 74
0
 42
0.0000001
 43
0.0000001
 44
0.0000000001
 40
0.0
 40
0.0
 40
0.0
 40
0.0
 40
0.0931312823
 40
0.1453289666
 40
0.2014477754
 40
0.261369072
 40
0.3247398307
 40
0.4595737492
 40
0.6007312353
 40
0.7419102408
 40
0.8767966371
 40
1.0
 40
1.0
 40
1.0
 40
1.0
 10
54.2935241316
 20
36.9351612736
 30
0.0
 10
54.2576248744
 20
37.0129574624
 30
0.0
 10
54.1751845733
 20
37.1227210524
 30
0.0
 10
54.0342562218
 20
37.2432952245
 30
0.0
 10
53.9043578592
 20
37.3283197166
 30
0.0
 10
53.756647395
 20
37.4026150442
 30
0.0
 10
53.5346435668
 20
37.4878416579
 30
0.0
 10
53.2290330005
 20
37.5592226237
 30
0.0
 10
52.8449545653
 20
37.5879158732
 30
0.0
 10
52.4606488789
 20
37.5594572856
 30
0.0
 10
52.1014785543
 20
37.4758054557
 30
0.0
 10
51.8815748635
 20
37.3812712799
 30
0.0
 10
51.7834145403
 20
37.3245987291
 30
0.0
  0
SPLINE
  5
256
100
AcDbEntity
  8
0
100
AcDbSpline
 62
7
  6
BYLAYER
 70
0
 71
3
 72
11
 73
7
 74
0
 42
0.0000001
 43
0.0000001
 44
0.0000000001
 40
0.0
 40
0.0
 40
0.0
 40
0.0
 40
0.2177827477
 40
0.4509152641
 40
0.7103063952
 40
1.0
 40
1.0
 40
1.0
 40
1.0
 10
51.3440860248
 20
36.9163631845
 30
0.0
 10
51.344093831
 20
36.9734954225
 30
0.0
 10
51.3651945474
 20
37.0925784564
 30
0.0
 10
51.4554760637
 20
37.2585001479
 30
0.0
 10
51.5981898093
 20
37.4084809622
 30
0.0
 10
51.7175990751
 20
37.4907259837
 30
0.0
 10
51.7834145403
 20
37.5287243334
 30
0.0
  0
SPLINE
  5
257
100
AcDbEntity
  8
0
100
AcDbSpline
 62
7
  6
BYLAYER
 70
0
 71
3
 72
15
 73
11
 74
0
 42
0.0000001
 43
0.0000001
 44
0.0000000001
 40
0.0
 40
0.0
 40
0.0
 40
0.0
 40
0.1141232787
 40
0.2373467935
 40
0.3669716251
 40
0.4999988493
 40
0.6330262331
 40
0.7626515288
 40
0.885875802
 40
1.0
 40
1.0
 40
1.0
 40
1.0
 10
22.4383903864
 20
49.5717886869
 30
0.0
 10
22.341602773
 20
49.6276677774
 30
0.0
 10
22.1503869907
 20
49.7617593504
 30
0.0
 10
21.8872295356
 20
50.0078724817
 30
0.0
 10
21.6447699701
 20
50.2989106139
 30
0.0
 10
21.4320443834
 20
50.6237628041
 30
0.0
 10
21.2570750393
 20
50.970414214
 30
0.0
 10
21.1262560324
 20
51.3259099839
 30
0.0
 10
21.0446918412
 20
51.676869103
 30
0.0
 10
21.0241709361
 20
51.9095140528
 30
0.0
 10
21.0241709361
 20
52.0212750302
 30
0.0
  0
SPLINE
  5
258
100
AcDbEntity
  8
0
100
AcDbSpline
 62
7
  6
BYLAYER
 70
0
 71
3
 72
19
 73
15
 74
0
 42
0.0000001
 43
0.0000001
 44
0.0000000001
 40
0.0
 40
0.0
 40
0.0
 40
0.0
 40
0.0623913713
 40
0.1288320668
 40
0.2703532864
 40
0.4174438321
 40
0.5617188966
 40
0.6953267151
 40
0.7563201856
 40
0.81280034
 40
0.8647386834
 40
0.912551973
 40
0.957158712
 40
1.0
 40
1.0
 40
1.0
 40
1.0
 10
51.7834145403
 20
37.5287243334
 30
0.0
 10
51.837272091
 20
37.5598188192
 30
0.0
 10
51.9527959083
 20
37.6167321886
 30
0.0
 10
52.206515995
 20
37.7087257991
 30
0.0
 10
52.5557328899
 20
37.7785512318
 30
0.0
 10
52.9889790422
 20
37.7905061689
 30
0.0
 10
53.4104233282
 20
37.7313385694
 30
0.0
 10
53.7333513918
 20
37.6234728107
 30
0.0
 10
53.953754624
 20
37.5036688358
 30
0.0
 10
54.0905705482
 20
37.4036881015
 30
0.0
 10
54.2009674296
 20
37.2928066134
 30
0.0
 10
54.2824567316
 20
37.1730032037
 30
0.0
 10
54.332625127
 20
37.0465967399
 30
0.0
 10
54.3440780659
 20
36.9590657189
 30
0.0
 10
54.3440722312
 20
36.9163632188
 30
0.0
  0
SPLINE
  5
259
100
AcDbEntity
  8
0
100
AcDbSpline
 62
7
  6
BYLAYER
 70
0
 71
3
 72
10
 73
6
 74
0
 42
0.0000001
 43
0.0000001
 44
0.0000000001
 40
0.0
 40
0.0
 40
0.0
 40
0.0
 40
0.278361756
 40
0.5377493618
 40
1.0
 40
1.0
 40
1.0
 40
1.0
 10
51.7834145403
 20
37.3245987291
 30
0.0
 10
51.7386511574
 20
37.2987547322
 30
0.0
 10
51.6547668049
 20
37.2439180163
 30
0.0
 10
51.5134467818
 20
37.1232974948
 30
0.0
 10
51.4307253486
 20
37.0133318327
 30
0.0
 10
51.3947424321
 20
36.9354042204
 30
0.0
  0
SPLINE
  5
25A
100
AcDbEntity
  8
0
100
AcDbSpline
 62
7
  6
BYLAYER
 70
0
 71
3
 72
9
 73
5
 74
0
 42
0.0000001
 43
0.0000001
 44
0.0000000001
 40
0.0
 40
0.0
 40
0.0
 40
0.0
 40
0.2534285758
 40
1.0
 40
1.0
 40
1.0
 40
1.0
 10
51.3825598557
 20
36.907108672
 30
0.0
 10
51.3795952273
 20
36.8996905654
 30
0.0
 10
51.3685051185
 20
36.8701812726
 30
0.0
 10
51.3599102597
 20
36.8397261292
 30
0.0
 10
51.3550618304
 20
36.8166975668
 30
0.0
  0
SPLINE
  5
25B
100
AcDbEntity
  8
0
100
AcDbSpline
 62
7
  6
BYLAYER
 70
0
 71
3
 72
11
 73
7
 74
0
 42
0.0000001
 43
0.0000001
 44
0.0000000001
 40
0.0
 40
0.0
 40
0.0
 40
0.0
 40
0.2897003537
 40
0.5490843943
 40
0.7822141087
 40
1.0
 40
1.0
 40
1.0
 40
1.0
 10
22.4383844984
 20
54.470785681
 30
0.0
 10
22.4383844984
 20
54.5214535944
 30
0.0
 10
22.4460652062
 20
54.6178133947
 30
0.0
 10
22.4850889476
 20
54.7502076646
 30
0.0
 10
22.5507920478
 20
54.857639983
 30
0.0
 10
22.6125092934
 20
54.90952659
 30
0.0
 10
22.645496462
 20
54.9285716226
 30
0.0
  0
SPLINE
  5
25C
100
AcDbEntity
  8
0
100
AcDbSpline
 62
7
  6
BYLAYER
 70
0
 71
3
 72
19
 73
15
 74
0
 42
0.0000001
 43
0.0000001
 44
0.0000000001
 40
0.0
 40
0.0
 40
0.0
 40
0.0
 40
0.0428394104
 40
0.0874448899
 40
0.1352571039
 40
0.1871950253
 40
0.2436735499
 40
0.3046656819
 40
0.4382689093
 40
0.5825434307
 40
0.7296392143
 40
0.871166535
 40
0.9376088396
 40
1.0
 40
1.0
 40
1.0
 40
1.0
 10
15.6601755211
 20
54.371645539
 30
0.0
 10
15.6108711318
 20
54.3431748388
 30
0.0
 10
15.5021712966
 20
54.29803934
 30
0.0
 10
15.3227685969
 20
54.2717034023
 30
0.0
 10
15.1301081596
 20
54.2859129943
 30
0.0
 10
14.9284794069
 20
54.3394690032
 30
0.0
 10
14.7218188303
 20
54.4307795614
 30
0.0
 10
14.4365524862
 20
54.605403581
 30
0.0
 10
14.096709657
 20
54.9063585866
 30
0.0
 10
13.7474170149
 20
55.3535502659
 30
0.0
 10
13.4723755564
 20
55.8617983964
 30
0.0
 10
13.3201843242
 20
56.3116061635
 30
0.0
 10
13.2572619584
 20
56.6659161551
 30
0.0
 10
13.2459639594
 20
56.8372557727
 30
0.0
 10
13.2459639594
 20
56.9201745385
 30
0.0
  0
SPLINE
  5
25D
100
AcDbEntity
  8
0
100
AcDbSpline
 62
7
  6
BYLAYER
 70
0
 71
3
 72
15
 73
11
 74
0
 42
0.0000001
 43
0.0000001
 44
0.0000000001
 40
0.0
 40
0.0
 40
0.0
 40
0.0
 40
0.1448520769
 40
0.2745457152
 40
0.3911098206
 40
0.5000019296
 40
0.6088936798
 40
0.7254568371
 40
0.8551492479
 40
1.0
 40
1.0
 40
1.0
 40
1.0
 10
21.0241709361
 20
54.4707822816
 30
0.0
 10
21.0241709361
 20
54.5721175046
 30
0.0
 10
21.0395479795
 20
54.7648433927
 30
0.0
 10
21.1175428298
 20
55.0295979907
 30
0.0
 10
21.2491157744
 20
55.244553217
 30
0.0
 10
21.4315925479
 20
55.398115057
 30
0.0
 10
21.6558167351
 20
55.4793692022
 30
0.0
 10
21.9077581016
 20
55.4858423323
 30
0.0
 10
22.1760384221
 20
55.4210152056
 30
0.0
 10
22.3506318152
 20
55.3379718953
 30
0.0
 10
22.4383903864
 20
55.2873056068
 30
0.0
  0
SPLINE
  5
25E
100
AcDbEntity
  8
0
100
AcDbSpline
 62
7
  6
BYLAYER
 70
0
 71
3
 72
12
 73
8
 74
0
 42
0.0000001
 43
0.0000001
 44
0.0000000001
 40
0.0
 40
0.0
 40
0.0
 40
0.0
 40
0.2894832083
 40
0.5486755374
 40
0.7816290778
 40
0.8918324007
 40
1.0
 40
1.0
 40
1.0
 40
1.0
 10
43.6516821408
 20
34.4668075914
 30
0.0
 10
43.6516821408
 20
34.5681435233
 30
0.0
 10
43.6670947508
 20
34.7608903337
 30
0.0
 10
43.7449465277
 20
35.025575311
 30
0.0
 10
43.8569899915
 20
35.2082012863
 30
0.0
 10
43.9700974383
 20
35.3194012244
 30
0.0
 10
44.033118861
 20
35.3634387095
 30
0.0
 10
44.0659094797
 20
35.3823735728
 30
0.0
  0
SPLINE
  5
25F
100
AcDbEntity
  8
0
100
AcDbSpline
 62
7
  6
BYLAYER
 70
0
 71
3
 72
15
 73
11
 74
0
 42
0.0000001
 43
0.0000001
 44
0.0000000001
 40
0.0
 40
0.0
 40
0.0
 40
0.0
 40
0.1116720876
 40
0.2314437405
 40
0.3575435938
 40
0.4877642084
 40
0.6196393359
 40
0.7506108645
 40
0.8781588987
 40
1.0
 40
1.0
 40
1.0
 40
1.0
 10
7.5518912207
 20
49.1517198853
 30
0.0
 10
7.550184529
 20
49.3447352269
 30
0.0
 10
7.5775915578
 20
49.7453652395
 30
0.0
 10
7.6975564264
 20
50.3529675733
 30
0.0
 10
7.8944339803
 20
50.97384673
 30
0.0
 10
8.1625910797
 20
51.5901483991
 30
0.0
 10
8.4943197815
 20
52.1843134816
 30
0.0
 10
8.8801610968
 20
52.7392935084
 30
0.0
 10
9.3089328548
 20
53.2391509803
 30
0.0
 10
9.624382966
 20
53.5346218323
 30
0.0
 10
9.7868366218
 20
53.668640832
 30
0.0
  0
SPLINE
  5
260
100
AcDbEntity
  8
0
100
AcDbSpline
 62
7
  6
BYLAYER
 70
0
 71
3
 72
9
 73
5
 74
0
 42
0.0000001
 43
0.0000001
 44
0.0000000001
 40
0.0
 40
0.0
 40
0.0
 40
0.0
 40
0.2588628005
 40
1.0
 40
1.0
 40
1.0
 40
1.0
 10
9.7868366218
 20
53.668640832
 30
0.0
 10
9.8350680176
 20
53.70843017
 30
0.0
 10
10.0242613328
 20
53.8585842458
 30
0.0
 10
10.2251150738
 20
53.9943433344
 30
0.0
 10
10.3801460835
 20
54.0838499954
 30
0.0
  0
SPLINE
  5
261
100
AcDbEntity
  8
0
100
AcDbSpline
 62
7
  6
BYLAYER
 70
0
 71
3
 72
12
 73
8
 74
0
 42
0.0000001
 43
0.0000001
 44
0.0000000001
 40
0.0
 40
0.0
 40
0.0
 40
0.0
 40
0.2894832083
 40
0.5486755374
 40
0.7816290778
 40
0.8918324007
 40
1.0
 40
1.0
 40
1.0
 40
1.0
 10
13.2459639594
 20
63.4521938756
 30
0.0
 10
13.2459639594
 20
63.5535298075
 30
0.0
 10
13.2613765694
 20
63.7462766179
 30
0.0
 10
13.3392283464
 20
64.0109615952
 30
0.0
 10
13.4512718101
 20
64.1935875704
 30
0.0
 10
13.564379257
 20
64.3047875086
 30
0.0
 10
13.6274006797
 20
64.3488249937
 30
0.0
 10
13.6601912984
 20
64.367759857
 30
0.0
  0
SPLINE
  5
262
100
AcDbEntity
  8
0
100
AcDbSpline
 62
7
  6
BYLAYER
 70
0
 71
3
 72
19
 73
15
 74
0
 42
0.0000001
 43
0.0000001
 44
0.0000000001
 40
0.0
 40
0.0
 40
0.0
 40
0.0
 40
0.0428394104
 40
0.0874448899
 40
0.1352571039
 40
0.1871950253
 40
0.2436735499
 40
0.3046656819
 40
0.4382689093
 40
0.5825434307
 40
0.7296392143
 40
0.871166535
 40
0.9376088396
 40
1.0
 40
1.0
 40
1.0
 40
1.0
 10
15.6601755211
 20
60.903664876
 30
0.0
 10
15.6108711318
 20
60.8751941758
 30
0.0
 10
15.5021712966
 20
60.8300586771
 30
0.0
 10
15.3227685969
 20
60.8037227393
 30
0.0
 10
15.1301081596
 20
60.8179323313
 30
0.0
 10
14.9284794069
 20
60.8714883402
 30
0.0
 10
14.7218188303
 20
60.9627988985
 30
0.0
 10
14.4365524862
 20
61.137422918
 30
0.0
 10
14.096709657
 20
61.4383779236
 30
0.0
 10
13.7474170149
 20
61.8855696029
 30
0.0
 10
13.4723755564
 20
62.3938177334
 30
0.0
 10
13.3201843242
 20
62.8436255005
 30
0.0
 10
13.2572619584
 20
63.1979354921
 30
0.0
 10
13.2459639594
 20
63.3692751097
 30
0.0
 10
13.2459639594
 20
63.4521938756
 30
0.0
  0
SPLINE
  5
263
100
AcDbEntity
  8
0
100
AcDbSpline
 62
7
  6
BYLAYER
 70
0
 71
3
 72
12
 73
8
 74
0
 42
0.0000001
 43
0.0000001
 44
0.0000000001
 40
0.0
 40
0.0
 40
0.0
 40
0.0
 40
0.2894832083
 40
0.5486755374
 40
0.7816290778
 40
0.8918324007
 40
1.0
 40
1.0
 40
1.0
 40
1.0
 10
13.2459639594
 20
56.9201745385
 30
0.0
 10
13.2459639594
 20
57.0215104704
 30
0.0
 10
13.2613765694
 20
57.2142572808
 30
0.0
 10
13.3392283464
 20
57.4789422581
 30
0.0
 10
13.4512718101
 20
57.6615682334
 30
0.0
 10
13.564379257
 20
57.7727681716
 30
0.0
 10
13.6274006797
 20
57.8168056566
 30
0.0
 10
13.6601912984
 20
57.83574052
 30
0.0
  0
SPLINE
  5
264
100
AcDbEntity
  8
0
100
AcDbSpline
 62
7
  6
BYLAYER
 70
0
 71
3
 72
19
 73
15
 74
0
 42
0.0000001
 43
0.0000001
 44
0.0000000001
 40
0.0
 40
0.0
 40
0.0
 40
0.0
 40
0.0428394104
 40
0.0874448899
 40
0.1352571039
 40
0.1871950253
 40
0.2436735499
 40
0.3046656819
 40
0.4382689093
 40
0.5825434307
 40
0.7296392143
 40
0.871166535
 40
0.9376088396
 40
1.0
 40
1.0
 40
1.0
 40
1.0
 10
15.6601755211
 20
49.4726310362
 30
0.0
 10
15.6108711318
 20
49.444160336
 30
0.0
 10
15.5021712966
 20
49.3990248373
 30
0.0
 10
15.3227685969
 20
49.3726888995
 30
0.0
 10
15.1301081596
 20
49.3868984915
 30
0.0
 10
14.9284794069
 20
49.4404545004
 30
0.0
 10
14.7218188303
 20
49.5317650587
 30
0.0
 10
14.4365524862
 20
49.7063890782
 30
0.0
 10
14.096709657
 20
50.0073440838
 30
0.0
 10
13.7474170149
 20
50.4545357631
 30
0.0
 10
13.4723755564
 20
50.9627838936
 30
0.0
 10
13.3201843242
 20
51.4125916607
 30
0.0
 10
13.2572619584
 20
51.7669016523
 30
0.0
 10
13.2459639594
 20
51.9382412699
 30
0.0
 10
13.2459639594
 20
52.0211600357
 30
0.0
  0
SPLINE
  5
265
100
AcDbEntity
  8
0
100
AcDbSpline
 62
7
  6
BYLAYER
 70
0
 71
3
 72
12
 73
8
 74
0
 42
0.0000001
 43
0.0000001
 44
0.0000000001
 40
0.0
 40
0.0
 40
0.0
 40
0.0
 40
0.2894832083
 40
0.5486755374
 40
0.7816290778
 40
0.8918324007
 40
1.0
 40
1.0
 40
1.0
 40
1.0
 10
13.2459639594
 20
52.0211600357
 30
0.0
 10
13.2459639594
 20
52.1224959676
 30
0.0
 10
13.2613765694
 20
52.3152427781
 30
0.0
 10
13.3392283464
 20
52.5799277553
 30
0.0
 10
13.4512718101
 20
52.7625537306
 30
0.0
 10
13.564379257
 20
52.8737536688
 30
0.0
 10
13.6274006797
 20
52.9177911539
 30
0.0
 10
13.6601912984
 20
52.9367260172
 30
0.0
  0
ENDSEC
  0
SECTION
  2
OBJECTS
  0
DICTIONARY
  5
C
100
AcDbDictionary
280
0
281
1
  3
ACAD_GROUP
350
D
  3
ACAD_MLINESTYLE
350
17
  3
ACAD_LAYOUT
350
1A
  3
ACAD_PLOTSETTINGS
350
19
  3
ACAD_PLOTSTYLENAME
350
E
  0
DICTIONARY
  5
D
102
{ACAD_REACTORS
330
C
102
}
100
AcDbDictionary
280
0
281
1
  0
ACDBDICTIONARYWDFLT
  5
E
102
{ACAD_REACTORS
330
C
102
}
100
AcDbDictionary
281
1
  3
Normal
350
F
100
AcDbDictionaryWithDefault
340
F
  0
DICTIONARY
  5
17
102
{ACAD_REACTORS
330
C
102
}
100
AcDbDictionary
280
0
281
1
  3
Standard
350
18
  0
DICTIONARY
  5
19
102
{ACAD_REACTORS
330
C
102
}
100
AcDbDictionary
281
1
  0
DICTIONARY
  5
1A
102
{ACAD_REACTORS
330
C
102
}
100
AcDbDictionary
281
1
  3
Model
350
266
  3
Layout1
350
267
  0
ACDBPLACEHOLDER
  5
F
102
{ACAD_REACTORS
330
E
102
}
  0
MLINESTYLE
  5
18
102
{ACAD_REACTORS
330
17
102
}
100
AcDbMlineStyle
  2
STANDARD
 70
0
  3

 62
256
 51
90.0
 52
90.0
 71
2
 49
0.5
 62
256
  6
BYLAYER
 49
-0.5
 62
256
  6
BYLAYER
  0
LAYOUT
  5
266
102
{ACAD_REACTORS
330
1A
102
}
100
AcDbPlotSettings
  1

  2
none_device
  4

  6

 40
0.0
 41
0.0
 42
0.0
 43
0.0
 44
210.0
 45
297.0
 46
0.0
 47
0.0
 48
0.0
 49
0.0
140
0.0
141
0.0
142
1.0
143
1.0
 70
1024
 72
1
 73
0
 74
0
  7

 75
0
147
1.0
148
0.0
149
0.0
100
AcDbLayout
  1
Model
 70
0
 71
0
 10
0.0
 20
0.0
 11
210.0
 21
297.0
 12
0.0
 22
0.0
 32
0.0
 14
0.0
 24
0.0
 34
0.0
 15
0.0
 25
0.0
 35
0.0
146
0.0
 13
0.0
 23
0.0
 33
0.0
 16
1.0
 26
0.0
 36
0.0
 17
0.0
 27
1.0
 37
0.0
 76
0
330
210
345
0
346
0
  0
LAYOUT
  5
267
102
{ACAD_REACTORS
330
1A
102
}
100
AcDbPlotSettings
  1

  2
none_device
  4

  6

 40
0.0
 41
0.0
 42
0.0
 43
0.0
 44
210.0
 45
297.0
 46
0.0
 47
0.0
 48
0.0
 49
0.0
140
0.0
141
0.0
142
1.0
143
1.0
 70
0
 72
1
 73
0
 74
0
  7

 75
0
147
1.0
148
0.0
149
0.0
100
AcDbLayout
  1
Layout1
 70
0
 71
1
 10
0.0
 20
0.0
 11
210.0
 21
297.0
 12
0.0
 22
0.0
 32
0.0
 14
0.0
 24
0.0
 34
0.0
 15
0.0
 25
0.0
 35
0.0
146
0.0
 13
0.0
 23
0.0
 33
0.0
 16
1.0
 26
0.0
 36
0.0
 17
0.0
 27
1.0
 37
0.0
 76
0
330
211
345
0
346
0
  0
ENDSEC
  0
EOF
