999
DXF file: C:\Users\sesa63760\Dev\_Creo\CAD\MCADID0004762_3D-CAD\drw0001_2.dxf
999
Pro/ENGINEER 2019471 by Parametric Technology Corporation
  0
SECTION
  2
HEADER
  9
$ACADVER
  1
AC1024
  9
$DWGCODEPAGE
  3
ANSI_1252
  9
$EXTMAX
 10
46.05026148
 20
65.1282269504
 30
0.0
  9
$EXTMIN
 10
0.0
 20
0.0
 30
0.0
  9
$LIMMIN
 10
0.0
 20
0.0
  9
$LIMMAX
 10
46.05026148
 20
65.1282269504
  9
$VIEWCTR
 10
23.02513074
 20
32.5641134752
  9
$VIEWSIZE
 40
65.1282269504
  9
$CLAYER
  8
0
  9
$LTSCALE
 40
4.2453955345
  9
$CELTYPE
  6
BYLAYER
  9
$DIMSCALE
 40
1.0
  9
$DIMASZ
 40
0.5482173986
  9
$DIMEXO
 40
1.0
  9
$DIMDLI
 40
2.9331823693
  9
$DIMEXE
 40
1.0
  9
$DIMCEN
 40
0.6947010875
  9
$DIMLFAC
 40
1.0
  9
$DIMBLK
  1
_FILLED
  9
$DIMALT
 70
0
  9
$DIMALTF
 40
0.0393700787
  9
$DIMTXT
 40
0.767504358
  9
$DIMTOL
 70
1
  9
$DIMLIM
 70
0
  9
$DIMTFAC
 40
1.0
  9
$DIMTP
 40
0.01
  9
$DIMTM
 40
0.01
  9
$DIMGAP
 40
0.625
  9
$DIMDSEP
 70
46
  9
$AUNITS
 70
0
  9
$PDMODE
 70
3
  9
$PDSIZE
 40
0.3125
  9
$HANDSEED
  5
2B0
  9
$TILEMODE
 70
1
  9
$MEASUREMENT
 70
1
  9
$INSUNITS
 70
4
  0
ENDSEC
  0
SECTION
  2
CLASSES
  0
CLASS
  1
ACDBDICTIONARYWDFLT
  2
AcDbDictionaryWithDefault
  3
AutoCAD 2000
 90
0
 91
1
280
0
281
0
  0
CLASS
  1
ACDBPLACEHOLDER
  2
AcDbPlaceHolder
  3
AutoCAD 2000
 90
0
 91
1
280
0
281
0
  0
CLASS
  1
LAYOUT
  2
AcDbLayout
  3
AutoCAD 2000
 90
0
 91
0
280
0
281
0
  0
ENDSEC
  0
SECTION
  2
TABLES
  0
TABLE
  2
VPORT
  5
8
100
AcDbSymbolTable
 70
2
  0
VPORT
  5
1F4
100
AcDbSymbolTableRecord
100
AcDbViewportTableRecord
  2
*ACTIVE
 70
0
 10
0.0
 20
0.0
 11
1.0
 21
1.0
 12
23.02513074
 22
32.5641134752
 13
0.0
 23
0.0
 14
1.0
 24
1.0
 15
0.0
 25
0.0
 16
0.0
 26
0.0
 36
1.0
 17
0.0
 27
0.0
 37
0.0
 40
65.1282269504
 41
0.7070707071
 42
50.0
 43
0.0
 44
0.0
 50
0.0
 51
0.0
 71
0
 72
100
 73
1
 74
1
 75
0
 76
0
 77
0
 78
0
  0
ENDTAB
  0
TABLE
  2
LTYPE
  5
5
100
AcDbSymbolTable
 70
6
  0
LTYPE
  5
14
100
AcDbSymbolTableRecord
100
AcDbLinetypeTableRecord
  2
BYBLOCK
 70
0
  3

 72
65
 73
0
 40
0.0
  0
LTYPE
  5
15
100
AcDbSymbolTableRecord
100
AcDbLinetypeTableRecord
  2
BYLAYER
 70
0
  3

 72
65
 73
0
 40
0.0
  0
LTYPE
  5
16
100
AcDbSymbolTableRecord
100
AcDbLinetypeTableRecord
  2
CONTINUOUS
 70
64
  3
Solid line
 72
65
 73
0
 40
0.0
  0
LTYPE
  5
1F5
100
AcDbSymbolTableRecord
100
AcDbLinetypeTableRecord
  2
CENTER
 70
64
  3
____ _ ____ _ ____ _ ____ _ ____ _ ____ _ ____
 72
65
 73
4
 40
0.6
 49
0.375
 74
0
 49
-0.075
 74
0
 49
0.075
 74
0
 49
-0.075
 74
0
  0
LTYPE
  5
1F6
100
AcDbSymbolTableRecord
100
AcDbLinetypeTableRecord
  2
HIDDEN
 70
64
  3
- - - - - - - - - - - - - - - - - - - -
 72
65
 73
2
 40
0.2
 49
0.1
 74
0
 49
-0.1
 74
0
  0
LTYPE
  5
1F7
100
AcDbSymbolTableRecord
100
AcDbLinetypeTableRecord
  2
PHANTOM
 70
64
  3
_____ _ _ _____ _ _ _____ _ _ _____
 72
65
 73
6
 40
0.8
 49
0.45
 74
0
 49
-0.05
 74
0
 49
0.1
 74
0
 49
-0.05
 74
0
 49
0.1
 74
0
 49
-0.05
 74
0
  0
LTYPE
  5
1F8
100
AcDbSymbolTableRecord
100
AcDbLinetypeTableRecord
  2
DOT
 70
64
  3
. . . . . . . . . . . . . . . . . . . .
 72
65
 73
2
 40
0.2
 49
0.1
 74
0
 49
-0.1
 74
0
  0
LTYPE
  5
1F9
100
AcDbSymbolTableRecord
100
AcDbLinetypeTableRecord
  2
DASHED
 70
64
  3
- - - - - - - - - - - - - - - - - - - -
 72
65
 73
2
 40
0.2
 49
0.1
 74
0
 49
-0.1
 74
0
  0
ENDTAB
  0
TABLE
  2
LAYER
  5
2
100
AcDbSymbolTable
 70
36
  0
LAYER
  5
10
100
AcDbSymbolTableRecord
100
AcDbLayerTableRecord
  2
0
 70
0
 62
7
  6
CONTINUOUS
370
-3
390
F
  0
LAYER
  5
1FA
100
AcDbSymbolTableRecord
100
AcDbLayerTableRecord
  2
DEFAULT_1
 70
0
 62
7
  6
CENTER
370
-3
390
F
  0
LAYER
  5
1FB
100
AcDbSymbolTableRecord
100
AcDbLayerTableRecord
  2
DEFAULT_2
 70
0
 62
7
  6
HIDDEN
370
-3
390
F
  0
LAYER
  5
1FC
100
AcDbSymbolTableRecord
100
AcDbLayerTableRecord
  2
DEFAULT_3
 70
0
 62
7
  6
PHANTOM
370
-3
390
F
  0
LAYER
  5
1FD
100
AcDbSymbolTableRecord
100
AcDbLayerTableRecord
  2
00_COMPONENTS
 70
0
 62
7
  6
CONTINUOUS
370
-3
390
F
  0
LAYER
  5
1FE
100
AcDbSymbolTableRecord
100
AcDbLayerTableRecord
  2
01_1_DEFAULT_DATUMS
 70
0
 62
7
  6
CONTINUOUS
370
-3
390
F
  0
LAYER
  5
1FF
100
AcDbSymbolTableRecord
100
AcDbLayerTableRecord
  2
01_PLANES
 70
0
 62
7
  6
CONTINUOUS
370
-3
390
F
  0
LAYER
  5
200
100
AcDbSymbolTableRecord
100
AcDbLayerTableRecord
  2
02_COORD_SYS
 70
0
 62
7
  6
CONTINUOUS
370
-3
390
F
  0
LAYER
  5
201
100
AcDbSymbolTableRecord
100
AcDbLayerTableRecord
  2
03_AXES
 70
0
 62
7
  6
CONTINUOUS
370
-3
390
F
  0
LAYER
  5
202
100
AcDbSymbolTableRecord
100
AcDbLayerTableRecord
  2
04_POINTS
 70
0
 62
7
  6
CONTINUOUS
370
-3
390
F
  0
LAYER
  5
203
100
AcDbSymbolTableRecord
100
AcDbLayerTableRecord
  2
05_CURVES
 70
0
 62
7
  6
CONTINUOUS
370
-3
390
F
  0
LAYER
  5
204
100
AcDbSymbolTableRecord
100
AcDbLayerTableRecord
  2
06_SURFS
 70
0
 62
7
  6
CONTINUOUS
370
-3
390
F
  0
LAYER
  5
205
100
AcDbSymbolTableRecord
100
AcDbLayerTableRecord
  2
07_COSMETICS
 70
0
 62
7
  6
CONTINUOUS
370
-3
390
F
  0
LAYER
  5
206
100
AcDbSymbolTableRecord
100
AcDbLayerTableRecord
  2
10_NOTES
 70
0
 62
7
  6
CONTINUOUS
370
-3
390
F
  0
LAYER
  5
207
100
AcDbSymbolTableRecord
100
AcDbLayerTableRecord
  2
11_NOTES_PUB
 70
0
 62
7
  6
CONTINUOUS
370
-3
390
F
  0
LAYER
  5
208
100
AcDbSymbolTableRecord
100
AcDbLayerTableRecord
  2
13_REF_GTOL
 70
0
 62
7
  6
CONTINUOUS
370
-3
390
F
  0
LAYER
  5
209
100
AcDbSymbolTableRecord
100
AcDbLayerTableRecord
  2
16_MISC
 70
0
 62
7
  6
CONTINUOUS
370
-3
390
F
  0
LAYER
  5
20A
100
AcDbSymbolTableRecord
100
AcDbLayerTableRecord
  2
17_NO_PRINT
 70
0
 62
7
  6
CONTINUOUS
370
-3
390
F
  0
LAYER
  5
20B
100
AcDbSymbolTableRecord
100
AcDbLayerTableRecord
  2
18_DATUM_CAMS_JOINTS
 70
0
 62
7
  6
CONTINUOUS
370
-3
390
F
  0
LAYER
  5
20C
100
AcDbSymbolTableRecord
100
AcDbLayerTableRecord
  2
19_DATUM_FUNCTIONAL
 70
0
 62
7
  6
CONTINUOUS
370
-3
390
F
  0
LAYER
  5
20D
100
AcDbSymbolTableRecord
100
AcDbLayerTableRecord
  2
20_DATUM_KINEMATIC_SCHEME
 70
0
 62
7
  6
CONTINUOUS
370
-3
390
F
  0
ENDTAB
  0
TABLE
  2
STYLE
  5
3
100
AcDbSymbolTable
 70
1
  0
STYLE
  5
11
100
AcDbSymbolTableRecord
100
AcDbTextStyleTableRecord
  2
STANDARD
 70
0
 40
0.0
 41
1.0
 50
0.0
 71
0
 42
0.2
  3
ARIAL.TTF
  4

  0
STYLE
  5
20E
100
AcDbSymbolTableRecord
100
AcDbTextStyleTableRecord
  2
TEXTSTYLE_1
 70
0
 40
0.0
 41
0.8
 50
0.0
 71
0
 42
0.2
  3
gdt
  4

  0
ENDTAB
  0
TABLE
  2
VIEW
  5
6
100
AcDbSymbolTable
 70
0
  0
ENDTAB
  0
TABLE
  2
UCS
  5
7
100
AcDbSymbolTable
 70
0
  0
ENDTAB
  0
TABLE
  2
APPID
  5
9
100
AcDbSymbolTable
 70
1
  0
APPID
  5
20F
100
AcDbSymbolTableRecord
100
AcDbRegAppTableRecord
  2
ACAD
 70
0
  0
ENDTAB
  0
TABLE
  2
BLOCK_RECORD
  5
1
100
AcDbSymbolTable
 70
0
  0
BLOCK_RECORD
  5
210
100
AcDbSymbolTableRecord
100
AcDbBlockTableRecord
  2
*Model_Space
  0
BLOCK_RECORD
  5
211
100
AcDbSymbolTableRecord
100
AcDbBlockTableRecord
  2
*Paper_Space
  0
BLOCK_RECORD
  5
212
100
AcDbSymbolTableRecord
100
AcDbBlockTableRecord
  2
_FILLED
  0
ENDTAB
  0
TABLE
  2
DIMSTYLE
  5
A
100
AcDbSymbolTable
 70
1
100
AcDbDimStyleTable
 71
0
  0
DIMSTYLE
105
213
100
AcDbSymbolTableRecord
100
AcDbDimStyleTableRecord
  2
STANDARD
 70
0
  3

  4

 40
1.0
 41
0.5482173986
 42
1.0
 43
0.38
 44
1.0
 45
0.0
 46
0.0
 47
0.01
 48
0.01
140
0.767504358
141
0.09
142
0.0
143
25.4
144
1.0
145
0.0
146
1.0
147
0.625
 71
1
 72
0
 73
0
 74
0
 75
0
 76
0
 77
1
 78
8
 79
2
170
0
171
1
172
0
173
0
174
0
175
0
176
0
177
0
178
0
270
2
179
2
271
2
272
2
273
2
274
2
275
0
280
0
281
0
282
0
283
1
284
8
285
0
286
0
287
3
288
0
340
11
278
46
341
212
342
212
343
212
344
212
  0
ENDTAB
  0
ENDSEC
  0
SECTION
  2
BLOCKS
  0
BLOCK
  5
20
100
AcDbEntity
  8
0
100
AcDbBlockBegin
  2
*Model_Space
 70
0
 10
0.0
 20
0.0
 30
0.0
  3
*Model_Space
  1

  0
ENDBLK
  5
21
100
AcDbEntity
  8
0
100
AcDbBlockEnd
  0
BLOCK
  5
1C
100
AcDbEntity
  8
0
100
AcDbBlockBegin
  2
*Paper_Space
 70
0
 10
0.0
 20
0.0
 30
0.0
  3
*Paper_Space
  1

  0
ENDBLK
  5
1D
100
AcDbEntity
  8
0
100
AcDbBlockEnd
  0
BLOCK
  5
214
100
AcDbEntity
  8
0
100
AcDbBlockBegin
  2
_FILLED
 70
64
 10
0.0
 20
0.0
  3
_FILLED
  1

  0
SOLID
  5
215
100
AcDbEntity
  8
0
  6
BYBLOCK
 62
0
100
AcDbTrace
 10
0.0
 20
0.0
 11
-1.0
 21
0.25
 12
-1.0
 22
-0.25
 13
-1.0
 23
-0.25
  0
ENDBLK
  5
216
100
AcDbEntity
  8
0
  6
BYBLOCK
 62
0
100
AcDbBlockEnd
  0
ENDSEC
  0
SECTION
  2
ENTITIES
  0
LINE
  5
217
100
AcDbEntity
  8
0
100
AcDbLine
 62
7
  6
BYLAYER
 10
25.793485731
 20
4.3445390071
 11
20.8945062455
 21
4.3445390071
  0
LINE
  5
218
100
AcDbEntity
  8
0
100
AcDbLine
 62
7
  6
BYLAYER
 10
26.3020358798
 20
4.8445390071
 11
20.3859560967
 21
4.8445390071
  0
LINE
  5
219
100
AcDbEntity
  8
0
100
AcDbLine
 62
7
  6
BYLAYER
 10
26.343984499
 20
5.5445390071
 11
26.3020358798
 21
5.5445390071
  0
LINE
  5
21A
100
AcDbEntity
  8
0
100
AcDbLine
 62
7
  6
BYLAYER
 10
20.3859560967
 20
5.5445390071
 11
20.3440074775
 21
5.5445390071
  0
LINE
  5
21B
100
AcDbEntity
  8
0
100
AcDbLine
 62
7
  6
BYLAYER
 10
28.0439933762
 20
5.6945390071
 11
18.6439986003
 21
5.6945390071
  0
LINE
  5
21C
100
AcDbEntity
  8
0
100
AcDbLine
 62
7
  6
BYLAYER
 10
28.1439959883
 20
6.4945390071
 11
28.0693991791
 21
6.4945390071
  0
LINE
  5
21D
100
AcDbEntity
  8
0
100
AcDbLine
 62
7
  6
BYLAYER
 10
23.4185927974
 20
6.4945390071
 11
23.2693991791
 21
6.4945390071
  0
LINE
  5
21E
100
AcDbEntity
  8
0
100
AcDbLine
 62
7
  6
BYLAYER
 10
18.6185927974
 20
6.4945390071
 11
18.5439959883
 21
6.4945390071
  0
LINE
  5
21F
100
AcDbEntity
  8
0
100
AcDbLine
 62
7
  6
BYLAYER
 10
18.5439959883
 20
9.8945390071
 11
18.6185927974
 21
9.8945390071
  0
LINE
  5
220
100
AcDbEntity
  8
0
100
AcDbLine
 62
7
  6
BYLAYER
 10
23.2693991791
 20
9.8945390071
 11
23.4185927974
 21
9.8945390071
  0
LINE
  5
221
100
AcDbEntity
  8
0
100
AcDbLine
 62
7
  6
BYLAYER
 10
28.0693991791
 20
9.8945390071
 11
28.1439959883
 21
9.8945390071
  0
LINE
  5
222
100
AcDbEntity
  8
0
100
AcDbLine
 62
7
  6
BYLAYER
 10
18.6439986003
 20
10.6945390071
 11
28.0439933762
 21
10.6945390071
  0
LINE
  5
223
100
AcDbEntity
  8
0
100
AcDbLine
 62
7
  6
BYLAYER
 10
18.6439959883
 20
5.6945390071
 11
18.5439959883
 21
5.7945390071
  0
LINE
  5
224
100
AcDbEntity
  8
0
100
AcDbLine
 62
7
  6
BYLAYER
 10
15.1649168923
 20
49.5781276461
 11
20.8104073493
 21
55.2236181031
  0
LINE
  5
225
100
AcDbEntity
  8
0
100
AcDbLine
 62
7
  6
BYLAYER
 10
30.3439372128
 20
16.4445390071
 11
16.3440547637
 21
16.4445390071
  0
LINE
  5
226
100
AcDbEntity
  8
0
100
AcDbLine
 62
7
  6
BYLAYER
 10
27.2741007137
 20
16.7445390071
 11
19.4138912628
 21
16.7445390071
  0
LINE
  5
227
100
AcDbEntity
  8
0
100
AcDbLine
 62
7
  6
BYLAYER
 10
9.8439959883
 20
59.5448816821
 11
9.8439959883
 21
34.5441963321
  0
LINE
  5
228
100
AcDbEntity
  8
0
100
AcDbLine
 62
7
  6
BYLAYER
 10
10.2498777726
 20
34.9500781164
 11
10.2498777726
 21
59.1389998978
  0
LINE
  5
229
100
AcDbEntity
  8
0
100
AcDbLine
 62
7
  6
BYLAYER
 10
12.1234660399
 20
40.989606499
 11
11.1293016232
 21
37.2793343848
  0
LINE
  5
22A
100
AcDbEntity
  8
0
100
AcDbLine
 62
7
  6
BYLAYER
 10
16.415792758
 20
18.7445390071
 11
30.2721992185
 21
18.7445390071
  0
LINE
  5
22B
100
AcDbEntity
  8
0
100
AcDbLine
 62
7
  6
BYLAYER
 10
16.3440103905
 20
19.5445390071
 11
18.3429960882
 21
19.5445390071
  0
LINE
  5
22C
100
AcDbEntity
  8
0
100
AcDbLine
 62
7
  6
BYLAYER
 10
22.3439959883
 20
19.5445390071
 11
24.3439959883
 21
19.5445390071
  0
LINE
  5
22D
100
AcDbEntity
  8
0
100
AcDbLine
 62
7
  6
BYLAYER
 10
28.3449958883
 20
19.5445390071
 11
30.343981586
 21
19.5445390071
  0
LINE
  5
22E
100
AcDbEntity
  8
0
100
AcDbLine
 62
7
  6
BYLAYER
 10
15.59400405
 20
20.2445390071
 11
31.0939879266
 21
20.2445390071
  0
LINE
  5
22F
100
AcDbEntity
  8
0
100
AcDbLine
 62
7
  6
BYLAYER
 10
29.1392926089
 20
54.2540491901
 11
27.9932230746
 21
53.1079796558
  0
LINE
  5
230
100
AcDbEntity
  8
0
100
AcDbLine
 62
7
  6
BYLAYER
 10
17.2805553396
 20
42.3953119208
 11
16.1344858052
 21
41.2492423865
  0
LINE
  5
231
100
AcDbEntity
  8
0
100
AcDbLine
 62
7
  6
BYLAYER
 10
9.8439959883
 20
34.5441963321
 11
10.2498777726
 21
34.9500781164
  0
LINE
  5
232
100
AcDbEntity
  8
0
100
AcDbLine
 62
7
  6
BYLAYER
 10
35.4384568789
 20
60.1386572228
 11
35.8443386633
 21
60.5445390071
  0
LINE
  5
233
100
AcDbEntity
  8
0
100
AcDbLine
 62
7
  6
BYLAYER
 10
32.0939959883
 20
21.2445390071
 11
14.5939959883
 21
21.2445390071
  0
LINE
  5
234
100
AcDbEntity
  8
0
100
AcDbLine
 62
7
  6
BYLAYER
 10
28.0439959883
 20
10.6945390071
 11
28.1439959883
 21
10.5945390071
  0
LINE
  5
235
100
AcDbEntity
  8
0
100
AcDbLine
 62
7
  6
BYLAYER
 10
14.5939959883
 20
21.2445390071
 11
14.5939959883
 21
33.344603637
  0
LINE
  5
236
100
AcDbEntity
  8
0
100
AcDbLine
 62
7
  6
BYLAYER
 10
14.5940018919
 20
33.3447436378
 11
14.5939959883
 21
33.344603643
  0
LINE
  5
237
100
AcDbEntity
  8
0
100
AcDbLine
 62
7
  6
BYLAYER
 10
14.5940064313
 20
33.3447334351
 11
14.5940002409
 21
33.3446047682
  0
LINE
  5
238
100
AcDbEntity
  8
0
100
AcDbLine
 62
7
  6
BYLAYER
 10
36.8439959883
 20
59.5448816821
 11
36.4381142039
 21
59.1389998978
  0
LINE
  5
239
100
AcDbEntity
  8
0
100
AcDbLine
 62
7
  6
BYLAYER
 10
11.2495350976
 20
33.9504207914
 11
10.8436533132
 21
33.5445390071
  0
LINE
  5
23A
100
AcDbEntity
  8
0
100
AcDbLine
 62
7
  6
BYLAYER
 10
17.5486993676
 20
39.8350288241
 11
18.6947689019
 21
40.9810983584
  0
LINE
  5
23B
100
AcDbEntity
  8
0
100
AcDbLine
 62
7
  6
BYLAYER
 10
29.4074366369
 20
51.6937660934
 11
30.5535061713
 21
52.8398356277
  0
LINE
  5
23C
100
AcDbEntity
  8
0
100
AcDbLine
 62
7
  6
BYLAYER
 10
16.3439959883
 20
19.5445390071
 11
16.3439959883
 21
16.4445390071
  0
LINE
  5
23D
100
AcDbEntity
  8
0
100
AcDbLine
 62
7
  6
BYLAYER
 10
16.415792758
 20
18.7445390071
 11
16.415792758
 21
19.5445390071
  0
LINE
  5
23E
100
AcDbEntity
  8
0
100
AcDbLine
 62
7
  6
BYLAYER
 10
17.6076535124
 20
52.0208642662
 11
17.6076535124
 21
42.0682137479
  0
LINE
  5
23F
100
AcDbEntity
  8
0
100
AcDbLine
 62
7
  6
BYLAYER
 10
18.3429960882
 20
19.5445390071
 11
18.3429960882
 21
18.7445390071
  0
LINE
  5
240
100
AcDbEntity
  8
0
100
AcDbLine
 62
7
  6
BYLAYER
 10
18.3439959883
 20
19.5445390071
 11
18.3439959883
 21
20.2445390071
  0
LINE
  5
241
100
AcDbEntity
  8
0
100
AcDbLine
 62
7
  6
BYLAYER
 10
18.353432642
 20
41.3224346184
 11
18.353432642
 21
52.7666433958
  0
LINE
  5
242
100
AcDbEntity
  8
0
100
AcDbLine
 62
7
  6
BYLAYER
 10
18.5439959883
 20
10.5945390057
 11
18.5439959883
 21
5.7945390085
  0
LINE
  5
243
100
AcDbEntity
  8
0
100
AcDbLine
 62
7
  6
BYLAYER
 10
18.6185927974
 20
6.4945390071
 11
18.6185927974
 21
9.8945390071
  0
LINE
  5
244
100
AcDbEntity
  8
0
100
AcDbLine
 62
7
  6
BYLAYER
 10
18.7446965691
 20
53.1579073229
 11
18.7446965691
 21
40.9311706913
  0
LINE
  5
245
100
AcDbEntity
  8
0
100
AcDbLine
 62
7
  6
BYLAYER
 10
19.2276594822
 20
40.4482077781
 11
19.2276594822
 21
53.6408702361
  0
LINE
  5
246
100
AcDbEntity
  8
0
100
AcDbLine
 62
7
  6
BYLAYER
 10
19.4138912628
 20
18.7445390071
 11
19.4138912628
 21
16.7445390071
  0
LINE
  5
247
100
AcDbEntity
  8
0
100
AcDbLine
 62
7
  6
BYLAYER
 10
11.1293016232
 20
56.8097436294
 11
12.1234660399
 21
53.0994715152
  0
LINE
  5
248
100
AcDbEntity
  8
0
100
AcDbLine
 62
7
  6
BYLAYER
 10
20.3439959883
 20
5.5445390071
 11
20.3439959883
 21
5.6945390071
  0
LINE
  5
249
100
AcDbEntity
  8
0
100
AcDbLine
 62
7
  6
BYLAYER
 10
20.3439959883
 20
10.6945390071
 11
20.3439959883
 21
16.4445390071
  0
LINE
  5
24A
100
AcDbEntity
  8
0
100
AcDbLine
 62
7
  6
BYLAYER
 10
20.3859560967
 20
5.5445390071
 11
20.3859560967
 21
4.8445369441
  0
LINE
  5
24B
100
AcDbEntity
  8
0
100
AcDbLine
 62
7
  6
BYLAYER
 10
31.5230750842
 20
44.5109503681
 11
25.8775846272
 21
38.8654599111
  0
LINE
  5
24C
100
AcDbEntity
  8
0
100
AcDbLine
 62
7
  6
BYLAYER
 10
22.3439959883
 20
19.5445390071
 11
22.3439959883
 21
18.7445390071
  0
LINE
  5
24D
100
AcDbEntity
  8
0
100
AcDbLine
 62
7
  6
BYLAYER
 10
23.2693991791
 20
9.8945390071
 11
23.2693991791
 21
6.4945390071
  0
LINE
  5
24E
100
AcDbEntity
  8
0
100
AcDbLine
 62
7
  6
BYLAYER
 10
23.4185927974
 20
6.4945390071
 11
23.4185927974
 21
9.8945390071
  0
LWPOLYLINE
  5
24F
100
AcDbEntity
  8
0
100
AcDbPolyline
 62
7
  6
BYLAYER
 90
4
 70
0
 10
14.3939123039
 20
33.5446055849
 10
14.4750453051
 20
33.5274482085
 10
14.5397779557
 20
33.4815308001
 10
14.5940002407
 20
33.344603635
  0
LINE
  5
250
100
AcDbEntity
  8
0
100
AcDbLine
 62
7
  6
BYLAYER
 10
24.3439959883
 20
18.7445390071
 11
24.3439959883
 21
19.5445390071
  0
LINE
  5
251
100
AcDbEntity
  8
0
100
AcDbLine
 62
7
  6
BYLAYER
 10
20.1783390817
 20
33.7636172337
 11
18.6839642038
 21
33.7444980374
  0
LINE
  5
252
100
AcDbEntity
  8
0
100
AcDbLine
 62
7
  6
BYLAYER
 10
32.2888311855
 20
33.5445390071
 11
35.8443386633
 21
33.5445390071
  0
LINE
  5
253
100
AcDbEntity
  8
0
100
AcDbLine
 62
7
  6
BYLAYER
 10
10.8436533132
 20
33.5445390071
 11
14.3939955085
 21
33.5445390632
  0
LINE
  5
254
100
AcDbEntity
  8
0
100
AcDbLine
 62
7
  6
BYLAYER
 10
35.4384568789
 20
33.9504207914
 11
11.2495350976
 21
33.9504207914
  0
LINE
  5
255
100
AcDbEntity
  8
0
100
AcDbLine
 62
7
  6
BYLAYER
 10
26.3020358798
 20
4.8445369441
 11
26.3020358798
 21
5.5445390071
  0
LINE
  5
256
100
AcDbEntity
  8
0
100
AcDbLine
 62
7
  6
BYLAYER
 10
26.3439959883
 20
5.5445390071
 11
26.3439959883
 21
5.6945390071
  0
LINE
  5
257
100
AcDbEntity
  8
0
100
AcDbLine
 62
7
  6
BYLAYER
 10
26.3439959883
 20
10.6945390071
 11
26.3439959883
 21
16.4445390071
  0
LINE
  5
258
100
AcDbEntity
  8
0
100
AcDbLine
 62
7
  6
BYLAYER
 10
27.2741007137
 20
16.7445390071
 11
27.2741007137
 21
18.7445390071
  0
LINE
  5
259
100
AcDbEntity
  8
0
100
AcDbLine
 62
7
  6
BYLAYER
 10
27.4603324943
 20
53.6408702361
 11
27.4603324943
 21
40.4482077781
  0
LINE
  5
25A
100
AcDbEntity
  8
0
100
AcDbLine
 62
7
  6
BYLAYER
 10
20.8104073493
 20
38.8654599111
 11
15.1649168923
 21
44.5109503681
  0
LINE
  5
25B
100
AcDbEntity
  8
0
100
AcDbLine
 62
7
  6
BYLAYER
 10
27.9432954074
 20
40.9311706913
 11
27.9432954074
 21
53.1579073229
  0
LINE
  5
25C
100
AcDbEntity
  8
0
100
AcDbLine
 62
7
  6
BYLAYER
 10
28.0693991791
 20
9.8945390071
 11
28.0693991791
 21
6.4945390071
  0
LINE
  5
25D
100
AcDbEntity
  8
0
100
AcDbLine
 62
7
  6
BYLAYER
 10
28.1439959883
 20
5.7945390085
 11
28.1439959883
 21
10.5945390057
  0
LINE
  5
25E
100
AcDbEntity
  8
0
100
AcDbLine
 62
7
  6
BYLAYER
 10
28.3345593345
 20
52.7666433958
 11
28.3345593345
 21
41.3224346184
  0
LINE
  5
25F
100
AcDbEntity
  8
0
100
AcDbLine
 62
7
  6
BYLAYER
 10
28.3439959883
 20
19.5445390071
 11
28.3439959883
 21
20.2445390071
  0
LINE
  5
260
100
AcDbEntity
  8
0
100
AcDbLine
 62
7
  6
BYLAYER
 10
28.3449958883
 20
18.7445390071
 11
28.3449958883
 21
19.5445390071
  0
LINE
  5
261
100
AcDbEntity
  8
0
100
AcDbLine
 62
7
  6
BYLAYER
 10
29.0803384641
 20
42.0682137479
 11
29.0803384641
 21
52.0208642662
  0
LINE
  5
262
100
AcDbEntity
  8
0
100
AcDbLine
 62
7
  6
BYLAYER
 10
34.5645259366
 20
53.0994715152
 11
35.5586903533
 21
56.8097436294
  0
LINE
  5
263
100
AcDbEntity
  8
0
100
AcDbLine
 62
7
  6
BYLAYER
 10
13.5787913659
 20
34.829844642
 11
17.2890634801
 21
35.8240090587
  0
LINE
  5
264
100
AcDbEntity
  8
0
100
AcDbLine
 62
7
  6
BYLAYER
 10
29.3989284964
 20
35.8240090587
 11
33.1092006106
 21
34.829844642
  0
LINE
  5
265
100
AcDbEntity
  8
0
100
AcDbLine
 62
7
  6
BYLAYER
 10
30.2721992185
 20
19.5445390071
 11
30.2721992185
 21
18.7445390071
  0
LINE
  5
266
100
AcDbEntity
  8
0
100
AcDbLine
 62
7
  6
BYLAYER
 10
30.3439959883
 20
19.5445390071
 11
30.3439959883
 21
16.4445390071
  0
LWPOLYLINE
  5
267
100
AcDbEntity
  8
0
100
AcDbPolyline
 62
7
  6
BYLAYER
 90
4
 70
0
 10
32.0939918149
 20
33.3446037357
 10
32.1482166509
 20
33.481533612
 10
32.2129733904
 20
33.5274600964
 10
32.2888301513
 20
33.5445389802
  0
LINE
  5
268
100
AcDbEntity
  8
0
100
AcDbLine
 62
7
  6
BYLAYER
 10
19.8313282533
 20
39.8445390071
 11
26.8566637232
 21
39.8445390071
  0
LINE
  5
269
100
AcDbEntity
  8
0
100
AcDbLine
 62
7
  6
BYLAYER
 10
32.0939918149
 20
33.3446048606
 11
32.0939856248
 21
33.3447352685
  0
LINE
  5
26A
100
AcDbEntity
  8
0
100
AcDbLine
 62
7
  6
BYLAYER
 10
32.0939959883
 20
33.3446038309
 11
32.0939900093
 21
33.3447441621
  0
LINE
  5
26B
100
AcDbEntity
  8
0
100
AcDbLine
 62
7
  6
BYLAYER
 10
32.0939959883
 20
21.2445390071
 11
32.0939959883
 21
33.3446037363
  0
LINE
  5
26C
100
AcDbEntity
  8
0
100
AcDbLine
 62
7
  6
BYLAYER
 10
16.1344858052
 20
52.8398356277
 11
17.2805553396
 21
51.6937660934
  0
LINE
  5
26D
100
AcDbEntity
  8
0
100
AcDbLine
 62
7
  6
BYLAYER
 10
27.9932230746
 20
40.9810983584
 11
29.1392926089
 21
39.8350288241
  0
LINE
  5
26E
100
AcDbEntity
  8
0
100
AcDbLine
 62
7
  6
BYLAYER
 10
35.8443386633
 20
33.5445390071
 11
35.4384568789
 21
33.9504207914
  0
LINE
  5
26F
100
AcDbEntity
  8
0
100
AcDbLine
 62
7
  6
BYLAYER
 10
10.2498777726
 20
59.1389998978
 11
9.8439959883
 21
59.5448816821
  0
LINE
  5
270
100
AcDbEntity
  8
0
100
AcDbLine
 62
7
  6
BYLAYER
 10
18.6439959883
 20
10.6945390071
 11
18.5439959883
 21
10.5945390071
  0
LINE
  5
271
100
AcDbEntity
  8
0
100
AcDbLine
 62
7
  6
BYLAYER
 10
10.8436533132
 20
60.5445390071
 11
11.2495350976
 21
60.1386572228
  0
LINE
  5
272
100
AcDbEntity
  8
0
100
AcDbLine
 62
7
  6
BYLAYER
 10
36.4381142039
 20
34.9500781164
 11
36.8439959883
 21
34.5441963321
  0
LINE
  5
273
100
AcDbEntity
  8
0
100
AcDbLine
 62
7
  6
BYLAYER
 10
30.5535061713
 20
41.2492423865
 11
29.4074366369
 21
42.3953119208
  0
LINE
  5
274
100
AcDbEntity
  8
0
100
AcDbLine
 62
7
  6
BYLAYER
 10
18.6947689019
 20
53.1079796558
 11
17.5486993676
 21
54.2540491901
  0
LINE
  5
275
100
AcDbEntity
  8
0
100
AcDbLine
 62
7
  6
BYLAYER
 10
36.4381142039
 20
34.9501051864
 11
36.4381142039
 21
59.1389728277
  0
LINE
  5
276
100
AcDbEntity
  8
0
100
AcDbLine
 62
7
  6
BYLAYER
 10
36.8439959883
 20
34.5441963321
 11
36.8439959883
 21
59.5448816821
  0
LINE
  5
277
100
AcDbEntity
  8
0
100
AcDbLine
 62
7
  6
BYLAYER
 10
35.5586903533
 20
37.2793343848
 11
34.5645259366
 21
40.989606499
  0
LINE
  5
278
100
AcDbEntity
  8
0
100
AcDbLine
 62
7
  6
BYLAYER
 10
25.8775846272
 20
55.2236181031
 11
31.5230750842
 21
49.5781276461
  0
LINE
  5
279
100
AcDbEntity
  8
0
100
AcDbLine
 62
7
  6
BYLAYER
 10
28.0439959883
 20
5.6945390071
 11
28.1439959883
 21
5.7945390071
  0
LINE
  5
27A
100
AcDbEntity
  8
0
100
AcDbLine
 62
7
  6
BYLAYER
 10
27.2566637232
 20
53.8445390071
 11
19.4313282533
 21
53.8445390071
  0
LINE
  5
27B
100
AcDbEntity
  8
0
100
AcDbLine
 62
7
  6
BYLAYER
 10
20.4313282533
 20
54.8445390071
 11
26.2566637232
 21
54.8445390071
  0
LINE
  5
27C
100
AcDbEntity
  8
0
100
AcDbLine
 62
7
  6
BYLAYER
 10
33.1092006106
 20
59.2592333722
 11
29.3989284964
 21
58.2650689555
  0
LINE
  5
27D
100
AcDbEntity
  8
0
100
AcDbLine
 62
7
  6
BYLAYER
 10
17.2890634801
 20
58.2650689555
 11
13.5787913659
 21
59.2592333722
  0
LINE
  5
27E
100
AcDbEntity
  8
0
100
AcDbLine
 62
7
  6
BYLAYER
 10
35.4384298089
 20
60.1386572228
 11
11.2495425731
 21
60.1386572228
  0
LINE
  5
27F
100
AcDbEntity
  8
0
100
AcDbLine
 62
7
  6
BYLAYER
 10
35.8443386633
 20
60.5445390071
 11
10.8436533132
 21
60.5445390071
  0
ARC
  5
280
100
AcDbEntity
  8
0
100
AcDbCircle
 62
7
  6
BYLAYER
 10
23.3435474536
 20
-297.0889971975
 40
330.8677571753
100
AcDbArc
 50
89.451727514
 51
90.5481275593
  0
ARC
  5
281
100
AcDbEntity
  8
0
100
AcDbCircle
 62
7
  6
BYLAYER
 10
-132.0656673816
 20
165.4096587753
 40
225.5249161068
100
AcDbArc
 50
314.4240586814
 51
314.6052434626
  0
CIRCLE
  5
282
100
AcDbEntity
  8
0
100
AcDbCircle
 62
7
  6
BYLAYER
 10
13.0611532758
 20
57.3273817196
 40
2.0
  0
CIRCLE
  5
283
100
AcDbEntity
  8
0
100
AcDbCircle
 62
7
  6
BYLAYER
 10
13.0611532758
 20
36.7616962946
 40
2.0
  0
CIRCLE
  5
284
100
AcDbEntity
  8
0
100
AcDbCircle
 62
7
  6
BYLAYER
 10
13.3439959883
 20
37.0445390071
 40
1.375
  0
CIRCLE
  5
285
100
AcDbEntity
  8
0
100
AcDbCircle
 62
7
  6
BYLAYER
 10
13.3439959883
 20
57.0445390071
 40
1.375
  0
ARC
  5
286
100
AcDbEntity
  8
0
100
AcDbCircle
 62
7
  6
BYLAYER
 10
15.5939959883
 20
21.2445390071
 40
1.0
100
AcDbArc
 50
180.0
 51
270.0
  0
ARC
  5
287
100
AcDbEntity
  8
0
100
AcDbCircle
 62
7
  6
BYLAYER
 10
10.8435223636
 20
59.5450126318
 40
0.9995155644
100
AcDbArc
 50
89.992493383
 51
180.0075066183
  0
ARC
  5
288
100
AcDbEntity
  8
0
100
AcDbCircle
 62
7
  6
BYLAYER
 10
10.8435222382
 20
34.5440652571
 40
0.9995155644
100
AcDbArc
 50
179.9924861972
 51
270.0075138035
  0
ARC
  5
289
100
AcDbEntity
  8
0
100
AcDbCircle
 62
7
  6
BYLAYER
 10
14.3939530367
 20
33.344620164
 40
0.200056235
100
AcDbArc
 50
0.0359221519
 51
90.0099039159
  0
ARC
  5
28A
100
AcDbEntity
  8
0
100
AcDbCircle
 62
7
  6
BYLAYER
 10
23.3439959883
 20
47.0445390071
 40
12.75
100
AcDbArc
 50
228.7364774799
 51
311.2635225201
  0
ARC
  5
28B
100
AcDbEntity
  8
0
100
AcDbCircle
 62
7
  6
BYLAYER
 10
23.3439959883
 20
47.0445390071
 40
12.75
100
AcDbArc
 50
48.7364774799
 51
131.2635225201
  0
ARC
  5
28C
100
AcDbEntity
  8
0
100
AcDbCircle
 62
7
  6
BYLAYER
 10
23.3439959883
 20
47.0445390071
 40
12.75
100
AcDbArc
 50
138.7364774799
 51
221.2635225201
  0
ARC
  5
28D
100
AcDbEntity
  8
0
100
AcDbCircle
 62
7
  6
BYLAYER
 10
23.3439959883
 20
47.0445390071
 40
12.75
100
AcDbArc
 50
318.7364774799
 51
41.2635225201
  0
CIRCLE
  5
28E
100
AcDbEntity
  8
0
100
AcDbCircle
 62
7
  6
BYLAYER
 10
23.3439959883
 20
47.0445390071
 40
10.3000005769
  0
CIRCLE
  5
28F
100
AcDbEntity
  8
0
100
AcDbCircle
 62
7
  6
BYLAYER
 10
23.3439959883
 20
47.0445390071
 40
9.25
  0
ARC
  5
290
100
AcDbEntity
  8
0
100
AcDbCircle
 62
7
  6
BYLAYER
 10
23.3439959883
 20
47.0445390071
 40
8.5625
100
AcDbArc
 50
342.7888729105
 51
17.2111270895
  0
ARC
  5
291
100
AcDbEntity
  8
0
100
AcDbCircle
 62
7
  6
BYLAYER
 10
23.3439959883
 20
47.0445390071
 40
8.5625
100
AcDbArc
 50
72.7888729105
 51
107.2111270895
  0
ARC
  5
292
100
AcDbEntity
  8
0
100
AcDbCircle
 62
7
  6
BYLAYER
 10
23.3439959883
 20
47.0445390071
 40
8.5625
100
AcDbArc
 50
162.7888729105
 51
197.2111270895
  0
ARC
  5
293
100
AcDbEntity
  8
0
100
AcDbCircle
 62
7
  6
BYLAYER
 10
23.3439959883
 20
47.0445390071
 40
8.5625
100
AcDbArc
 50
252.7888729105
 51
287.2111270895
  0
CIRCLE
  5
294
100
AcDbEntity
  8
0
100
AcDbCircle
 62
7
  6
BYLAYER
 10
33.6268387007
 20
36.7616962946
 40
2.0
  0
CIRCLE
  5
295
100
AcDbEntity
  8
0
100
AcDbCircle
 62
7
  6
BYLAYER
 10
33.3439959883
 20
37.0445390071
 40
1.375
  0
ARC
  5
296
100
AcDbEntity
  8
0
100
AcDbCircle
 62
7
  6
BYLAYER
 10
32.2626525739
 20
34.6227340295
 40
1.0785127844
100
AcDbArc
 50
271.3908701908
 51
271.6406538701
  0
ARC
  5
297
100
AcDbEntity
  8
0
100
AcDbCircle
 62
7
  6
BYLAYER
 10
31.0939959883
 20
21.2445390071
 40
1.0
100
AcDbArc
 50
270.0
 51
360.0
  0
ARC
  5
298
100
AcDbEntity
  8
0
100
AcDbCircle
 62
7
  6
BYLAYER
 10
35.4385878814
 20
34.9499471139
 40
0.9995155835
100
AcDbArc
 50
269.990938819
 51
0.0090611788
  0
ARC
  5
299
100
AcDbEntity
  8
0
100
AcDbCircle
 62
7
  6
BYLAYER
 10
35.8444697389
 20
34.5440652564
 40
0.9995155639
100
AcDbArc
 50
269.9924861695
 51
0.0075138317
  0
ARC
  5
29A
100
AcDbEntity
  8
0
100
AcDbCircle
 62
7
  6
BYLAYER
 10
32.293972239
 20
33.3446833898
 40
0.1999906296
100
AcDbArc
 50
89.9953811221
 51
133.5289684142
  0
ARC
  5
29B
100
AcDbEntity
  8
0
100
AcDbCircle
 62
7
  6
BYLAYER
 10
32.2938717222
 20
33.3447347617
 40
0.1998861066
100
AcDbArc
 50
135.5940021788
 51
179.9974341898
  0
ARC
  5
29C
100
AcDbEntity
  8
0
100
AcDbCircle
 62
7
  6
BYLAYER
 10
32.2883480252
 20
33.3502710916
 40
0.1920660205
100
AcDbArc
 50
133.4605551635
 51
135.6208532038
  0
CIRCLE
  5
29D
100
AcDbEntity
  8
0
100
AcDbCircle
 62
7
  6
BYLAYER
 10
33.6268387007
 20
57.3273817196
 40
2.0
  0
CIRCLE
  5
29E
100
AcDbEntity
  8
0
100
AcDbCircle
 62
7
  6
BYLAYER
 10
33.3439959883
 20
57.0445390071
 40
1.375
  0
ARC
  5
29F
100
AcDbEntity
  8
0
100
AcDbCircle
 62
7
  6
BYLAYER
 10
35.4385877559
 20
59.1391307747
 40
0.9995155835
100
AcDbArc
 50
359.9909460186
 51
90.0090539791
  0
ARC
  5
2A0
100
AcDbEntity
  8
0
100
AcDbCircle
 62
7
  6
BYLAYER
 10
35.8444696136
 20
59.5450126324
 40
0.9995155639
100
AcDbArc
 50
359.9924933552
 51
90.007506646
  0
ARC
  5
2A1
100
AcDbEntity
  8
0
100
AcDbCircle
 62
7
  6
BYLAYER
 10
178.7536593536
 20
165.4096586516
 40
225.5249160156
100
AcDbArc
 50
225.3947565161
 51
225.5759412973
  0
SPLINE
  5
2A2
100
AcDbEntity
  8
0
100
AcDbSpline
 62
7
  6
BYLAYER
 70
0
 71
3
 72
21
 73
17
 74
0
 42
0.0000001
 43
0.0000001
 44
0.0000000001
 40
0.0
 40
0.0
 40
0.0
 40
0.0
 40
0.0635136487
 40
0.1267287615
 40
0.252162437
 40
0.3144446359
 40
0.3764633603
 40
0.4382847775
 40
0.5000000059
 40
0.5617152317
 40
0.6235366482
 40
0.6855553712
 40
0.747837568
 40
0.8732712403
 40
0.936486351
 40
1.0
 40
1.0
 40
1.0
 40
1.0
 10
28.0693991791
 20
6.4945390071
 30
0.0
 10
27.9788319232
 20
6.443483156
 30
0.0
 10
27.7961485684
 20
6.3450256845
 30
0.0
 10
27.4244800192
 20
6.165316246
 30
0.0
 10
27.0411996681
 20
6.0145558489
 30
0.0
 10
26.6476631212
 20
5.9028437562
 30
0.0
 10
26.34901878
 20
5.84106315
 30
0.0
 10
26.0473270502
 20
5.8030888028
 30
0.0
 10
25.7439959636
 20
5.7902677827
 30
0.0
 10
25.4406648782
 20
5.8030888076
 30
0.0
 10
25.1389731565
 20
5.8410631573
 30
0.0
 10
24.8403288222
 20
5.9028437639
 30
0.0
 10
24.446792287
 20
6.0145558571
 30
0.0
 10
24.0635119476
 20
6.1653162503
 30
0.0
 10
23.691843406
 20
6.3450256858
 30
0.0
 10
23.5091600537
 20
6.4434831558
 30
0.0
 10
23.4185927974
 20
6.4945390071
 30
0.0
  0
SPLINE
  5
2A3
100
AcDbEntity
  8
0
100
AcDbSpline
 62
7
  6
BYLAYER
 70
0
 71
3
 72
21
 73
17
 74
0
 42
0.0000001
 43
0.0000001
 44
0.0000000001
 40
0.0
 40
0.0
 40
0.0
 40
0.0
 40
0.0635136487
 40
0.1267287615
 40
0.252162437
 40
0.3144446359
 40
0.3764633603
 40
0.4382847775
 40
0.5000000059
 40
0.5617152317
 40
0.6235366482
 40
0.6855553712
 40
0.747837568
 40
0.8732712403
 40
0.936486351
 40
1.0
 40
1.0
 40
1.0
 40
1.0
 10
23.2693991791
 20
6.4945390071
 30
0.0
 10
23.1788319232
 20
6.443483156
 30
0.0
 10
22.9961485684
 20
6.3450256845
 30
0.0
 10
22.6244800192
 20
6.165316246
 30
0.0
 10
22.2411996681
 20
6.0145558489
 30
0.0
 10
21.8476631212
 20
5.9028437562
 30
0.0
 10
21.54901878
 20
5.84106315
 30
0.0
 10
21.2473270502
 20
5.8030888028
 30
0.0
 10
20.9439959636
 20
5.7902677827
 30
0.0
 10
20.6406648782
 20
5.8030888076
 30
0.0
 10
20.3389731565
 20
5.8410631573
 30
0.0
 10
20.0403288222
 20
5.9028437639
 30
0.0
 10
19.646792287
 20
6.0145558571
 30
0.0
 10
19.2635119476
 20
6.1653162503
 30
0.0
 10
18.891843406
 20
6.3450256858
 30
0.0
 10
18.7091600537
 20
6.4434831558
 30
0.0
 10
18.6185927974
 20
6.4945390071
 30
0.0
  0
SPLINE
  5
2A4
100
AcDbEntity
  8
0
100
AcDbSpline
 62
7
  6
BYLAYER
 70
0
 71
3
 72
21
 73
17
 74
0
 42
0.0000001
 43
0.0000001
 44
0.0000000001
 40
0.0
 40
0.0
 40
0.0
 40
0.0
 40
0.0635136487
 40
0.1267287615
 40
0.252162437
 40
0.3144446359
 40
0.3764633603
 40
0.4382847775
 40
0.5000000059
 40
0.5617152317
 40
0.6235366482
 40
0.6855553712
 40
0.747837568
 40
0.8732712403
 40
0.936486351
 40
1.0
 40
1.0
 40
1.0
 40
1.0
 10
18.6185927974
 20
9.8945390071
 30
0.0
 10
18.7091600533
 20
9.9455948582
 30
0.0
 10
18.8918434081
 20
10.0440523297
 30
0.0
 10
19.2635119573
 20
10.2237617682
 30
0.0
 10
19.6467923084
 20
10.3745221653
 30
0.0
 10
20.0403288553
 20
10.486234258
 30
0.0
 10
20.3389731965
 20
10.5480148642
 30
0.0
 10
20.6406649263
 20
10.5859892114
 30
0.0
 10
20.9439960129
 20
10.5988102315
 30
0.0
 10
21.2473270983
 20
10.5859892066
 30
0.0
 10
21.54901882
 20
10.5480148569
 30
0.0
 10
21.8476631543
 20
10.4862342503
 30
0.0
 10
22.2411996895
 20
10.3745221571
 30
0.0
 10
22.624480029
 20
10.2237617639
 30
0.0
 10
22.9961485705
 20
10.0440523284
 30
0.0
 10
23.1788319228
 20
9.9455948584
 30
0.0
 10
23.2693991791
 20
9.8945390071
 30
0.0
  0
SPLINE
  5
2A5
100
AcDbEntity
  8
0
100
AcDbSpline
 62
7
  6
BYLAYER
 70
0
 71
3
 72
21
 73
17
 74
0
 42
0.0000001
 43
0.0000001
 44
0.0000000001
 40
0.0
 40
0.0
 40
0.0
 40
0.0
 40
0.0635136487
 40
0.1267287615
 40
0.252162437
 40
0.3144446359
 40
0.3764633603
 40
0.4382847775
 40
0.5000000059
 40
0.5617152317
 40
0.6235366482
 40
0.6855553712
 40
0.747837568
 40
0.8732712403
 40
0.936486351
 40
1.0
 40
1.0
 40
1.0
 40
1.0
 10
23.4185927974
 20
9.8945390071
 30
0.0
 10
23.5091600533
 20
9.9455948582
 30
0.0
 10
23.6918434081
 20
10.0440523297
 30
0.0
 10
24.0635119573
 20
10.2237617682
 30
0.0
 10
24.4467923085
 20
10.3745221653
 30
0.0
 10
24.8403288553
 20
10.486234258
 30
0.0
 10
25.1389731965
 20
10.5480148642
 30
0.0
 10
25.4406649263
 20
10.5859892114
 30
0.0
 10
25.7439960129
 20
10.5988102315
 30
0.0
 10
26.0473270983
 20
10.5859892066
 30
0.0
 10
26.34901882
 20
10.5480148569
 30
0.0
 10
26.6476631543
 20
10.4862342503
 30
0.0
 10
27.0411996895
 20
10.3745221571
 30
0.0
 10
27.424480029
 20
10.2237617639
 30
0.0
 10
27.7961485705
 20
10.0440523284
 30
0.0
 10
27.9788319228
 20
9.9455948584
 30
0.0
 10
28.0693991791
 20
9.8945390071
 30
0.0
  0
SPLINE
  5
2A6
100
AcDbEntity
  8
0
100
AcDbSpline
 62
7
  6
BYLAYER
 70
0
 71
3
 72
26
 73
22
 74
0
 42
0.0000001
 43
0.0000001
 44
0.0000000001
 40
0.0
 40
0.0
 40
0.0
 40
0.0
 40
0.217530383
 40
0.413940241
 40
0.5031526398
 40
0.585894901
 40
0.661839489
 40
0.73067605
 40
0.7921104912
 40
0.8459111533
 40
0.8918640626
 40
0.9297838096
 40
0.9595313382
 40
0.971303822
 40
0.9810008945
 40
0.9886376675
 40
0.9916933836
 40
0.9942495344
 40
0.996319163
 40
0.9979271054
 40
1.0
 40
1.0
 40
1.0
 40
1.0
 10
18.6839642038
 20
33.7444980374
 30
0.0
 10
18.3719805404
 20
33.7395138933
 30
0.0
 10
17.7783240148
 20
33.7287345631
 30
0.0
 10
17.0568013231
 20
33.7117633576
 30
0.0
 10
16.5286406462
 20
33.6965536974
 30
0.0
 10
16.1732460953
 20
33.6849061641
 30
0.0
 10
15.8471155445
 20
33.6727033376
 30
0.0
 10
15.5515929071
 20
33.6600026974
 30
0.0
 10
15.2878869496
 20
33.6468579124
 30
0.0
 10
15.0570727946
 20
33.6333398681
 30
0.0
 10
14.860070874
 20
33.6195401384
 30
0.0
 10
14.6976937944
 20
33.6055179995
 30
0.0
 10
14.5844059515
 20
33.5930444659
 30
0.0
 10
14.5116878375
 20
33.5825337449
 30
0.0
 10
14.4705671383
 20
33.5752645041
 30
0.0
 10
14.442008646
 20
33.5688823579
 30
0.0
 10
14.4237480275
 20
33.563555754
 30
0.0
 10
14.4133712463
 20
33.5599011744
 30
0.0
 10
14.4051487579
 20
33.5561754501
 30
0.0
 10
14.3982331655
 20
33.552048228
 30
0.0
 10
14.3941289338
 20
33.5475094079
 30
0.0
 10
14.3939955085
 20
33.5445390632
 30
0.0
  0
SPLINE
  5
2A7
100
AcDbEntity
  8
0
100
AcDbSpline
 62
7
  6
BYLAYER
 70
0
 71
3
 72
27
 73
23
 74
0
 42
0.0000001
 43
0.0000001
 44
0.0000000001
 40
0.0
 40
0.0
 40
0.0
 40
0.0
 40
0.0019349678
 40
0.0035342815
 40
0.0056255915
 40
0.0082296241
 40
0.0113574797
 40
0.0192089861
 40
0.0292132172
 40
0.04136963
 40
0.0720653388
 40
0.1111281058
 40
0.1583369322
 40
0.2134403582
 40
0.276131252
 40
0.3460513592
 40
0.4228066768
 40
0.5059562914
 40
0.5950337724
 40
0.68952589
 40
0.7889012582
 40
1.0
 40
1.0
 40
1.0
 40
1.0
 10
32.2935313643
 20
33.5446633795
 30
0.0
 10
32.2932551371
 20
33.5483921732
 30
0.0
 10
32.2871366697
 20
33.553696111
 30
0.0
 10
32.2777664711
 20
33.5584337106
 30
0.0
 10
32.2662640218
 20
33.5628299629
 30
0.0
 10
32.2518144254
 20
33.5671328157
 30
0.0
 10
32.2263016759
 20
33.5734243434
 30
0.0
 10
32.1864468642
 20
33.5809404995
 30
0.0
 10
32.1290736797
 20
33.5894795892
 30
0.0
 10
32.0276765967
 20
33.6018051489
 30
0.0
 10
31.8700351932
 20
33.6163740309
 30
0.0
 10
31.6445955006
 20
33.6326410922
 30
0.0
 10
31.3718653578
 20
33.6485186807
 30
0.0
 10
31.0533912227
 20
33.6638942573
 30
0.0
 10
30.6909605794
 20
33.6786410986
 30
0.0
 10
30.286635405
 20
33.6926651946
 30
0.0
 10
29.842730741
 20
33.7058723171
 30
0.0
 10
29.3617690436
 20
33.7181848844
 30
0.0
 10
28.8465012259
 20
33.7295226776
 30
0.0
 10
28.2998522182
 20
33.7398241928
 30
0.0
 10
27.5174200672
 20
33.7523398146
 30
0.0
 10
26.9175197278
 20
33.7595734576
 30
0.0
 10
26.5096256672
 20
33.7636115076
 30
0.0
  0
SPLINE
  5
2A8
100
AcDbEntity
  8
0
100
AcDbSpline
 62
7
  6
BYLAYER
 70
0
 71
3
 72
14
 73
10
 74
0
 42
0.0000001
 43
0.0000001
 44
0.0000000001
 40
0.0
 40
0.0
 40
0.0
 40
0.0
 40
0.079287109
 40
0.1708736433
 40
0.2798416557
 40
0.4065964783
 40
0.5486305586
 40
0.6997381017
 40
1.0
 40
1.0
 40
1.0
 40
1.0
 10
18.6824658551
 20
33.7444779638
 30
0.0
 10
18.6888840071
 20
33.7442242591
 30
0.0
 10
18.7026892111
 20
33.7411027258
 30
0.0
 10
18.7223248492
 20
33.729138067
 30
0.0
 10
18.7406451627
 20
33.7096363436
 30
0.0
 10
18.756933096
 20
33.6835454362
 30
0.0
 10
18.7699958423
 20
33.6519998158
 30
0.0
 10
18.7827373749
 20
33.6055618905
 30
0.0
 10
18.7865294109
 20
33.568862108
 30
0.0
 10
18.7868125969
 20
33.544539102
 30
0.0
  0
SPLINE
  5
2A9
100
AcDbEntity
  8
0
100
AcDbSpline
 62
7
  6
BYLAYER
 70
0
 71
3
 72
9
 73
5
 74
0
 42
0.0000001
 43
0.0000001
 44
0.0000000001
 40
0.0
 40
0.0
 40
0.0
 40
0.0
 40
0.519363329
 40
1.0
 40
1.0
 40
1.0
 40
1.0
 10
23.3439959883
 20
33.5788345284
 30
0.0
 10
22.5549246403
 20
33.5788343936
 30
0.0
 10
21.035615239
 20
33.5734161602
 30
0.0
 10
19.5163822593
 20
33.5564633287
 30
0.0
 10
18.786246035
 20
33.5445298428
 30
0.0
  0
SPLINE
  5
2AA
100
AcDbEntity
  8
0
100
AcDbSpline
 62
7
  6
BYLAYER
 70
0
 71
3
 72
32
 73
28
 74
0
 42
0.0000001
 43
0.0000001
 44
0.0000000001
 40
0.0
 40
0.0
 40
0.0
 40
0.0
 40
0.0007349267
 40
0.0012467071
 40
0.0018817305
 40
0.003554451
 40
0.005790729
 40
0.0086024909
 40
0.011994075
 40
0.0159666252
 40
0.0205197224
 40
0.0313617352
 40
0.0445053219
 40
0.0599316219
 40
0.0776200855
 40
0.0975421749
 40
0.1196404527
 40
0.1701056218
 40
0.2284942928
 40
0.2942830696
 40
0.3669036088
 40
0.4456108786
 40
0.5296154171
 40
0.6181275277
 40
0.7103346712
 40
0.8053333592
 40
1.0
 40
1.0
 40
1.0
 40
1.0
 10
32.0939893674
 20
33.3447443717
 30
0.0
 10
32.0938962594
 20
33.3468892284
 30
0.0
 10
32.0916945037
 20
33.3502898575
 30
0.0
 10
32.0874131735
 20
33.3536497404
 30
0.0
 10
32.0802721123
 20
33.3578503947
 30
0.0
 10
32.0678986951
 20
33.3627534377
 30
0.0
 10
32.0490639436
 20
33.3683372288
 30
0.0
 10
32.0250412206
 20
33.3739280818
 30
0.0
 10
31.9958460133
 20
33.3795432838
 30
0.0
 10
31.9614848874
 20
33.3851553051
 30
0.0
 10
31.9054646197
 20
33.3930944124
 30
0.0
 10
31.8226402222
 20
33.4026965979
 30
0.0
 10
31.708022707
 20
33.4135983253
 30
0.0
 10
31.5733185549
 20
33.4243758377
 30
0.0
 10
31.4187485811
 20
33.4349935255
 30
0.0
 10
31.2446357209
 20
33.4454070897
 30
0.0
 10
30.9748387496
 20
33.4596290794
 30
0.0
 10
30.5926588067
 20
33.4763596396
 30
0.0
 10
30.0828107824
 20
33.4945304326
 30
0.0
 10
29.5081644495
 20
33.5113335994
 30
0.0
 10
28.8741014123
 20
33.5265592818
 30
0.0
 10
28.1867771721
 20
33.5400920248
 30
0.0
 10
27.4529907603
 20
33.5517978597
 30
0.0
 10
26.6797366158
 20
33.5615441629
 30
0.0
 10
25.8743412626
 20
33.5692021113
 30
0.0
 10
24.7588346568
 20
33.5766291335
 30
0.0
 10
23.9126584663
 20
33.5788344689
 30
0.0
 10
23.3439959883
 20
33.5788343718
 30
0.0
  0
SPLINE
  5
2AB
100
AcDbEntity
  8
0
100
AcDbSpline
 62
7
  6
BYLAYER
 70
0
 71
3
 72
25
 73
21
 74
0
 42
0.0000001
 43
0.0000001
 44
0.0000000001
 40
0.0
 40
0.0
 40
0.0
 40
0.0
 40
0.2174384169
 40
0.413714504
 40
0.5028780236
 40
0.5855838144
 40
0.6615091743
 40
0.7303318799
 40
0.7917505849
 40
0.8455455576
 40
0.8915191018
 40
0.9294772074
 40
0.9592560078
 40
0.9808001801
 40
0.9884923424
 40
0.9915762819
 40
0.9941597135
 40
0.9962548875
 40
0.9978861528
 40
1.0
 40
1.0
 40
1.0
 40
1.0
 10
18.7867274071
 20
33.5445378958
 30
0.0
 10
18.4819130134
 20
33.5395568093
 30
0.0
 10
17.9019705811
 20
33.5287819706
 30
0.0
 10
17.1971194042
 20
33.5118313227
 30
0.0
 10
16.6811914188
 20
33.4966295938
 30
0.0
 10
16.3339699194
 20
33.484988921
 30
0.0
 10
16.0153046359
 20
33.4727978169
 30
0.0
 10
15.7265293014
 20
33.4601106741
 30
0.0
 10
15.4688371475
 20
33.4469744403
 30
0.0
 10
15.2432470319
 20
33.4334696149
 30
0.0
 10
15.0506411379
 20
33.4196649286
 30
0.0
 10
14.8918112564
 20
33.4057009198
 30
0.0
 10
14.7674316489
 20
33.3915984139
 30
0.0
 10
14.6855741354
 20
33.3790784556
 30
0.0
 10
14.6413530851
 20
33.3690685417
 30
0.0
 10
14.6233752605
 20
33.3637499858
 30
0.0
 10
14.6131397311
 20
33.360098179
 30
0.0
 10
14.6050228546
 20
33.3563753738
 30
0.0
 10
14.5981747158
 20
33.3522403602
 30
0.0
 10
14.5941317715
 20
33.3477038632
 30
0.0
 10
14.594002663
 20
33.3447430005
 30
0.0
  0
ELLIPSE
  5
2AC
100
AcDbEntity
  8
0
100
AcDbEllipse
 62
7
  6
BYLAYER
 10
11.2502205651
 20
59.1383144303
 30
0.0
 11
0.7075914799
 21
-0.7075914799
 31
0.0
 40
0.999315002
 41
2.3565296335
 42
3.9266556736
  0
ELLIPSE
  5
2AD
100
AcDbEntity
  8
0
100
AcDbEllipse
 62
7
  6
BYLAYER
 10
11.2502205651
 20
34.9507635839
 30
0.0
 11
0.7075914799
 21
0.7075914799
 31
0.0
 40
0.999315002
 41
-3.9266556737
 42
-2.3565296335
  0
ENDSEC
  0
SECTION
  2
OBJECTS
  0
DICTIONARY
  5
C
100
AcDbDictionary
280
0
281
1
  3
ACAD_GROUP
350
D
  3
ACAD_MLINESTYLE
350
17
  3
ACAD_LAYOUT
350
1A
  3
ACAD_PLOTSETTINGS
350
19
  3
ACAD_PLOTSTYLENAME
350
E
  0
DICTIONARY
  5
D
102
{ACAD_REACTORS
330
C
102
}
100
AcDbDictionary
280
0
281
1
  0
ACDBDICTIONARYWDFLT
  5
E
102
{ACAD_REACTORS
330
C
102
}
100
AcDbDictionary
281
1
  3
Normal
350
F
100
AcDbDictionaryWithDefault
340
F
  0
DICTIONARY
  5
17
102
{ACAD_REACTORS
330
C
102
}
100
AcDbDictionary
280
0
281
1
  3
Standard
350
18
  0
DICTIONARY
  5
19
102
{ACAD_REACTORS
330
C
102
}
100
AcDbDictionary
281
1
  0
DICTIONARY
  5
1A
102
{ACAD_REACTORS
330
C
102
}
100
AcDbDictionary
281
1
  3
Model
350
2AE
  3
Layout1
350
2AF
  0
ACDBPLACEHOLDER
  5
F
102
{ACAD_REACTORS
330
E
102
}
  0
MLINESTYLE
  5
18
102
{ACAD_REACTORS
330
17
102
}
100
AcDbMlineStyle
  2
STANDARD
 70
0
  3

 62
256
 51
90.0
 52
90.0
 71
2
 49
0.5
 62
256
  6
BYLAYER
 49
-0.5
 62
256
  6
BYLAYER
  0
LAYOUT
  5
2AE
102
{ACAD_REACTORS
330
1A
102
}
100
AcDbPlotSettings
  1

  2
none_device
  4

  6

 40
0.0
 41
0.0
 42
0.0
 43
0.0
 44
210.0
 45
297.0
 46
0.0
 47
0.0
 48
0.0
 49
0.0
140
0.0
141
0.0
142
1.0
143
1.0
 70
1024
 72
1
 73
0
 74
0
  7

 75
0
147
1.0
148
0.0
149
0.0
100
AcDbLayout
  1
Model
 70
0
 71
0
 10
0.0
 20
0.0
 11
210.0
 21
297.0
 12
0.0
 22
0.0
 32
0.0
 14
0.0
 24
0.0
 34
0.0
 15
0.0
 25
0.0
 35
0.0
146
0.0
 13
0.0
 23
0.0
 33
0.0
 16
1.0
 26
0.0
 36
0.0
 17
0.0
 27
1.0
 37
0.0
 76
0
330
210
345
0
346
0
  0
LAYOUT
  5
2AF
102
{ACAD_REACTORS
330
1A
102
}
100
AcDbPlotSettings
  1

  2
none_device
  4

  6

 40
0.0
 41
0.0
 42
0.0
 43
0.0
 44
210.0
 45
297.0
 46
0.0
 47
0.0
 48
0.0
 49
0.0
140
0.0
141
0.0
142
1.0
143
1.0
 70
0
 72
1
 73
0
 74
0
  7

 75
0
147
1.0
148
0.0
149
0.0
100
AcDbLayout
  1
Layout1
 70
0
 71
1
 10
0.0
 20
0.0
 11
210.0
 21
297.0
 12
0.0
 22
0.0
 32
0.0
 14
0.0
 24
0.0
 34
0.0
 15
0.0
 25
0.0
 35
0.0
146
0.0
 13
0.0
 23
0.0
 33
0.0
 16
1.0
 26
0.0
 36
0.0
 17
0.0
 27
1.0
 37
0.0
 76
0
330
211
345
0
346
0
  0
ENDSEC
  0
EOF
