999
DXF file: C:\Users\sesa63760\Dev\_Creo\CAD\MCADID0004757_3D-CAD\drw0001_5.dxf
999
Pro/ENGINEER 2019471 by Parametric Technology Corporation
  0
SECTION
  2
HEADER
  9
$ACADVER
  1
AC1024
  9
$DWGCODEPAGE
  3
ANSI_1252
  9
$EXTMAX
 10
38.8752886003
 20
54.9807653061
 30
0.0
  9
$EXTMIN
 10
0.0
 20
0.0
 30
0.0
  9
$LIMMIN
 10
0.0
 20
0.0
  9
$LIMMAX
 10
38.8752886003
 20
54.9807653061
  9
$VIEWCTR
 10
19.4376443001
 20
27.4903826531
  9
$VIEWSIZE
 40
54.9807653061
  9
$CLAYER
  8
0
  9
$LTSCALE
 40
3.5839313681
  9
$CELTYPE
  6
BYLAYER
  9
$DIMSCALE
 40
1.0
  9
$DIMASZ
 40
0.4628010548
  9
$DIMEXO
 40
1.0
  9
$DIMDLI
 40
2.4761707634
  9
$DIMEXE
 40
1.0
  9
$DIMCEN
 40
0.5864614966
  9
$DIMLFAC
 40
1.0
  9
$DIMBLK
  1
_FILLED
  9
$DIMALT
 70
0
  9
$DIMALTF
 40
0.0393700787
  9
$DIMTXT
 40
0.6479214767
  9
$DIMTOL
 70
1
  9
$DIMLIM
 70
0
  9
$DIMTFAC
 40
1.0
  9
$DIMTP
 40
0.01
  9
$DIMTM
 40
0.01
  9
$DIMGAP
 40
0.625
  9
$DIMDSEP
 70
46
  9
$AUNITS
 70
0
  9
$PDMODE
 70
3
  9
$PDSIZE
 40
0.3125
  9
$HANDSEED
  5
2A8
  9
$TILEMODE
 70
1
  9
$MEASUREMENT
 70
1
  9
$INSUNITS
 70
4
  0
ENDSEC
  0
SECTION
  2
CLASSES
  0
CLASS
  1
ACDBDICTIONARYWDFLT
  2
AcDbDictionaryWithDefault
  3
AutoCAD 2000
 90
0
 91
1
280
0
281
0
  0
CLASS
  1
ACDBPLACEHOLDER
  2
AcDbPlaceHolder
  3
AutoCAD 2000
 90
0
 91
1
280
0
281
0
  0
CLASS
  1
LAYOUT
  2
AcDbLayout
  3
AutoCAD 2000
 90
0
 91
0
280
0
281
0
  0
ENDSEC
  0
SECTION
  2
TABLES
  0
TABLE
  2
VPORT
  5
8
100
AcDbSymbolTable
 70
2
  0
VPORT
  5
1F4
100
AcDbSymbolTableRecord
100
AcDbViewportTableRecord
  2
*ACTIVE
 70
0
 10
0.0
 20
0.0
 11
1.0
 21
1.0
 12
19.4376443001
 22
27.4903826531
 13
0.0
 23
0.0
 14
1.0
 24
1.0
 15
0.0
 25
0.0
 16
0.0
 26
0.0
 36
1.0
 17
0.0
 27
0.0
 37
0.0
 40
54.9807653061
 41
0.7070707071
 42
50.0
 43
0.0
 44
0.0
 50
0.0
 51
0.0
 71
0
 72
100
 73
1
 74
1
 75
0
 76
0
 77
0
 78
0
  0
ENDTAB
  0
TABLE
  2
LTYPE
  5
5
100
AcDbSymbolTable
 70
6
  0
LTYPE
  5
14
100
AcDbSymbolTableRecord
100
AcDbLinetypeTableRecord
  2
BYBLOCK
 70
0
  3

 72
65
 73
0
 40
0.0
  0
LTYPE
  5
15
100
AcDbSymbolTableRecord
100
AcDbLinetypeTableRecord
  2
BYLAYER
 70
0
  3

 72
65
 73
0
 40
0.0
  0
LTYPE
  5
16
100
AcDbSymbolTableRecord
100
AcDbLinetypeTableRecord
  2
CONTINUOUS
 70
64
  3
Solid line
 72
65
 73
0
 40
0.0
  0
LTYPE
  5
1F5
100
AcDbSymbolTableRecord
100
AcDbLinetypeTableRecord
  2
CENTER
 70
64
  3
____ _ ____ _ ____ _ ____ _ ____ _ ____ _ ____
 72
65
 73
4
 40
0.6
 49
0.375
 74
0
 49
-0.075
 74
0
 49
0.075
 74
0
 49
-0.075
 74
0
  0
LTYPE
  5
1F6
100
AcDbSymbolTableRecord
100
AcDbLinetypeTableRecord
  2
HIDDEN
 70
64
  3
- - - - - - - - - - - - - - - - - - - -
 72
65
 73
2
 40
0.2
 49
0.1
 74
0
 49
-0.1
 74
0
  0
LTYPE
  5
1F7
100
AcDbSymbolTableRecord
100
AcDbLinetypeTableRecord
  2
PHANTOM
 70
64
  3
_____ _ _ _____ _ _ _____ _ _ _____
 72
65
 73
6
 40
0.8
 49
0.45
 74
0
 49
-0.05
 74
0
 49
0.1
 74
0
 49
-0.05
 74
0
 49
0.1
 74
0
 49
-0.05
 74
0
  0
LTYPE
  5
1F8
100
AcDbSymbolTableRecord
100
AcDbLinetypeTableRecord
  2
DOT
 70
64
  3
. . . . . . . . . . . . . . . . . . . .
 72
65
 73
2
 40
0.2
 49
0.1
 74
0
 49
-0.1
 74
0
  0
LTYPE
  5
1F9
100
AcDbSymbolTableRecord
100
AcDbLinetypeTableRecord
  2
DASHED
 70
64
  3
- - - - - - - - - - - - - - - - - - - -
 72
65
 73
2
 40
0.2
 49
0.1
 74
0
 49
-0.1
 74
0
  0
ENDTAB
  0
TABLE
  2
LAYER
  5
2
100
AcDbSymbolTable
 70
36
  0
LAYER
  5
10
100
AcDbSymbolTableRecord
100
AcDbLayerTableRecord
  2
0
 70
0
 62
7
  6
CONTINUOUS
370
-3
390
F
  0
LAYER
  5
1FA
100
AcDbSymbolTableRecord
100
AcDbLayerTableRecord
  2
DEFAULT_1
 70
0
 62
7
  6
CENTER
370
-3
390
F
  0
LAYER
  5
1FB
100
AcDbSymbolTableRecord
100
AcDbLayerTableRecord
  2
DEFAULT_2
 70
0
 62
7
  6
HIDDEN
370
-3
390
F
  0
LAYER
  5
1FC
100
AcDbSymbolTableRecord
100
AcDbLayerTableRecord
  2
DEFAULT_3
 70
0
 62
7
  6
PHANTOM
370
-3
390
F
  0
LAYER
  5
1FD
100
AcDbSymbolTableRecord
100
AcDbLayerTableRecord
  2
00_COMPONENTS
 70
0
 62
7
  6
CONTINUOUS
370
-3
390
F
  0
LAYER
  5
1FE
100
AcDbSymbolTableRecord
100
AcDbLayerTableRecord
  2
01_1_DEFAULT_DATUMS
 70
0
 62
7
  6
CONTINUOUS
370
-3
390
F
  0
LAYER
  5
1FF
100
AcDbSymbolTableRecord
100
AcDbLayerTableRecord
  2
01_PLANES
 70
0
 62
7
  6
CONTINUOUS
370
-3
390
F
  0
LAYER
  5
200
100
AcDbSymbolTableRecord
100
AcDbLayerTableRecord
  2
02_COORD_SYS
 70
0
 62
7
  6
CONTINUOUS
370
-3
390
F
  0
LAYER
  5
201
100
AcDbSymbolTableRecord
100
AcDbLayerTableRecord
  2
03_AXES
 70
0
 62
7
  6
CONTINUOUS
370
-3
390
F
  0
LAYER
  5
202
100
AcDbSymbolTableRecord
100
AcDbLayerTableRecord
  2
04_POINTS
 70
0
 62
7
  6
CONTINUOUS
370
-3
390
F
  0
LAYER
  5
203
100
AcDbSymbolTableRecord
100
AcDbLayerTableRecord
  2
05_CURVES
 70
0
 62
7
  6
CONTINUOUS
370
-3
390
F
  0
LAYER
  5
204
100
AcDbSymbolTableRecord
100
AcDbLayerTableRecord
  2
06_SURFS
 70
0
 62
7
  6
CONTINUOUS
370
-3
390
F
  0
LAYER
  5
205
100
AcDbSymbolTableRecord
100
AcDbLayerTableRecord
  2
07_COSMETICS
 70
0
 62
7
  6
CONTINUOUS
370
-3
390
F
  0
LAYER
  5
206
100
AcDbSymbolTableRecord
100
AcDbLayerTableRecord
  2
10_NOTES
 70
0
 62
7
  6
CONTINUOUS
370
-3
390
F
  0
LAYER
  5
207
100
AcDbSymbolTableRecord
100
AcDbLayerTableRecord
  2
11_NOTES_PUB
 70
0
 62
7
  6
CONTINUOUS
370
-3
390
F
  0
LAYER
  5
208
100
AcDbSymbolTableRecord
100
AcDbLayerTableRecord
  2
13_REF_GTOL
 70
0
 62
7
  6
CONTINUOUS
370
-3
390
F
  0
LAYER
  5
209
100
AcDbSymbolTableRecord
100
AcDbLayerTableRecord
  2
16_MISC
 70
0
 62
7
  6
CONTINUOUS
370
-3
390
F
  0
LAYER
  5
20A
100
AcDbSymbolTableRecord
100
AcDbLayerTableRecord
  2
17_NO_PRINT
 70
0
 62
7
  6
CONTINUOUS
370
-3
390
F
  0
LAYER
  5
20B
100
AcDbSymbolTableRecord
100
AcDbLayerTableRecord
  2
18_DATUM_CAMS_JOINTS
 70
0
 62
7
  6
CONTINUOUS
370
-3
390
F
  0
LAYER
  5
20C
100
AcDbSymbolTableRecord
100
AcDbLayerTableRecord
  2
19_DATUM_FUNCTIONAL
 70
0
 62
7
  6
CONTINUOUS
370
-3
390
F
  0
LAYER
  5
20D
100
AcDbSymbolTableRecord
100
AcDbLayerTableRecord
  2
20_DATUM_KINEMATIC_SCHEME
 70
0
 62
7
  6
CONTINUOUS
370
-3
390
F
  0
ENDTAB
  0
TABLE
  2
STYLE
  5
3
100
AcDbSymbolTable
 70
1
  0
STYLE
  5
11
100
AcDbSymbolTableRecord
100
AcDbTextStyleTableRecord
  2
STANDARD
 70
0
 40
0.0
 41
1.0
 50
0.0
 71
0
 42
0.2
  3
ARIAL.TTF
  4

  0
STYLE
  5
20E
100
AcDbSymbolTableRecord
100
AcDbTextStyleTableRecord
  2
TEXTSTYLE_1
 70
0
 40
0.0
 41
0.8
 50
0.0
 71
0
 42
0.2
  3
gdt
  4

  0
ENDTAB
  0
TABLE
  2
VIEW
  5
6
100
AcDbSymbolTable
 70
0
  0
ENDTAB
  0
TABLE
  2
UCS
  5
7
100
AcDbSymbolTable
 70
0
  0
ENDTAB
  0
TABLE
  2
APPID
  5
9
100
AcDbSymbolTable
 70
1
  0
APPID
  5
20F
100
AcDbSymbolTableRecord
100
AcDbRegAppTableRecord
  2
ACAD
 70
0
  0
ENDTAB
  0
TABLE
  2
BLOCK_RECORD
  5
1
100
AcDbSymbolTable
 70
0
  0
BLOCK_RECORD
  5
210
100
AcDbSymbolTableRecord
100
AcDbBlockTableRecord
  2
*Model_Space
  0
BLOCK_RECORD
  5
211
100
AcDbSymbolTableRecord
100
AcDbBlockTableRecord
  2
*Paper_Space
  0
BLOCK_RECORD
  5
212
100
AcDbSymbolTableRecord
100
AcDbBlockTableRecord
  2
_FILLED
  0
ENDTAB
  0
TABLE
  2
DIMSTYLE
  5
A
100
AcDbSymbolTable
 70
1
100
AcDbDimStyleTable
 71
0
  0
DIMSTYLE
105
213
100
AcDbSymbolTableRecord
100
AcDbDimStyleTableRecord
  2
STANDARD
 70
0
  3

  4

 40
1.0
 41
0.4628010548
 42
1.0
 43
0.38
 44
1.0
 45
0.0
 46
0.0
 47
0.01
 48
0.01
140
0.6479214767
141
0.09
142
0.0
143
25.4
144
1.0
145
0.0
146
1.0
147
0.625
 71
1
 72
0
 73
0
 74
0
 75
0
 76
0
 77
1
 78
8
 79
2
170
0
171
1
172
0
173
0
174
0
175
0
176
0
177
0
178
0
270
2
179
2
271
2
272
2
273
2
274
2
275
0
280
0
281
0
282
0
283
1
284
8
285
0
286
0
287
3
288
0
340
11
278
46
341
212
342
212
343
212
344
212
  0
ENDTAB
  0
ENDSEC
  0
SECTION
  2
BLOCKS
  0
BLOCK
  5
20
100
AcDbEntity
  8
0
100
AcDbBlockBegin
  2
*Model_Space
 70
0
 10
0.0
 20
0.0
 30
0.0
  3
*Model_Space
  1

  0
ENDBLK
  5
21
100
AcDbEntity
  8
0
100
AcDbBlockEnd
  0
BLOCK
  5
1C
100
AcDbEntity
  8
0
100
AcDbBlockBegin
  2
*Paper_Space
 70
0
 10
0.0
 20
0.0
 30
0.0
  3
*Paper_Space
  1

  0
ENDBLK
  5
1D
100
AcDbEntity
  8
0
100
AcDbBlockEnd
  0
BLOCK
  5
214
100
AcDbEntity
  8
0
100
AcDbBlockBegin
  2
_FILLED
 70
64
 10
0.0
 20
0.0
  3
_FILLED
  1

  0
SOLID
  5
215
100
AcDbEntity
  8
0
  6
BYBLOCK
 62
0
100
AcDbTrace
 10
0.0
 20
0.0
 11
-1.0
 21
0.25
 12
-1.0
 22
-0.25
 13
-1.0
 23
-0.25
  0
ENDBLK
  5
216
100
AcDbEntity
  8
0
  6
BYBLOCK
 62
0
100
AcDbBlockEnd
  0
ENDSEC
  0
SECTION
  2
ENTITIES
  0
LINE
  5
217
100
AcDbEntity
  8
0
100
AcDbLine
 62
7
  6
BYLAYER
 10
14.1260178729
 20
4.4751785714
 11
25.8260054213
 21
4.4751785714
  0
LINE
  5
218
100
AcDbEntity
  8
0
100
AcDbLine
 62
7
  6
BYLAYER
 10
26.3260116471
 20
4.9751785714
 11
13.6260116471
 21
4.9751785714
  0
LINE
  5
219
100
AcDbEntity
  8
0
100
AcDbLine
 62
7
  6
BYLAYER
 10
13.6261137686
 20
6.9751785714
 11
26.3259095255
 21
6.9751785714
  0
LINE
  5
21A
100
AcDbEntity
  8
0
100
AcDbLine
 62
7
  6
BYLAYER
 10
26.1260043836
 20
8.1751785714
 11
13.8260189106
 21
8.1751785714
  0
LINE
  5
21B
100
AcDbEntity
  8
0
100
AcDbLine
 62
7
  6
BYLAYER
 10
26.3260116471
 20
8.3751785714
 11
13.6260116471
 21
8.3751785714
  0
LINE
  5
21C
100
AcDbEntity
  8
0
100
AcDbLine
 62
7
  6
BYLAYER
 10
13.6261137686
 20
9.3251785714
 11
26.3259095255
 21
9.3251785714
  0
LINE
  5
21D
100
AcDbEntity
  8
0
100
AcDbLine
 62
7
  6
BYLAYER
 10
16.6760116471
 20
48.0751785714
 11
16.4760116471
 21
47.8751785714
  0
LINE
  5
21E
100
AcDbEntity
  8
0
100
AcDbLine
 62
7
  6
BYLAYER
 10
26.6759047922
 20
10.6751785714
 11
13.2760134007
 21
10.6751785714
  0
LINE
  5
21F
100
AcDbEntity
  8
0
100
AcDbLine
 62
7
  6
BYLAYER
 10
25.8142909892
 20
10.7751785714
 11
24.9868425748
 21
10.7751785714
  0
LINE
  5
220
100
AcDbEntity
  8
0
100
AcDbLine
 62
7
  6
BYLAYER
 10
13.9847846147
 20
10.7751785714
 11
13.2514594598
 21
10.7751785714
  0
LINE
  5
221
100
AcDbEntity
  8
0
100
AcDbLine
 62
7
  6
BYLAYER
 10
25.8678808277
 20
10.9751785714
 11
24.9868425748
 21
10.9751785714
  0
LINE
  5
222
100
AcDbEntity
  8
0
100
AcDbLine
 62
7
  6
BYLAYER
 10
13.9847846147
 20
10.9751785714
 11
13.1978696213
 21
10.9751785714
  0
LINE
  5
223
100
AcDbEntity
  8
0
100
AcDbLine
 62
7
  6
BYLAYER
 10
13.8260116471
 20
8.1751785714
 11
13.6260116471
 21
8.3751785714
  0
LINE
  5
224
100
AcDbEntity
  8
0
100
AcDbLine
 62
7
  6
BYLAYER
 10
15.5260116471
 20
42.7751785714
 11
14.7260116471
 21
41.9751785714
  0
LINE
  5
225
100
AcDbEntity
  8
0
100
AcDbLine
 62
7
  6
BYLAYER
 10
27.926003292
 20
12.7751785714
 11
12.0260200022
 21
12.7751785714
  0
LINE
  5
226
100
AcDbEntity
  8
0
100
AcDbLine
 62
7
  6
BYLAYER
 10
28.4760116471
 20
17.0051785714
 11
29.7909662233
 21
17.3575195882
  0
LINE
  5
227
100
AcDbEntity
  8
0
100
AcDbLine
 62
7
  6
BYLAYER
 10
12.0260116471
 20
14.5751785714
 11
27.9260116471
 21
14.5751785714
  0
LINE
  5
228
100
AcDbEntity
  8
0
100
AcDbLine
 62
7
  6
BYLAYER
 10
12.2261417737
 20
14.7751785714
 11
27.725924104
 21
14.7751785714
  0
LINE
  5
229
100
AcDbEntity
  8
0
100
AcDbLine
 62
7
  6
BYLAYER
 10
10.1610570709
 20
17.3575195882
 11
11.4760116471
 21
17.0051785714
  0
LINE
  5
22A
100
AcDbEntity
  8
0
100
AcDbLine
 62
7
  6
BYLAYER
 10
10.1610570709
 20
24.1528375546
 11
10.1610570709
 21
21.3575195882
  0
LINE
  5
22B
100
AcDbEntity
  8
0
100
AcDbLine
 62
7
  6
BYLAYER
 10
10.1610570709
 20
20.1528375546
 11
10.1610570709
 21
17.3575195882
  0
LINE
  5
22C
100
AcDbEntity
  8
0
100
AcDbLine
 62
7
  6
BYLAYER
 10
28.4760116471
 20
17.0051785714
 11
11.4760116471
 21
17.0051785714
  0
LINE
  5
22D
100
AcDbEntity
  8
0
100
AcDbLine
 62
7
  6
BYLAYER
 10
13.1978696213
 20
10.9751785714
 11
13.2514594598
 21
10.7751785714
  0
LINE
  5
22E
100
AcDbEntity
  8
0
100
AcDbLine
 62
7
  6
BYLAYER
 10
13.9760116471
 20
33.2251785714
 11
14.7260116471
 21
33.9751785714
  0
LINE
  5
22F
100
AcDbEntity
  8
0
100
AcDbLine
 62
7
  6
BYLAYER
 10
28.4760116471
 20
21.0051785714
 11
29.7909662233
 21
21.3575195882
  0
LINE
  5
230
100
AcDbEntity
  8
0
100
AcDbLine
 62
7
  6
BYLAYER
 10
10.1610570709
 20
21.3575195882
 11
11.4760116471
 21
21.0051785714
  0
LINE
  5
231
100
AcDbEntity
  8
0
100
AcDbLine
 62
7
  6
BYLAYER
 10
12.0260116471
 20
14.5751785714
 11
12.0260116471
 21
12.7751785714
  0
LINE
  5
232
100
AcDbEntity
  8
0
100
AcDbLine
 62
7
  6
BYLAYER
 10
13.1978696213
 20
12.7751785714
 11
13.1978696213
 21
10.9751785714
  0
LINE
  5
233
100
AcDbEntity
  8
0
100
AcDbLine
 62
7
  6
BYLAYER
 10
13.2760116471
 20
10.7751785714
 11
13.2760116471
 21
10.6751785714
  0
LINE
  5
234
100
AcDbEntity
  8
0
100
AcDbLine
 62
7
  6
BYLAYER
 10
11.4760116471
 20
20.5051785714
 11
28.4760116471
 21
20.5051785714
  0
LINE
  5
235
100
AcDbEntity
  8
0
100
AcDbLine
 62
7
  6
BYLAYER
 10
28.4760116471
 20
21.0051785714
 11
11.4760116471
 21
21.0051785714
  0
LINE
  5
236
100
AcDbEntity
  8
0
100
AcDbLine
 62
7
  6
BYLAYER
 10
13.6188199618
 20
10.7751785714
 11
13.6188199618
 21
10.6751785714
  0
LINE
  5
237
100
AcDbEntity
  8
0
100
AcDbLine
 62
7
  6
BYLAYER
 10
13.6260116471
 20
4.9751785714
 11
13.6260116471
 21
6.9751785714
  0
LINE
  5
238
100
AcDbEntity
  8
0
100
AcDbLine
 62
7
  6
BYLAYER
 10
13.6260116471
 20
8.3751785714
 11
13.6260116471
 21
9.3251785714
  0
LINE
  5
239
100
AcDbEntity
  8
0
100
AcDbLine
 62
7
  6
BYLAYER
 10
13.9760116471
 20
14.7751785714
 11
13.9760116471
 21
17.0051785714
  0
LINE
  5
23A
100
AcDbEntity
  8
0
100
AcDbLine
 62
7
  6
BYLAYER
 10
13.9760116471
 20
20.5051785714
 11
13.9760116471
 21
21.0051785714
  0
LINE
  5
23B
100
AcDbEntity
  8
0
100
AcDbLine
 62
7
  6
BYLAYER
 10
13.9760116471
 20
24.5051785714
 11
13.9760116471
 21
33.2251785714
  0
LINE
  5
23C
100
AcDbEntity
  8
0
100
AcDbLine
 62
7
  6
BYLAYER
 10
13.9847846147
 20
10.7751785714
 11
13.9847846147
 21
10.6751785714
  0
LINE
  5
23D
100
AcDbEntity
  8
0
100
AcDbLine
 62
7
  6
BYLAYER
 10
14.3760116471
 20
6.9751785714
 11
14.3760116471
 21
8.1751785714
  0
LINE
  5
23E
100
AcDbEntity
  8
0
100
AcDbLine
 62
7
  6
BYLAYER
 10
14.4760116471
 20
9.3251785714
 11
14.4760116471
 21
10.6751785714
  0
LINE
  5
23F
100
AcDbEntity
  8
0
100
AcDbLine
 62
7
  6
BYLAYER
 10
14.7260116471
 20
41.9751785714
 11
14.7260116471
 21
33.9751785714
  0
LINE
  5
240
100
AcDbEntity
  8
0
100
AcDbLine
 62
7
  6
BYLAYER
 10
15.068534359
 20
24.1528375546
 11
15.068534359
 21
21.3575195882
  0
LINE
  5
241
100
AcDbEntity
  8
0
100
AcDbLine
 62
7
  6
BYLAYER
 10
15.068534359
 20
20.1528375546
 11
15.068534359
 21
17.3575195882
  0
LINE
  5
242
100
AcDbEntity
  8
0
100
AcDbLine
 62
7
  6
BYLAYER
 10
16.4760116471
 20
47.8751785714
 11
16.4760116471
 21
47.2501785714
  0
LINE
  5
243
100
AcDbEntity
  8
0
100
AcDbLine
 62
7
  6
BYLAYER
 10
16.4760116471
 20
43.5001785714
 11
16.4760116471
 21
42.7751785714
  0
LINE
  5
244
100
AcDbEntity
  8
0
100
AcDbLine
 62
7
  6
BYLAYER
 10
11.4760116471
 20
20.5051785714
 11
10.1610570709
 21
20.1528375546
  0
LINE
  5
245
100
AcDbEntity
  8
0
100
AcDbLine
 62
7
  6
BYLAYER
 10
29.7909662233
 20
20.1528375546
 11
28.4760116471
 21
20.5051785714
  0
LINE
  5
246
100
AcDbEntity
  8
0
100
AcDbLine
 62
7
  6
BYLAYER
 10
18.1760116471
 20
33.9751785714
 11
18.1760116471
 21
42.7751785714
  0
LINE
  5
247
100
AcDbEntity
  8
0
100
AcDbLine
 62
7
  6
BYLAYER
 10
18.2260116471
 20
39.1251326339
 11
18.2260116471
 21
48.0751785714
  0
LINE
  5
248
100
AcDbEntity
  8
0
100
AcDbLine
 62
7
  6
BYLAYER
 10
18.3010116471
 20
40.458174473
 11
18.3010116471
 21
50.2221826698
  0
LINE
  5
249
100
AcDbEntity
  8
0
100
AcDbLine
 62
7
  6
BYLAYER
 10
18.4432481648
 20
50.4137016183
 11
18.4431684737
 21
40.2666796007
  0
LINE
  5
24A
100
AcDbEntity
  8
0
100
AcDbLine
 62
7
  6
BYLAYER
 10
11.4760116471
 20
24.5051785714
 11
28.4760116471
 21
24.5051785714
  0
LINE
  5
24B
100
AcDbEntity
  8
0
100
AcDbLine
 62
7
  6
BYLAYER
 10
11.4760116471
 20
24.5051785714
 11
10.1610570709
 21
24.1528375546
  0
LINE
  5
24C
100
AcDbEntity
  8
0
100
AcDbLine
 62
7
  6
BYLAYER
 10
29.7909662233
 20
24.1528375546
 11
28.4760116471
 21
24.5051785714
  0
LINE
  5
24D
100
AcDbEntity
  8
0
100
AcDbLine
 62
7
  6
BYLAYER
 10
21.5088548205
 20
40.2666796007
 11
21.5088548205
 21
45.3401785714
  0
LINE
  5
24E
100
AcDbEntity
  8
0
100
AcDbLine
 62
7
  6
BYLAYER
 10
21.508815099
 20
45.3667392322
 11
21.5087775371
 21
50.4137008905
  0
LINE
  5
24F
100
AcDbEntity
  8
0
100
AcDbLine
 62
7
  6
BYLAYER
 10
21.6510116471
 20
40.4581746397
 11
21.6510116471
 21
50.2221825032
  0
LINE
  5
250
100
AcDbEntity
  8
0
100
AcDbLine
 62
7
  6
BYLAYER
 10
21.7260116471
 20
39.1251326339
 11
21.7260116471
 21
48.0751785714
  0
LINE
  5
251
100
AcDbEntity
  8
0
100
AcDbLine
 62
7
  6
BYLAYER
 10
21.7760116471
 20
33.9751785714
 11
21.7760116471
 21
42.7751785714
  0
LINE
  5
252
100
AcDbEntity
  8
0
100
AcDbLine
 62
7
  6
BYLAYER
 10
23.4760116471
 20
47.8751785714
 11
23.4760116471
 21
47.2501785714
  0
LINE
  5
253
100
AcDbEntity
  8
0
100
AcDbLine
 62
7
  6
BYLAYER
 10
23.4760116471
 20
43.5001785714
 11
23.4760116471
 21
42.7751785714
  0
LINE
  5
254
100
AcDbEntity
  8
0
100
AcDbLine
 62
7
  6
BYLAYER
 10
24.8834889352
 20
24.1528375546
 11
24.8834889352
 21
21.3575195882
  0
LINE
  5
255
100
AcDbEntity
  8
0
100
AcDbLine
 62
7
  6
BYLAYER
 10
24.8834889352
 20
20.1528375546
 11
24.8834889352
 21
17.3575195882
  0
LINE
  5
256
100
AcDbEntity
  8
0
100
AcDbLine
 62
7
  6
BYLAYER
 10
24.9868425748
 20
10.7751785714
 11
24.9868425748
 21
10.6751785714
  0
LINE
  5
257
100
AcDbEntity
  8
0
100
AcDbLine
 62
7
  6
BYLAYER
 10
25.2260116471
 20
41.9751785714
 11
25.2260116471
 21
33.9751785714
  0
LINE
  5
258
100
AcDbEntity
  8
0
100
AcDbLine
 62
7
  6
BYLAYER
 10
25.4760116471
 20
9.3251785714
 11
25.4760116471
 21
10.6751785714
  0
LINE
  5
259
100
AcDbEntity
  8
0
100
AcDbLine
 62
7
  6
BYLAYER
 10
25.5690082664
 20
10.7751785714
 11
25.5690082664
 21
10.6751785714
  0
LINE
  5
25A
100
AcDbEntity
  8
0
100
AcDbLine
 62
7
  6
BYLAYER
 10
25.5760116471
 20
6.9751785714
 11
25.5760116471
 21
8.1751785714
  0
LINE
  5
25B
100
AcDbEntity
  8
0
100
AcDbLine
 62
7
  6
BYLAYER
 10
25.8678808277
 20
12.7751785714
 11
25.8678808277
 21
10.9751785714
  0
LINE
  5
25C
100
AcDbEntity
  8
0
100
AcDbLine
 62
7
  6
BYLAYER
 10
25.9760116471
 20
14.7751785714
 11
25.9760116471
 21
17.0051785714
  0
LINE
  5
25D
100
AcDbEntity
  8
0
100
AcDbLine
 62
7
  6
BYLAYER
 10
25.9760116471
 20
20.5051785714
 11
25.9760116471
 21
21.0051785714
  0
LINE
  5
25E
100
AcDbEntity
  8
0
100
AcDbLine
 62
7
  6
BYLAYER
 10
25.9760116471
 20
24.5051785714
 11
25.9760116471
 21
33.2251785714
  0
LINE
  5
25F
100
AcDbEntity
  8
0
100
AcDbLine
 62
7
  6
BYLAYER
 10
26.3260116471
 20
4.9751785714
 11
26.3260116471
 21
6.9751785714
  0
LINE
  5
260
100
AcDbEntity
  8
0
100
AcDbLine
 62
7
  6
BYLAYER
 10
26.3260116471
 20
8.3751785714
 11
26.3260116471
 21
9.3251785714
  0
LINE
  5
261
100
AcDbEntity
  8
0
100
AcDbLine
 62
7
  6
BYLAYER
 10
26.6760116471
 20
12.7751785714
 11
26.6760116471
 21
10.6751785714
  0
LINE
  5
262
100
AcDbEntity
  8
0
100
AcDbLine
 62
7
  6
BYLAYER
 10
13.9760116471
 20
33.2251785714
 11
25.9760116471
 21
33.2251785714
  0
LINE
  5
263
100
AcDbEntity
  8
0
100
AcDbLine
 62
7
  6
BYLAYER
 10
14.7260116471
 20
33.9751785714
 11
25.2260116471
 21
33.9751785714
  0
LINE
  5
264
100
AcDbEntity
  8
0
100
AcDbLine
 62
7
  6
BYLAYER
 10
27.9260116471
 20
14.5751785714
 11
27.9260116471
 21
12.7751785714
  0
LINE
  5
265
100
AcDbEntity
  8
0
100
AcDbLine
 62
7
  6
BYLAYER
 10
25.9760116471
 20
33.2251785714
 11
25.2260116471
 21
33.9751785714
  0
LINE
  5
266
100
AcDbEntity
  8
0
100
AcDbLine
 62
7
  6
BYLAYER
 10
29.7909662233
 20
24.1528375546
 11
29.7909662233
 21
21.3575195882
  0
LINE
  5
267
100
AcDbEntity
  8
0
100
AcDbLine
 62
7
  6
BYLAYER
 10
29.7909662233
 20
20.1528375546
 11
29.7909662233
 21
17.3575195882
  0
LINE
  5
268
100
AcDbEntity
  8
0
100
AcDbLine
 62
7
  6
BYLAYER
 10
25.8678808277
 20
10.9751785714
 11
25.8142909892
 21
10.7751785714
  0
LINE
  5
269
100
AcDbEntity
  8
0
100
AcDbLine
 62
7
  6
BYLAYER
 10
18.2260116471
 20
39.1251326339
 11
21.7260116471
 21
39.1251326339
  0
LINE
  5
26A
100
AcDbEntity
  8
0
100
AcDbLine
 62
7
  6
BYLAYER
 10
14.7260116471
 20
41.9751785714
 11
18.1760116471
 21
41.9751785714
  0
LINE
  5
26B
100
AcDbEntity
  8
0
100
AcDbLine
 62
7
  6
BYLAYER
 10
21.7760116471
 20
41.9751785714
 11
25.2260116471
 21
41.9751785714
  0
LINE
  5
26C
100
AcDbEntity
  8
0
100
AcDbLine
 62
7
  6
BYLAYER
 10
15.5261214599
 20
42.7751785714
 11
18.1760116471
 21
42.7751785714
  0
LINE
  5
26D
100
AcDbEntity
  8
0
100
AcDbLine
 62
7
  6
BYLAYER
 10
21.7760116471
 20
42.7751785714
 11
24.4259018343
 21
42.7751785714
  0
LINE
  5
26E
100
AcDbEntity
  8
0
100
AcDbLine
 62
7
  6
BYLAYER
 10
24.4260116471
 20
42.7751785714
 11
25.2260116471
 21
41.9751785714
  0
LINE
  5
26F
100
AcDbEntity
  8
0
100
AcDbLine
 62
7
  6
BYLAYER
 10
21.7260116471
 20
44.1101785714
 11
21.6510116471
 21
44.1101785714
  0
LINE
  5
270
100
AcDbEntity
  8
0
100
AcDbLine
 62
7
  6
BYLAYER
 10
18.3010116471
 20
44.1101785714
 11
18.2260116471
 21
44.1101785714
  0
LINE
  5
271
100
AcDbEntity
  8
0
100
AcDbLine
 62
7
  6
BYLAYER
 10
23.4760116471
 20
47.8751785714
 11
23.2760116471
 21
48.0751785714
  0
LINE
  5
272
100
AcDbEntity
  8
0
100
AcDbLine
 62
7
  6
BYLAYER
 10
26.1260116471
 20
8.1751785714
 11
26.3260116471
 21
8.3751785714
  0
LINE
  5
273
100
AcDbEntity
  8
0
100
AcDbLine
 62
7
  6
BYLAYER
 10
21.7260116471
 20
45.1555136267
 11
21.6510116471
 21
45.1555136267
  0
LINE
  5
274
100
AcDbEntity
  8
0
100
AcDbLine
 62
7
  6
BYLAYER
 10
18.3010116471
 20
45.1555136267
 11
18.2260116471
 21
45.1555136267
  0
LINE
  5
275
100
AcDbEntity
  8
0
100
AcDbLine
 62
7
  6
BYLAYER
 10
18.2260116471
 20
45.2188952115
 11
18.3010116471
 21
45.2188952115
  0
LINE
  5
276
100
AcDbEntity
  8
0
100
AcDbLine
 62
7
  6
BYLAYER
 10
21.6510116471
 20
45.2188952115
 11
21.7260116471
 21
45.2188952115
  0
LINE
  5
277
100
AcDbEntity
  8
0
100
AcDbLine
 62
7
  6
BYLAYER
 10
21.7260116471
 20
45.5314619313
 11
21.6510116471
 21
45.5314619313
  0
LINE
  5
278
100
AcDbEntity
  8
0
100
AcDbLine
 62
7
  6
BYLAYER
 10
18.3010116471
 20
45.5314619313
 11
18.2260116471
 21
45.5314619313
  0
LINE
  5
279
100
AcDbEntity
  8
0
100
AcDbLine
 62
7
  6
BYLAYER
 10
18.2260116471
 20
45.5948435162
 11
18.3010116471
 21
45.5948435162
  0
LINE
  5
27A
100
AcDbEntity
  8
0
100
AcDbLine
 62
7
  6
BYLAYER
 10
21.6510116471
 20
45.5948435162
 11
21.7260116471
 21
45.5948435162
  0
LINE
  5
27B
100
AcDbEntity
  8
0
100
AcDbLine
 62
7
  6
BYLAYER
 10
18.2260116471
 20
46.6401785714
 11
18.3010116471
 21
46.6401785714
  0
LINE
  5
27C
100
AcDbEntity
  8
0
100
AcDbLine
 62
7
  6
BYLAYER
 10
21.6510116471
 20
46.6401785714
 11
21.7260116471
 21
46.6401785714
  0
LINE
  5
27D
100
AcDbEntity
  8
0
100
AcDbLine
 62
7
  6
BYLAYER
 10
16.4760116471
 20
47.8751785714
 11
18.2260116471
 21
47.8751785714
  0
LINE
  5
27E
100
AcDbEntity
  8
0
100
AcDbLine
 62
7
  6
BYLAYER
 10
21.7260116471
 20
47.8751785714
 11
23.4760116471
 21
47.8751785714
  0
LINE
  5
27F
100
AcDbEntity
  8
0
100
AcDbLine
 62
7
  6
BYLAYER
 10
16.6760116471
 20
48.0751785714
 11
18.2260116471
 21
48.0751785714
  0
LINE
  5
280
100
AcDbEntity
  8
0
100
AcDbLine
 62
7
  6
BYLAYER
 10
21.7260116471
 20
48.0751785714
 11
23.2760116471
 21
48.0751785714
  0
ARC
  5
281
100
AcDbEntity
  8
0
100
AcDbCircle
 62
7
  6
BYLAYER
 10
19.9760116471
 20
45.3401785714
 40
5.3
100
AcDbArc
 50
253.1889938645
 51
286.8110061355
  0
ARC
  5
282
100
AcDbEntity
  8
0
100
AcDbCircle
 62
7
  6
BYLAYER
 10
19.9760116471
 20
45.3401785714
 40
5.3
100
AcDbArc
 50
73.1889938632
 51
106.8110061357
  0
ARC
  5
283
100
AcDbEntity
  8
0
100
AcDbCircle
 62
7
  6
BYLAYER
 10
14.1260116471
 20
4.9751785714
 40
0.5
100
AcDbArc
 50
180.0
 51
270.0
  0
ARC
  5
284
100
AcDbEntity
  8
0
100
AcDbCircle
 62
7
  6
BYLAYER
 10
25.8260116471
 20
4.9751785714
 40
0.5
100
AcDbArc
 50
270.0
 51
360.0
  0
ARC
  5
285
100
AcDbEntity
  8
0
100
AcDbCircle
 62
7
  6
BYLAYER
 10
21.4510116471
 20
50.2222247613
 40
0.2
100
AcDbArc
 50
0.0
 51
73.1889830537
  0
ARC
  5
286
100
AcDbEntity
  8
0
100
AcDbCircle
 62
7
  6
BYLAYER
 10
21.4510116471
 20
40.4581323816
 40
0.2
100
AcDbArc
 50
286.8110169463
 51
360.0
  0
ARC
  5
287
100
AcDbEntity
  8
0
100
AcDbCircle
 62
7
  6
BYLAYER
 10
18.5010116471
 20
40.4581323816
 40
0.2
100
AcDbArc
 50
180.0
 51
253.1889830548
  0
ARC
  5
288
100
AcDbEntity
  8
0
100
AcDbCircle
 62
7
  6
BYLAYER
 10
18.5010116471
 20
50.2222247613
 40
0.2
100
AcDbArc
 50
106.8110169452
 51
180.0
  0
ARC
  5
289
100
AcDbEntity
  8
0
100
AcDbCircle
 62
7
  6
BYLAYER
 10
27.7260116471
 20
14.5751785714
 40
0.2
100
AcDbArc
 50
0.0
 51
90.0
  0
ARC
  5
28A
100
AcDbEntity
  8
0
100
AcDbCircle
 62
7
  6
BYLAYER
 10
12.2260116471
 20
14.5751785714
 40
0.2
100
AcDbArc
 50
90.0
 51
180.0
  0
LINE
  5
28B
100
AcDbEntity
  8
0
100
AcDbLine
 62
7
  6
BYLAYER
 10
21.5088904347
 20
45.3401785714
 11
21.508815099
 21
45.3667392322
  0
SPLINE
  5
28C
100
AcDbEntity
  8
0
100
AcDbSpline
 62
7
  6
BYLAYER
 70
0
 71
3
 72
11
 73
7
 74
0
 42
0.0000001
 43
0.0000001
 44
0.0000000001
 40
0.0
 40
0.0
 40
0.0
 40
0.0
 40
0.2477305731
 40
0.4965105923
 40
0.7471297326
 40
1.0
 40
1.0
 40
1.0
 40
1.0
 10
27.3372275785
 20
24.5051785714
 30
0.0
 10
27.5424911505
 20
24.5051785714
 30
0.0
 10
27.9540576433
 20
24.4890802478
 30
0.0
 10
28.5695734455
 20
24.4184066229
 30
0.0
 10
29.1830234466
 20
24.3057363181
 30
0.0
 10
29.5885833205
 20
24.20706589
 30
0.0
 10
29.7909662233
 20
24.1528375546
 30
0.0
  0
SPLINE
  5
28D
100
AcDbEntity
  8
0
100
AcDbSpline
 62
7
  6
BYLAYER
 70
0
 71
3
 72
11
 73
7
 74
0
 42
0.0000001
 43
0.0000001
 44
0.0000000001
 40
0.0
 40
0.0
 40
0.0
 40
0.0
 40
0.2477305731
 40
0.4965105922
 40
0.7471297364
 40
1.0
 40
1.0
 40
1.0
 40
1.0
 10
27.3372275785
 20
21.0051785714
 30
0.0
 10
27.1319640067
 20
21.0051785714
 30
0.0
 10
26.7203975164
 20
21.0212769043
 30
0.0
 10
26.1048817039
 20
21.0919504825
 30
0.0
 10
25.4914317283
 20
21.2046209154
 30
0.0
 10
25.0858718347
 20
21.3032912537
 30
0.0
 10
24.8834889352
 20
21.3575195882
 30
0.0
  0
SPLINE
  5
28E
100
AcDbEntity
  8
0
100
AcDbSpline
 62
7
  6
BYLAYER
 70
0
 71
3
 72
11
 73
7
 74
0
 42
0.0000001
 43
0.0000001
 44
0.0000000001
 40
0.0
 40
0.0
 40
0.0
 40
0.0
 40
0.2500019724
 40
0.5000023334
 40
0.7500012115
 40
1.0
 40
1.0
 40
1.0
 40
1.0
 10
24.8834889352
 20
21.3575195882
 30
0.0
 10
24.4768190699
 20
21.3030361572
 30
0.0
 10
23.6620948602
 20
21.2040323785
 30
0.0
 10
22.4361292313
 20
21.0916164377
 30
0.0
 10
21.2069915219
 20
21.0211943126
 30
0.0
 10
20.3863097012
 20
21.0051785706
 30
0.0
 10
19.9760115954
 20
21.0051785706
 30
0.0
  0
SPLINE
  5
28F
100
AcDbEntity
  8
0
100
AcDbSpline
 62
7
  6
BYLAYER
 70
0
 71
3
 72
11
 73
7
 74
0
 42
0.0000001
 43
0.0000001
 44
0.0000000001
 40
0.0
 40
0.0
 40
0.0
 40
0.0
 40
0.2528702647
 40
0.5034894097
 40
0.7522694285
 40
1.0
 40
1.0
 40
1.0
 40
1.0
 10
10.1610570709
 20
24.1528375546
 30
0.0
 10
10.3634399714
 20
24.2070658894
 30
0.0
 10
10.7689998667
 20
24.3057362283
 30
0.0
 10
11.3824498435
 20
24.4184066643
 30
0.0
 10
11.9979656559
 20
24.4890802381
 30
0.0
 10
12.4095321448
 20
24.5051785714
 30
0.0
 10
12.6147957153
 20
24.5051785714
 30
0.0
  0
SPLINE
  5
290
100
AcDbEntity
  8
0
100
AcDbSpline
 62
7
  6
BYLAYER
 70
0
 71
3
 72
11
 73
7
 74
0
 42
0.0000001
 43
0.0000001
 44
0.0000000001
 40
0.0
 40
0.0
 40
0.0
 40
0.0
 40
0.2477305731
 40
0.4965105922
 40
0.7471297364
 40
1.0
 40
1.0
 40
1.0
 40
1.0
 10
12.6147957153
 20
21.0051785714
 30
0.0
 10
12.4095321435
 20
21.0051785714
 30
0.0
 10
11.997965653
 20
21.0212769042
 30
0.0
 10
11.3824498402
 20
21.0919504824
 30
0.0
 10
10.7689998643
 20
21.2046209153
 30
0.0
 10
10.3634399705
 20
21.3032912537
 30
0.0
 10
10.1610570709
 20
21.3575195882
 30
0.0
  0
SPLINE
  5
291
100
AcDbEntity
  8
0
100
AcDbSpline
 62
7
  6
BYLAYER
 70
0
 71
3
 72
11
 73
7
 74
0
 42
0.0000001
 43
0.0000001
 44
0.0000000001
 40
0.0
 40
0.0
 40
0.0
 40
0.0
 40
0.2528702685
 40
0.5034894095
 40
0.7522694284
 40
1.0
 40
1.0
 40
1.0
 40
1.0
 10
29.7909662233
 20
21.3575195882
 30
0.0
 10
29.5885833195
 20
21.3032912526
 30
0.0
 10
29.1830234442
 20
21.2046208239
 30
0.0
 10
28.5695734422
 20
21.091950516
 30
0.0
 10
27.9540576404
 20
21.0212768955
 30
0.0
 10
27.5424911493
 20
21.0051785714
 30
0.0
 10
27.3372275785
 20
21.0051785714
 30
0.0
  0
SPLINE
  5
292
100
AcDbEntity
  8
0
100
AcDbSpline
 62
7
  6
BYLAYER
 70
0
 71
3
 72
11
 73
7
 74
0
 42
0.0000001
 43
0.0000001
 44
0.0000000001
 40
0.0
 40
0.0
 40
0.0
 40
0.0
 40
0.2528702647
 40
0.5034894097
 40
0.7522694285
 40
1.0
 40
1.0
 40
1.0
 40
1.0
 10
24.8834889352
 20
24.1528375546
 30
0.0
 10
25.0858718357
 20
24.2070658894
 30
0.0
 10
25.4914317307
 20
24.3057362283
 30
0.0
 10
26.1048817072
 20
24.4184066642
 30
0.0
 10
26.7203975193
 20
24.4890802381
 30
0.0
 10
27.131964008
 20
24.5051785714
 30
0.0
 10
27.3372275785
 20
24.5051785714
 30
0.0
  0
SPLINE
  5
293
100
AcDbEntity
  8
0
100
AcDbSpline
 62
7
  6
BYLAYER
 70
0
 71
3
 72
11
 73
7
 74
0
 42
0.0000001
 43
0.0000001
 44
0.0000000001
 40
0.0
 40
0.0
 40
0.0
 40
0.0
 40
0.2477305731
 40
0.4965105923
 40
0.7471297326
 40
1.0
 40
1.0
 40
1.0
 40
1.0
 10
12.6147957153
 20
24.5051785714
 30
0.0
 10
12.8200592873
 20
24.5051785714
 30
0.0
 10
13.2316257798
 20
24.4890802477
 30
0.0
 10
13.8471415817
 20
24.4184066228
 30
0.0
 10
14.4605915826
 20
24.3057363181
 30
0.0
 10
14.8661514562
 20
24.20706589
 30
0.0
 10
15.068534359
 20
24.1528375546
 30
0.0
  0
SPLINE
  5
294
100
AcDbEntity
  8
0
100
AcDbSpline
 62
7
  6
BYLAYER
 70
0
 71
3
 72
11
 73
7
 74
0
 42
0.0000001
 43
0.0000001
 44
0.0000000001
 40
0.0
 40
0.0
 40
0.0
 40
0.0
 40
0.2500019719
 40
0.5000023336
 40
0.7500012116
 40
1.0
 40
1.0
 40
1.0
 40
1.0
 10
15.068534359
 20
24.1528375546
 30
0.0
 10
15.4752042189
 20
24.2073209849
 30
0.0
 10
16.2899284306
 20
24.3063246698
 30
0.0
 10
17.5158940338
 20
24.4187407419
 30
0.0
 10
18.7450317349
 20
24.4891628192
 30
0.0
 10
19.5657135455
 20
24.5051785714
 30
0.0
 10
19.9760116466
 20
24.5051785714
 30
0.0
  0
SPLINE
  5
295
100
AcDbEntity
  8
0
100
AcDbSpline
 62
7
  6
BYLAYER
 70
0
 71
3
 72
11
 73
7
 74
0
 42
0.0000001
 43
0.0000001
 44
0.0000000001
 40
0.0
 40
0.0
 40
0.0
 40
0.0
 40
0.24999879
 40
0.4999976682
 40
0.7499980293
 40
1.0
 40
1.0
 40
1.0
 40
1.0
 10
19.9760115954
 20
21.0051785706
 30
0.0
 10
19.565713496
 20
21.005178572
 30
0.0
 10
18.745031691
 20
21.021194325
 30
0.0
 10
17.5158940012
 20
21.0916164069
 30
0.0
 10
16.2899284132
 20
21.2040324754
 30
0.0
 10
15.4752042129
 20
21.3030361587
 30
0.0
 10
15.068534359
 20
21.3575195882
 30
0.0
  0
SPLINE
  5
296
100
AcDbEntity
  8
0
100
AcDbSpline
 62
7
  6
BYLAYER
 70
0
 71
3
 72
11
 73
7
 74
0
 42
0.0000001
 43
0.0000001
 44
0.0000000001
 40
0.0
 40
0.0
 40
0.0
 40
0.0
 40
0.2528702685
 40
0.5034894095
 40
0.7522694284
 40
1.0
 40
1.0
 40
1.0
 40
1.0
 10
15.068534359
 20
21.3575195882
 30
0.0
 10
14.8661514553
 20
21.3032912526
 30
0.0
 10
14.4605915802
 20
21.204620824
 30
0.0
 10
13.8471415785
 20
21.0919505161
 30
0.0
 10
13.231625777
 20
21.0212768956
 30
0.0
 10
12.820059286
 20
21.0051785714
 30
0.0
 10
12.6147957153
 20
21.0051785714
 30
0.0
  0
SPLINE
  5
297
100
AcDbEntity
  8
0
100
AcDbSpline
 62
7
  6
BYLAYER
 70
0
 71
3
 72
11
 73
7
 74
0
 42
0.0000001
 43
0.0000001
 44
0.0000000001
 40
0.0
 40
0.0
 40
0.0
 40
0.0
 40
0.2499987901
 40
0.4999976683
 40
0.7499980287
 40
1.0
 40
1.0
 40
1.0
 40
1.0
 10
19.9760116466
 20
24.5051785714
 30
0.0
 10
20.3863097506
 20
24.5051785714
 30
0.0
 10
21.2069915657
 20
24.4891628293
 30
0.0
 10
22.4361292638
 20
24.418740699
 30
0.0
 10
23.6620948776
 20
24.3063247621
 30
0.0
 10
24.476819076
 20
24.2073209848
 30
0.0
 10
24.8834889352
 20
24.1528375546
 30
0.0
  0
SPLINE
  5
298
100
AcDbEntity
  8
0
100
AcDbSpline
 62
7
  6
BYLAYER
 70
0
 71
3
 72
11
 73
7
 74
0
 42
0.0000001
 43
0.0000001
 44
0.0000000001
 40
0.0
 40
0.0
 40
0.0
 40
0.0
 40
0.2477305731
 40
0.4965105923
 40
0.7471297326
 40
1.0
 40
1.0
 40
1.0
 40
1.0
 10
27.3372275785
 20
20.5051785714
 30
0.0
 10
27.5424911505
 20
20.5051785714
 30
0.0
 10
27.9540576433
 20
20.4890802478
 30
0.0
 10
28.5695734455
 20
20.4184066229
 30
0.0
 10
29.1830234466
 20
20.3057363181
 30
0.0
 10
29.5885833205
 20
20.20706589
 30
0.0
 10
29.7909662233
 20
20.1528375546
 30
0.0
  0
SPLINE
  5
299
100
AcDbEntity
  8
0
100
AcDbSpline
 62
7
  6
BYLAYER
 70
0
 71
3
 72
11
 73
7
 74
0
 42
0.0000001
 43
0.0000001
 44
0.0000000001
 40
0.0
 40
0.0
 40
0.0
 40
0.0
 40
0.2477305731
 40
0.4965105922
 40
0.7471297364
 40
1.0
 40
1.0
 40
1.0
 40
1.0
 10
27.3372275785
 20
17.0051785714
 30
0.0
 10
27.1319640067
 20
17.0051785714
 30
0.0
 10
26.7203975164
 20
17.0212769043
 30
0.0
 10
26.1048817039
 20
17.0919504825
 30
0.0
 10
25.4914317283
 20
17.2046209154
 30
0.0
 10
25.0858718347
 20
17.3032912537
 30
0.0
 10
24.8834889352
 20
17.3575195882
 30
0.0
  0
SPLINE
  5
29A
100
AcDbEntity
  8
0
100
AcDbSpline
 62
7
  6
BYLAYER
 70
0
 71
3
 72
11
 73
7
 74
0
 42
0.0000001
 43
0.0000001
 44
0.0000000001
 40
0.0
 40
0.0
 40
0.0
 40
0.0
 40
0.2500019724
 40
0.5000023334
 40
0.7500012115
 40
1.0
 40
1.0
 40
1.0
 40
1.0
 10
24.8834889352
 20
17.3575195882
 30
0.0
 10
24.4768190699
 20
17.3030361572
 30
0.0
 10
23.6620948602
 20
17.2040323785
 30
0.0
 10
22.4361292313
 20
17.0916164377
 30
0.0
 10
21.2069915219
 20
17.0211943126
 30
0.0
 10
20.3863097012
 20
17.0051785706
 30
0.0
 10
19.9760115954
 20
17.0051785706
 30
0.0
  0
SPLINE
  5
29B
100
AcDbEntity
  8
0
100
AcDbSpline
 62
7
  6
BYLAYER
 70
0
 71
3
 72
11
 73
7
 74
0
 42
0.0000001
 43
0.0000001
 44
0.0000000001
 40
0.0
 40
0.0
 40
0.0
 40
0.0
 40
0.2528702647
 40
0.5034894097
 40
0.7522694285
 40
1.0
 40
1.0
 40
1.0
 40
1.0
 10
10.1610570709
 20
20.1528375546
 30
0.0
 10
10.3634399714
 20
20.2070658894
 30
0.0
 10
10.7689998667
 20
20.3057362283
 30
0.0
 10
11.3824498435
 20
20.4184066643
 30
0.0
 10
11.9979656559
 20
20.4890802381
 30
0.0
 10
12.4095321448
 20
20.5051785714
 30
0.0
 10
12.6147957153
 20
20.5051785714
 30
0.0
  0
SPLINE
  5
29C
100
AcDbEntity
  8
0
100
AcDbSpline
 62
7
  6
BYLAYER
 70
0
 71
3
 72
11
 73
7
 74
0
 42
0.0000001
 43
0.0000001
 44
0.0000000001
 40
0.0
 40
0.0
 40
0.0
 40
0.0
 40
0.2477305731
 40
0.4965105922
 40
0.7471297364
 40
1.0
 40
1.0
 40
1.0
 40
1.0
 10
12.6147957153
 20
17.0051785714
 30
0.0
 10
12.4095321435
 20
17.0051785714
 30
0.0
 10
11.997965653
 20
17.0212769042
 30
0.0
 10
11.3824498402
 20
17.0919504824
 30
0.0
 10
10.7689998643
 20
17.2046209153
 30
0.0
 10
10.3634399705
 20
17.3032912537
 30
0.0
 10
10.1610570709
 20
17.3575195882
 30
0.0
  0
SPLINE
  5
29D
100
AcDbEntity
  8
0
100
AcDbSpline
 62
7
  6
BYLAYER
 70
0
 71
3
 72
11
 73
7
 74
0
 42
0.0000001
 43
0.0000001
 44
0.0000000001
 40
0.0
 40
0.0
 40
0.0
 40
0.0
 40
0.2528702685
 40
0.5034894095
 40
0.7522694284
 40
1.0
 40
1.0
 40
1.0
 40
1.0
 10
29.7909662233
 20
17.3575195882
 30
0.0
 10
29.5885833195
 20
17.3032912526
 30
0.0
 10
29.1830234442
 20
17.2046208239
 30
0.0
 10
28.5695734422
 20
17.091950516
 30
0.0
 10
27.9540576404
 20
17.0212768955
 30
0.0
 10
27.5424911493
 20
17.0051785714
 30
0.0
 10
27.3372275785
 20
17.0051785714
 30
0.0
  0
SPLINE
  5
29E
100
AcDbEntity
  8
0
100
AcDbSpline
 62
7
  6
BYLAYER
 70
0
 71
3
 72
11
 73
7
 74
0
 42
0.0000001
 43
0.0000001
 44
0.0000000001
 40
0.0
 40
0.0
 40
0.0
 40
0.0
 40
0.2528702647
 40
0.5034894097
 40
0.7522694285
 40
1.0
 40
1.0
 40
1.0
 40
1.0
 10
24.8834889352
 20
20.1528375546
 30
0.0
 10
25.0858718357
 20
20.2070658894
 30
0.0
 10
25.4914317307
 20
20.3057362283
 30
0.0
 10
26.1048817072
 20
20.4184066642
 30
0.0
 10
26.7203975193
 20
20.4890802381
 30
0.0
 10
27.131964008
 20
20.5051785714
 30
0.0
 10
27.3372275785
 20
20.5051785714
 30
0.0
  0
SPLINE
  5
29F
100
AcDbEntity
  8
0
100
AcDbSpline
 62
7
  6
BYLAYER
 70
0
 71
3
 72
11
 73
7
 74
0
 42
0.0000001
 43
0.0000001
 44
0.0000000001
 40
0.0
 40
0.0
 40
0.0
 40
0.0
 40
0.2477305731
 40
0.4965105923
 40
0.7471297326
 40
1.0
 40
1.0
 40
1.0
 40
1.0
 10
12.6147957153
 20
20.5051785714
 30
0.0
 10
12.8200592873
 20
20.5051785714
 30
0.0
 10
13.2316257798
 20
20.4890802477
 30
0.0
 10
13.8471415817
 20
20.4184066228
 30
0.0
 10
14.4605915826
 20
20.3057363181
 30
0.0
 10
14.8661514562
 20
20.20706589
 30
0.0
 10
15.068534359
 20
20.1528375546
 30
0.0
  0
SPLINE
  5
2A0
100
AcDbEntity
  8
0
100
AcDbSpline
 62
7
  6
BYLAYER
 70
0
 71
3
 72
11
 73
7
 74
0
 42
0.0000001
 43
0.0000001
 44
0.0000000001
 40
0.0
 40
0.0
 40
0.0
 40
0.0
 40
0.2500019719
 40
0.5000023336
 40
0.7500012116
 40
1.0
 40
1.0
 40
1.0
 40
1.0
 10
15.068534359
 20
20.1528375546
 30
0.0
 10
15.4752042189
 20
20.2073209849
 30
0.0
 10
16.2899284306
 20
20.3063246698
 30
0.0
 10
17.5158940338
 20
20.4187407419
 30
0.0
 10
18.7450317349
 20
20.4891628192
 30
0.0
 10
19.5657135455
 20
20.5051785714
 30
0.0
 10
19.9760116466
 20
20.5051785714
 30
0.0
  0
SPLINE
  5
2A1
100
AcDbEntity
  8
0
100
AcDbSpline
 62
7
  6
BYLAYER
 70
0
 71
3
 72
11
 73
7
 74
0
 42
0.0000001
 43
0.0000001
 44
0.0000000001
 40
0.0
 40
0.0
 40
0.0
 40
0.0
 40
0.24999879
 40
0.4999976682
 40
0.7499980293
 40
1.0
 40
1.0
 40
1.0
 40
1.0
 10
19.9760115954
 20
17.0051785706
 30
0.0
 10
19.565713496
 20
17.005178572
 30
0.0
 10
18.745031691
 20
17.021194325
 30
0.0
 10
17.5158940012
 20
17.0916164069
 30
0.0
 10
16.2899284132
 20
17.2040324754
 30
0.0
 10
15.4752042129
 20
17.3030361587
 30
0.0
 10
15.068534359
 20
17.3575195882
 30
0.0
  0
SPLINE
  5
2A2
100
AcDbEntity
  8
0
100
AcDbSpline
 62
7
  6
BYLAYER
 70
0
 71
3
 72
11
 73
7
 74
0
 42
0.0000001
 43
0.0000001
 44
0.0000000001
 40
0.0
 40
0.0
 40
0.0
 40
0.0
 40
0.2528702685
 40
0.5034894095
 40
0.7522694284
 40
1.0
 40
1.0
 40
1.0
 40
1.0
 10
15.068534359
 20
17.3575195882
 30
0.0
 10
14.8661514553
 20
17.3032912526
 30
0.0
 10
14.4605915802
 20
17.204620824
 30
0.0
 10
13.8471415785
 20
17.0919505161
 30
0.0
 10
13.231625777
 20
17.0212768956
 30
0.0
 10
12.820059286
 20
17.0051785714
 30
0.0
 10
12.6147957153
 20
17.0051785714
 30
0.0
  0
SPLINE
  5
2A3
100
AcDbEntity
  8
0
100
AcDbSpline
 62
7
  6
BYLAYER
 70
0
 71
3
 72
11
 73
7
 74
0
 42
0.0000001
 43
0.0000001
 44
0.0000000001
 40
0.0
 40
0.0
 40
0.0
 40
0.0
 40
0.2499987901
 40
0.4999976683
 40
0.7499980287
 40
1.0
 40
1.0
 40
1.0
 40
1.0
 10
19.9760116466
 20
20.5051785714
 30
0.0
 10
20.3863097506
 20
20.5051785714
 30
0.0
 10
21.2069915657
 20
20.4891628293
 30
0.0
 10
22.4361292638
 20
20.418740699
 30
0.0
 10
23.6620948776
 20
20.3063247621
 30
0.0
 10
24.476819076
 20
20.2073209848
 30
0.0
 10
24.8834889352
 20
20.1528375546
 30
0.0
  0
SPLINE
  5
2A4
100
AcDbEntity
  8
0
100
AcDbSpline
 62
7
  6
BYLAYER
 70
0
 71
3
 72
20
 73
16
 74
0
 42
0.0000001
 43
0.0000001
 44
0.0000000001
 40
0.0
 40
0.0
 40
0.0
 40
0.0
 40
0.0484794804
 40
0.1688322884
 40
0.3262559845
 40
0.4120682463
 40
0.4998377756
 40
0.5876181129
 40
0.6734530479
 40
0.7553373027
 40
0.8310186224
 40
0.8976776725
 40
0.9514864703
 40
0.9872799691
 40
1.0
 40
1.0
 40
1.0
 40
1.0
 10
16.4760116471
 20
43.5001785714
 30
0.0
 10
16.4964051914
 20
43.5586509232
 30
0.0
 10
16.5652159228
 20
43.7630830466
 30
0.0
 10
16.6815871798
 20
44.1635551153
 30
0.0
 10
16.7729986423
 20
44.6199939409
 30
0.0
 10
16.8177353227
 20
45.0407579448
 30
0.0
 10
16.829850489
 20
45.374712395
 30
0.0
 10
16.8178372355
 20
45.7086945559
 30
0.0
 10
16.7832829248
 20
46.0334983816
 30
0.0
 10
16.7310339428
 20
46.3401925907
 30
0.0
 10
16.6677320268
 20
46.6196687015
 30
0.0
 10
16.6016949223
 20
46.8614452212
 30
0.0
 10
16.5429547186
 20
47.0522526274
 30
0.0
 10
16.5015862644
 20
47.1762535133
 30
0.0
 10
16.4813553781
 20
47.2348331241
 30
0.0
 10
16.4760116471
 20
47.2501785714
 30
0.0
  0
SPLINE
  5
2A5
100
AcDbEntity
  8
0
100
AcDbSpline
 62
7
  6
BYLAYER
 70
0
 71
3
 72
20
 73
16
 74
0
 42
0.0000001
 43
0.0000001
 44
0.0000000001
 40
0.0
 40
0.0
 40
0.0
 40
0.0
 40
0.0484790988
 40
0.1688309434
 40
0.3262546466
 40
0.4120673918
 40
0.4998373186
 40
0.5876178641
 40
0.6734530668
 40
0.7553374896
 40
0.8310195898
 40
0.8976788261
 40
0.951486081
 40
0.9872809749
 40
1.0
 40
1.0
 40
1.0
 40
1.0
 10
23.4760116471
 20
47.2501785714
 30
0.0
 10
23.4556182302
 20
47.1917066878
 30
0.0
 10
23.3868079533
 20
46.9872762255
 30
0.0
 10
23.2704369275
 20
46.5868058988
 30
0.0
 10
23.1790244059
 20
46.1303678189
 30
0.0
 10
23.1342889525
 20
45.7096025525
 30
0.0
 10
23.1221725664
 20
45.3756467679
 30
0.0
 10
23.1341859233
 20
45.0416634765
 30
0.0
 10
23.1687398664
 20
44.7168587665
 30
0.0
 10
23.2209907226
 20
44.4101632612
 30
0.0
 10
23.2842926672
 20
44.1306857938
 30
0.0
 10
23.3503256625
 20
43.8889087726
 30
0.0
 10
23.4090729446
 20
43.6981035648
 30
0.0
 10
23.4504349984
 20
43.5741020967
 30
0.0
 10
23.470667498
 20
43.5155225187
 30
0.0
 10
23.4760116471
 20
43.5001785714
 30
0.0
  0
ENDSEC
  0
SECTION
  2
OBJECTS
  0
DICTIONARY
  5
C
100
AcDbDictionary
280
0
281
1
  3
ACAD_GROUP
350
D
  3
ACAD_MLINESTYLE
350
17
  3
ACAD_LAYOUT
350
1A
  3
ACAD_PLOTSETTINGS
350
19
  3
ACAD_PLOTSTYLENAME
350
E
  0
DICTIONARY
  5
D
102
{ACAD_REACTORS
330
C
102
}
100
AcDbDictionary
280
0
281
1
  0
ACDBDICTIONARYWDFLT
  5
E
102
{ACAD_REACTORS
330
C
102
}
100
AcDbDictionary
281
1
  3
Normal
350
F
100
AcDbDictionaryWithDefault
340
F
  0
DICTIONARY
  5
17
102
{ACAD_REACTORS
330
C
102
}
100
AcDbDictionary
280
0
281
1
  3
Standard
350
18
  0
DICTIONARY
  5
19
102
{ACAD_REACTORS
330
C
102
}
100
AcDbDictionary
281
1
  0
DICTIONARY
  5
1A
102
{ACAD_REACTORS
330
C
102
}
100
AcDbDictionary
281
1
  3
Model
350
2A6
  3
Layout1
350
2A7
  0
ACDBPLACEHOLDER
  5
F
102
{ACAD_REACTORS
330
E
102
}
  0
MLINESTYLE
  5
18
102
{ACAD_REACTORS
330
17
102
}
100
AcDbMlineStyle
  2
STANDARD
 70
0
  3

 62
256
 51
90.0
 52
90.0
 71
2
 49
0.5
 62
256
  6
BYLAYER
 49
-0.5
 62
256
  6
BYLAYER
  0
LAYOUT
  5
2A6
102
{ACAD_REACTORS
330
1A
102
}
100
AcDbPlotSettings
  1

  2
none_device
  4

  6

 40
0.0
 41
0.0
 42
0.0
 43
0.0
 44
210.0
 45
297.0
 46
0.0
 47
0.0
 48
0.0
 49
0.0
140
0.0
141
0.0
142
1.0
143
1.0
 70
1024
 72
1
 73
0
 74
0
  7

 75
0
147
1.0
148
0.0
149
0.0
100
AcDbLayout
  1
Model
 70
0
 71
0
 10
0.0
 20
0.0
 11
210.0
 21
297.0
 12
0.0
 22
0.0
 32
0.0
 14
0.0
 24
0.0
 34
0.0
 15
0.0
 25
0.0
 35
0.0
146
0.0
 13
0.0
 23
0.0
 33
0.0
 16
1.0
 26
0.0
 36
0.0
 17
0.0
 27
1.0
 37
0.0
 76
0
330
210
345
0
346
0
  0
LAYOUT
  5
2A7
102
{ACAD_REACTORS
330
1A
102
}
100
AcDbPlotSettings
  1

  2
none_device
  4

  6

 40
0.0
 41
0.0
 42
0.0
 43
0.0
 44
210.0
 45
297.0
 46
0.0
 47
0.0
 48
0.0
 49
0.0
140
0.0
141
0.0
142
1.0
143
1.0
 70
0
 72
1
 73
0
 74
0
  7

 75
0
147
1.0
148
0.0
149
0.0
100
AcDbLayout
  1
Layout1
 70
0
 71
1
 10
0.0
 20
0.0
 11
210.0
 21
297.0
 12
0.0
 22
0.0
 32
0.0
 14
0.0
 24
0.0
 34
0.0
 15
0.0
 25
0.0
 35
0.0
146
0.0
 13
0.0
 23
0.0
 33
0.0
 16
1.0
 26
0.0
 36
0.0
 17
0.0
 27
1.0
 37
0.0
 76
0
330
211
345
0
346
0
  0
ENDSEC
  0
EOF
