999
DXF file: C:\Users\sesa63760\Dev\_Creo\CAD\MCADID0004418_3D-CAD\drw0001_1.dxf
999
Pro/ENGINEER 2019471 by Parametric Technology Corporation
  0
SECTION
  2
HEADER
  9
$ACADVER
  1
AC1024
  9
$DWGCODEPAGE
  3
ANSI_1252
  9
$EXTMAX
 10
97.6863548674
 20
138.1564161696
 30
0.0
  9
$EXTMIN
 10
0.0
 20
0.0
 30
0.0
  9
$LIMMIN
 10
0.0
 20
0.0
  9
$LIMMAX
 10
97.6863548674
 20
138.1564161696
  9
$VIEWCTR
 10
48.8431774337
 20
69.0782080848
  9
$VIEWSIZE
 40
138.1564161696
  9
$CLAYER
  8
0
  9
$LTSCALE
 40
9.0057515725
  9
$CELTYPE
  6
BYLAYER
  9
$DIMSCALE
 40
1.0
  9
$DIMASZ
 40
1.162932796
  9
$DIMEXO
 40
1.0
  9
$DIMDLI
 40
6.2221556319
  9
$DIMEXE
 40
1.0
  9
$DIMCEN
 40
1.4736684391
  9
$DIMLFAC
 40
1.0
  9
$DIMBLK
  1
_FILLED
  9
$DIMALT
 70
0
  9
$DIMALTF
 40
0.0393700787
  9
$DIMTXT
 40
1.6281059145
  9
$DIMTOL
 70
1
  9
$DIMLIM
 70
0
  9
$DIMTFAC
 40
1.0
  9
$DIMTP
 40
0.01
  9
$DIMTM
 40
0.01
  9
$DIMGAP
 40
0.625
  9
$DIMDSEP
 70
46
  9
$AUNITS
 70
0
  9
$PDMODE
 70
3
  9
$PDSIZE
 40
0.3125
  9
$HANDSEED
  5
265
  9
$TILEMODE
 70
1
  9
$MEASUREMENT
 70
1
  9
$INSUNITS
 70
4
  0
ENDSEC
  0
SECTION
  2
CLASSES
  0
CLASS
  1
ACDBDICTIONARYWDFLT
  2
AcDbDictionaryWithDefault
  3
AutoCAD 2000
 90
0
 91
1
280
0
281
0
  0
CLASS
  1
ACDBPLACEHOLDER
  2
AcDbPlaceHolder
  3
AutoCAD 2000
 90
0
 91
1
280
0
281
0
  0
CLASS
  1
LAYOUT
  2
AcDbLayout
  3
AutoCAD 2000
 90
0
 91
0
280
0
281
0
  0
ENDSEC
  0
SECTION
  2
TABLES
  0
TABLE
  2
VPORT
  5
8
100
AcDbSymbolTable
 70
2
  0
VPORT
  5
1F4
100
AcDbSymbolTableRecord
100
AcDbViewportTableRecord
  2
*ACTIVE
 70
0
 10
0.0
 20
0.0
 11
1.0
 21
1.0
 12
48.8431774337
 22
69.0782080848
 13
0.0
 23
0.0
 14
1.0
 24
1.0
 15
0.0
 25
0.0
 16
0.0
 26
0.0
 36
1.0
 17
0.0
 27
0.0
 37
0.0
 40
138.1564161696
 41
0.7070707071
 42
50.0
 43
0.0
 44
0.0
 50
0.0
 51
0.0
 71
0
 72
100
 73
1
 74
1
 75
0
 76
0
 77
0
 78
0
  0
ENDTAB
  0
TABLE
  2
LTYPE
  5
5
100
AcDbSymbolTable
 70
6
  0
LTYPE
  5
14
100
AcDbSymbolTableRecord
100
AcDbLinetypeTableRecord
  2
BYBLOCK
 70
0
  3

 72
65
 73
0
 40
0.0
  0
LTYPE
  5
15
100
AcDbSymbolTableRecord
100
AcDbLinetypeTableRecord
  2
BYLAYER
 70
0
  3

 72
65
 73
0
 40
0.0
  0
LTYPE
  5
16
100
AcDbSymbolTableRecord
100
AcDbLinetypeTableRecord
  2
CONTINUOUS
 70
64
  3
Solid line
 72
65
 73
0
 40
0.0
  0
LTYPE
  5
1F5
100
AcDbSymbolTableRecord
100
AcDbLinetypeTableRecord
  2
CENTER
 70
64
  3
____ _ ____ _ ____ _ ____ _ ____ _ ____ _ ____
 72
65
 73
4
 40
0.6
 49
0.375
 74
0
 49
-0.075
 74
0
 49
0.075
 74
0
 49
-0.075
 74
0
  0
LTYPE
  5
1F6
100
AcDbSymbolTableRecord
100
AcDbLinetypeTableRecord
  2
HIDDEN
 70
64
  3
- - - - - - - - - - - - - - - - - - - -
 72
65
 73
2
 40
0.2
 49
0.1
 74
0
 49
-0.1
 74
0
  0
LTYPE
  5
1F7
100
AcDbSymbolTableRecord
100
AcDbLinetypeTableRecord
  2
PHANTOM
 70
64
  3
_____ _ _ _____ _ _ _____ _ _ _____
 72
65
 73
6
 40
0.8
 49
0.45
 74
0
 49
-0.05
 74
0
 49
0.1
 74
0
 49
-0.05
 74
0
 49
0.1
 74
0
 49
-0.05
 74
0
  0
LTYPE
  5
1F8
100
AcDbSymbolTableRecord
100
AcDbLinetypeTableRecord
  2
DOT
 70
64
  3
. . . . . . . . . . . . . . . . . . . .
 72
65
 73
2
 40
0.2
 49
0.1
 74
0
 49
-0.1
 74
0
  0
LTYPE
  5
1F9
100
AcDbSymbolTableRecord
100
AcDbLinetypeTableRecord
  2
DASHED
 70
64
  3
- - - - - - - - - - - - - - - - - - - -
 72
65
 73
2
 40
0.2
 49
0.1
 74
0
 49
-0.1
 74
0
  0
ENDTAB
  0
TABLE
  2
LAYER
  5
2
100
AcDbSymbolTable
 70
36
  0
LAYER
  5
10
100
AcDbSymbolTableRecord
100
AcDbLayerTableRecord
  2
0
 70
0
 62
7
  6
CONTINUOUS
370
-3
390
F
  0
LAYER
  5
1FA
100
AcDbSymbolTableRecord
100
AcDbLayerTableRecord
  2
DEFAULT_1
 70
0
 62
7
  6
CENTER
370
-3
390
F
  0
LAYER
  5
1FB
100
AcDbSymbolTableRecord
100
AcDbLayerTableRecord
  2
DEFAULT_2
 70
0
 62
7
  6
HIDDEN
370
-3
390
F
  0
LAYER
  5
1FC
100
AcDbSymbolTableRecord
100
AcDbLayerTableRecord
  2
DEFAULT_3
 70
0
 62
7
  6
PHANTOM
370
-3
390
F
  0
LAYER
  5
1FD
100
AcDbSymbolTableRecord
100
AcDbLayerTableRecord
  2
00_COMPONENTS
 70
0
 62
7
  6
CONTINUOUS
370
-3
390
F
  0
LAYER
  5
1FE
100
AcDbSymbolTableRecord
100
AcDbLayerTableRecord
  2
01_1_DEFAULT_DATUMS
 70
0
 62
7
  6
CONTINUOUS
370
-3
390
F
  0
LAYER
  5
1FF
100
AcDbSymbolTableRecord
100
AcDbLayerTableRecord
  2
01_PLANES
 70
0
 62
7
  6
CONTINUOUS
370
-3
390
F
  0
LAYER
  5
200
100
AcDbSymbolTableRecord
100
AcDbLayerTableRecord
  2
02_COORD_SYS
 70
0
 62
7
  6
CONTINUOUS
370
-3
390
F
  0
LAYER
  5
201
100
AcDbSymbolTableRecord
100
AcDbLayerTableRecord
  2
03_AXES
 70
0
 62
7
  6
CONTINUOUS
370
-3
390
F
  0
LAYER
  5
202
100
AcDbSymbolTableRecord
100
AcDbLayerTableRecord
  2
04_POINTS
 70
0
 62
7
  6
CONTINUOUS
370
-3
390
F
  0
LAYER
  5
203
100
AcDbSymbolTableRecord
100
AcDbLayerTableRecord
  2
05_CURVES
 70
0
 62
7
  6
CONTINUOUS
370
-3
390
F
  0
LAYER
  5
204
100
AcDbSymbolTableRecord
100
AcDbLayerTableRecord
  2
06_SURFS
 70
0
 62
7
  6
CONTINUOUS
370
-3
390
F
  0
LAYER
  5
205
100
AcDbSymbolTableRecord
100
AcDbLayerTableRecord
  2
07_COSMETICS
 70
0
 62
7
  6
CONTINUOUS
370
-3
390
F
  0
LAYER
  5
206
100
AcDbSymbolTableRecord
100
AcDbLayerTableRecord
  2
10_NOTES
 70
0
 62
7
  6
CONTINUOUS
370
-3
390
F
  0
LAYER
  5
207
100
AcDbSymbolTableRecord
100
AcDbLayerTableRecord
  2
11_NOTES_PUB
 70
0
 62
7
  6
CONTINUOUS
370
-3
390
F
  0
LAYER
  5
208
100
AcDbSymbolTableRecord
100
AcDbLayerTableRecord
  2
13_REF_GTOL
 70
0
 62
7
  6
CONTINUOUS
370
-3
390
F
  0
LAYER
  5
209
100
AcDbSymbolTableRecord
100
AcDbLayerTableRecord
  2
16_MISC
 70
0
 62
7
  6
CONTINUOUS
370
-3
390
F
  0
LAYER
  5
20A
100
AcDbSymbolTableRecord
100
AcDbLayerTableRecord
  2
17_NO_PRINT
 70
0
 62
7
  6
CONTINUOUS
370
-3
390
F
  0
LAYER
  5
20B
100
AcDbSymbolTableRecord
100
AcDbLayerTableRecord
  2
18_DATUM_CAMS_JOINTS
 70
0
 62
7
  6
CONTINUOUS
370
-3
390
F
  0
LAYER
  5
20C
100
AcDbSymbolTableRecord
100
AcDbLayerTableRecord
  2
19_DATUM_FUNCTIONAL
 70
0
 62
7
  6
CONTINUOUS
370
-3
390
F
  0
LAYER
  5
20D
100
AcDbSymbolTableRecord
100
AcDbLayerTableRecord
  2
20_DATUM_KINEMATIC_SCHEME
 70
0
 62
7
  6
CONTINUOUS
370
-3
390
F
  0
ENDTAB
  0
TABLE
  2
STYLE
  5
3
100
AcDbSymbolTable
 70
1
  0
STYLE
  5
11
100
AcDbSymbolTableRecord
100
AcDbTextStyleTableRecord
  2
STANDARD
 70
0
 40
0.0
 41
1.0
 50
0.0
 71
0
 42
0.2
  3
ARIAL.TTF
  4

  0
STYLE
  5
20E
100
AcDbSymbolTableRecord
100
AcDbTextStyleTableRecord
  2
TEXTSTYLE_1
 70
0
 40
0.0
 41
0.8
 50
0.0
 71
0
 42
0.2
  3
gdt
  4

  0
ENDTAB
  0
TABLE
  2
VIEW
  5
6
100
AcDbSymbolTable
 70
0
  0
ENDTAB
  0
TABLE
  2
UCS
  5
7
100
AcDbSymbolTable
 70
0
  0
ENDTAB
  0
TABLE
  2
APPID
  5
9
100
AcDbSymbolTable
 70
1
  0
APPID
  5
20F
100
AcDbSymbolTableRecord
100
AcDbRegAppTableRecord
  2
ACAD
 70
0
  0
ENDTAB
  0
TABLE
  2
BLOCK_RECORD
  5
1
100
AcDbSymbolTable
 70
0
  0
BLOCK_RECORD
  5
210
100
AcDbSymbolTableRecord
100
AcDbBlockTableRecord
  2
*Model_Space
  0
BLOCK_RECORD
  5
211
100
AcDbSymbolTableRecord
100
AcDbBlockTableRecord
  2
*Paper_Space
  0
BLOCK_RECORD
  5
212
100
AcDbSymbolTableRecord
100
AcDbBlockTableRecord
  2
_FILLED
  0
ENDTAB
  0
TABLE
  2
DIMSTYLE
  5
A
100
AcDbSymbolTable
 70
1
100
AcDbDimStyleTable
 71
0
  0
DIMSTYLE
105
213
100
AcDbSymbolTableRecord
100
AcDbDimStyleTableRecord
  2
STANDARD
 70
0
  3

  4

 40
1.0
 41
1.162932796
 42
1.0
 43
0.38
 44
1.0
 45
0.0
 46
0.0
 47
0.01
 48
0.01
140
1.6281059145
141
0.09
142
0.0
143
25.4
144
1.0
145
0.0
146
1.0
147
0.625
 71
1
 72
0
 73
0
 74
0
 75
0
 76
0
 77
1
 78
8
 79
2
170
0
171
1
172
0
173
0
174
0
175
0
176
0
177
0
178
0
270
2
179
2
271
2
272
2
273
2
274
2
275
0
280
0
281
0
282
0
283
1
284
8
285
0
286
0
287
3
288
0
340
11
278
46
341
212
342
212
343
212
344
212
  0
ENDTAB
  0
ENDSEC
  0
SECTION
  2
BLOCKS
  0
BLOCK
  5
20
100
AcDbEntity
  8
0
100
AcDbBlockBegin
  2
*Model_Space
 70
0
 10
0.0
 20
0.0
 30
0.0
  3
*Model_Space
  1

  0
ENDBLK
  5
21
100
AcDbEntity
  8
0
100
AcDbBlockEnd
  0
BLOCK
  5
1C
100
AcDbEntity
  8
0
100
AcDbBlockBegin
  2
*Paper_Space
 70
0
 10
0.0
 20
0.0
 30
0.0
  3
*Paper_Space
  1

  0
ENDBLK
  5
1D
100
AcDbEntity
  8
0
100
AcDbBlockEnd
  0
BLOCK
  5
214
100
AcDbEntity
  8
0
100
AcDbBlockBegin
  2
_FILLED
 70
64
 10
0.0
 20
0.0
  3
_FILLED
  1

  0
SOLID
  5
215
100
AcDbEntity
  8
0
  6
BYBLOCK
 62
0
100
AcDbTrace
 10
0.0
 20
0.0
 11
-1.0
 21
0.25
 12
-1.0
 22
-0.25
 13
-1.0
 23
-0.25
  0
ENDBLK
  5
216
100
AcDbEntity
  8
0
  6
BYBLOCK
 62
0
100
AcDbBlockEnd
  0
ENDSEC
  0
SECTION
  2
ENTITIES
  0
LINE
  5
217
100
AcDbEntity
  8
0
100
AcDbLine
 62
7
  6
BYLAYER
 10
27.703537936
 20
123.7480679923
 11
34.7745763081
 21
127.830509531
  0
LINE
  5
218
100
AcDbEntity
  8
0
100
AcDbLine
 62
7
  6
BYLAYER
 10
27.703537936
 20
33.932802108
 11
68.0087922694
 21
10.6630791003
  0
LINE
  5
219
100
AcDbEntity
  8
0
100
AcDbLine
 62
7
  6
BYLAYER
 10
27.7106089744
 20
36.4835736796
 11
27.0034992492
 21
36.8918144341
  0
LINE
  5
21A
100
AcDbEntity
  8
0
100
AcDbLine
 62
7
  6
BYLAYER
 10
38.3101838132
 20
102.110910749
 11
43.9671104905
 21
105.3769193935
  0
LINE
  5
21B
100
AcDbEntity
  8
0
100
AcDbLine
 62
7
  6
BYLAYER
 10
24.9590831696
 20
39.8799239772
 11
27.0034992492
 21
38.6996065056
  0
LINE
  5
21C
100
AcDbEntity
  8
0
100
AcDbLine
 62
7
  6
BYLAYER
 10
27.7106089744
 20
41.188224425
 11
27.0034992492
 21
41.5964651796
  0
LINE
  5
21D
100
AcDbEntity
  8
0
100
AcDbLine
 62
7
  6
BYLAYER
 10
24.1238956793
 20
42.4550928735
 11
24.1307803483
 21
41.6779164809
  0
LINE
  5
21E
100
AcDbEntity
  8
0
100
AcDbLine
 62
7
  6
BYLAYER
 10
67.3016825442
 20
26.5848657803
 11
43.9670616144
 21
40.0568106795
  0
LINE
  5
21F
100
AcDbEntity
  8
0
100
AcDbLine
 62
7
  6
BYLAYER
 10
28.0570927986
 20
49.2422276562
 11
27.703537936
 21
49.4463480335
  0
LINE
  5
220
100
AcDbEntity
  8
0
100
AcDbLine
 62
7
  6
BYLAYER
 10
27.0034992492
 20
36.8918144341
 11
27.0034992492
 21
41.5964651796
  0
LINE
  5
221
100
AcDbEntity
  8
0
100
AcDbLine
 62
7
  6
BYLAYER
 10
27.703537936
 20
123.7480679923
 11
27.703537936
 21
114.7665414038
  0
LINE
  5
222
100
AcDbEntity
  8
0
100
AcDbLine
 62
7
  6
BYLAYER
 10
27.703537936
 20
49.4463480335
 11
27.703537936
 21
33.932802108
  0
LINE
  5
223
100
AcDbEntity
  8
0
100
AcDbLine
 62
7
  6
BYLAYER
 10
28.0570927986
 20
114.5624210266
 11
28.0570927986
 21
49.2422276562
  0
LINE
  5
224
100
AcDbEntity
  8
0
100
AcDbLine
 62
7
  6
BYLAYER
 10
74.3727209164
 20
30.667307319
 11
51.0380999865
 21
44.1392522182
  0
LINE
  5
225
100
AcDbEntity
  8
0
100
AcDbLine
 62
7
  6
BYLAYER
 10
68.0087922694
 20
100.4783449846
 11
75.0798306415
 21
104.5607865233
  0
LINE
  5
226
100
AcDbEntity
  8
0
100
AcDbLine
 62
7
  6
BYLAYER
 10
38.3101838132
 20
49.8547560527
 11
38.3101838132
 21
102.110910749
  0
LINE
  5
227
100
AcDbEntity
  8
0
100
AcDbLine
 62
7
  6
BYLAYER
 10
67.3016825442
 20
91.9050591507
 11
75.0798306415
 21
96.395762352
  0
LINE
  5
228
100
AcDbEntity
  8
0
100
AcDbLine
 62
7
  6
BYLAYER
 10
45.3812221854
 20
104.560556534
 11
45.3812221854
 21
53.9371975914
  0
LINE
  5
229
100
AcDbEntity
  8
0
100
AcDbLine
 62
7
  6
BYLAYER
 10
68.0087922694
 20
25.3601226087
 11
67.3016825442
 21
26.5848657803
  0
LINE
  5
22A
100
AcDbEntity
  8
0
100
AcDbLine
 62
7
  6
BYLAYER
 10
27.0034992492
 20
41.5964651796
 11
27.703537936
 21
42.467328028
  0
LINE
  5
22B
100
AcDbEntity
  8
0
100
AcDbLine
 62
7
  6
BYLAYER
 10
74.3727209164
 20
30.667307319
 11
75.0798306415
 21
29.4425641474
  0
LINE
  5
22C
100
AcDbEntity
  8
0
100
AcDbLine
 62
7
  6
BYLAYER
 10
27.703537936
 20
49.4463480335
 11
28.0570927986
 21
49.6504718101
  0
LINE
  5
22D
100
AcDbEntity
  8
0
100
AcDbLine
 62
7
  6
BYLAYER
 10
26.9590492355
 20
46.6100548524
 11
26.9877602663
 21
46.6264628036
  0
LINE
  5
22E
100
AcDbEntity
  8
0
100
AcDbLine
 62
7
  6
BYLAYER
 10
26.289289046
 20
46.2312613142
 11
26.9877602663
 21
46.6264628036
  0
LINE
  5
22F
100
AcDbEntity
  8
0
100
AcDbLine
 62
7
  6
BYLAYER
 10
45.3812221854
 20
53.9371975914
 11
38.3101838132
 21
49.8547560527
  0
LINE
  5
230
100
AcDbEntity
  8
0
100
AcDbLine
 62
7
  6
BYLAYER
 10
68.0087922694
 20
10.6630791003
 11
68.0087922694
 21
25.3601226087
  0
LINE
  5
231
100
AcDbEntity
  8
0
100
AcDbLine
 62
7
  6
BYLAYER
 10
68.0087922694
 20
92.3133208133
 11
68.0087922694
 21
100.4783449846
  0
LINE
  5
232
100
AcDbEntity
  8
0
100
AcDbLine
 62
7
  6
BYLAYER
 10
75.0798306415
 20
14.7455206391
 11
75.0798306415
 21
29.4425641474
  0
LINE
  5
233
100
AcDbEntity
  8
0
100
AcDbLine
 62
7
  6
BYLAYER
 10
75.0798306415
 20
96.395762352
 11
75.0798306415
 21
104.5607865233
  0
LINE
  5
234
100
AcDbEntity
  8
0
100
AcDbLine
 62
7
  6
BYLAYER
 10
43.9670616144
 20
40.0568106795
 11
51.0380999865
 21
44.1392522182
  0
LINE
  5
235
100
AcDbEntity
  8
0
100
AcDbLine
 62
7
  6
BYLAYER
 10
27.703537936
 20
114.7665414038
 11
28.0570927986
 21
114.5624210266
  0
LINE
  5
236
100
AcDbEntity
  8
0
100
AcDbLine
 62
7
  6
BYLAYER
 10
43.9670616144
 20
105.3770040499
 11
67.3016825442
 21
91.9050591507
  0
LINE
  5
237
100
AcDbEntity
  8
0
100
AcDbLine
 62
7
  6
BYLAYER
 10
68.0087922694
 20
100.4783449846
 11
27.703537936
 21
123.7480679923
  0
LINE
  5
238
100
AcDbEntity
  8
0
100
AcDbLine
 62
7
  6
BYLAYER
 10
67.3016825442
 20
26.5848657803
 11
74.3727209164
 21
30.667307319
  0
LINE
  5
239
100
AcDbEntity
  8
0
100
AcDbLine
 62
7
  6
BYLAYER
 10
68.0087922694
 20
25.3601226087
 11
75.0798306415
 21
29.4425641474
  0
LINE
  5
23A
100
AcDbEntity
  8
0
100
AcDbLine
 62
7
  6
BYLAYER
 10
75.0798306415
 20
104.5607865233
 11
34.7745763081
 21
127.830509531
  0
LINE
  5
23B
100
AcDbEntity
  8
0
100
AcDbLine
 62
7
  6
BYLAYER
 10
68.0087922694
 20
10.6630791003
 11
75.0798306415
 21
14.7455206391
  0
ARC
  5
23C
100
AcDbEntity
  8
0
100
AcDbCircle
 62
7
  6
BYLAYER
 10
68.4684377747
 20
29.2292662342
 40
0.5464741754
100
AcDbArc
 50
161.2711092522
 51
163.8499380706
  0
SPLINE
  5
23D
100
AcDbEntity
  8
0
100
AcDbSpline
 62
7
  6
BYLAYER
 70
0
 71
3
 72
17
 73
13
 74
0
 42
0.0000001
 43
0.0000001
 44
0.0000000001
 40
0.0
 40
0.0
 40
0.0
 40
0.0
 40
0.042857965
 40
0.0874854797
 40
0.1353180708
 40
0.1872814984
 40
0.3045423159
 40
0.4382097446
 40
0.5825520305
 40
0.7297107839
 40
0.8713099826
 40
1.0
 40
1.0
 40
1.0
 40
1.0
 10
30.2391089787
 20
44.2381522052
 30
0.0
 10
30.2884025186
 20
44.2666380841
 30
0.0
 10
30.3970996135
 20
44.3117922146
 30
0.0
 10
30.5765011617
 20
44.338104853
 30
0.0
 10
30.769170443
 20
44.3239072226
 30
0.0
 10
31.0491204826
 20
44.2494670534
 30
0.0
 10
31.4069939097
 20
44.0537810624
 30
0.0
 10
31.8023850971
 20
43.7036249134
 30
0.0
 10
32.1518949848
 20
43.2562689578
 30
0.0
 10
32.4269734991
 20
42.747850238
 30
0.0
 10
32.6054767816
 20
42.220060223
 30
0.0
 10
32.653306012
 20
41.8605997112
 30
0.0
 10
32.653306012
 20
41.689648249
 30
0.0
  0
SPLINE
  5
23E
100
AcDbEntity
  8
0
100
AcDbSpline
 62
7
  6
BYLAYER
 70
0
 71
3
 72
17
 73
13
 74
0
 42
0.0000001
 43
0.0000001
 44
0.0000000001
 40
0.0
 40
0.0
 40
0.0
 40
0.0
 40
0.042857965
 40
0.0874854797
 40
0.1353180708
 40
0.1872814984
 40
0.3045423159
 40
0.4382097446
 40
0.5825520305
 40
0.7297107839
 40
0.8713099826
 40
1.0
 40
1.0
 40
1.0
 40
1.0
 10
30.2391089787
 20
53.2196787936
 30
0.0
 10
30.2884025186
 20
53.2481646726
 30
0.0
 10
30.3970996135
 20
53.293318803
 30
0.0
 10
30.5765011617
 20
53.3196314414
 30
0.0
 10
30.769170443
 20
53.305433811
 30
0.0
 10
31.0491204826
 20
53.2309936418
 30
0.0
 10
31.4069939097
 20
53.0353076508
 30
0.0
 10
31.8023850971
 20
52.6851515018
 30
0.0
 10
32.1518949848
 20
52.2377955463
 30
0.0
 10
32.4269734991
 20
51.7293768264
 30
0.0
 10
32.6054767816
 20
51.2015868114
 30
0.0
 10
32.653306012
 20
50.8421262996
 30
0.0
 10
32.653306012
 20
50.6711748375
 30
0.0
  0
SPLINE
  5
23F
100
AcDbEntity
  8
0
100
AcDbSpline
 62
7
  6
BYLAYER
 70
0
 71
3
 72
17
 73
13
 74
0
 42
0.0000001
 43
0.0000001
 44
0.0000000001
 40
0.0
 40
0.0
 40
0.0
 40
0.0
 40
0.042857965
 40
0.0874854797
 40
0.1353180708
 40
0.1872814984
 40
0.3045423159
 40
0.4382097446
 40
0.5825520305
 40
0.7297107839
 40
0.8713099826
 40
1.0
 40
1.0
 40
1.0
 40
1.0
 10
30.2391089787
 20
103.8428286556
 30
0.0
 10
30.2884025186
 20
103.8713145346
 30
0.0
 10
30.3970996135
 20
103.916468665
 30
0.0
 10
30.5765011617
 20
103.9427813035
 30
0.0
 10
30.769170443
 20
103.928583673
 30
0.0
 10
31.0491204826
 20
103.8541435039
 30
0.0
 10
31.4069939097
 20
103.6584575129
 30
0.0
 10
31.8023850971
 20
103.3083013639
 30
0.0
 10
32.1518949848
 20
102.8609454083
 30
0.0
 10
32.4269734991
 20
102.3525266884
 30
0.0
 10
32.6054767816
 20
101.8247366734
 30
0.0
 10
32.653306012
 20
101.4652761617
 30
0.0
 10
32.653306012
 20
101.2943246995
 30
0.0
  0
SPLINE
  5
240
100
AcDbEntity
  8
0
100
AcDbSpline
 62
7
  6
BYLAYER
 70
0
 71
3
 72
17
 73
13
 74
0
 42
0.0000001
 43
0.0000001
 44
0.0000000001
 40
0.0
 40
0.0
 40
0.0
 40
0.0
 40
0.042857965
 40
0.0874854797
 40
0.1353180708
 40
0.1872814984
 40
0.3045423159
 40
0.4382097446
 40
0.5825520305
 40
0.7297107839
 40
0.8713099826
 40
1.0
 40
1.0
 40
1.0
 40
1.0
 10
30.2391089787
 20
110.3748479927
 30
0.0
 10
30.2884025186
 20
110.4033338716
 30
0.0
 10
30.3970996135
 20
110.4484880021
 30
0.0
 10
30.5765011617
 20
110.4748006405
 30
0.0
 10
30.769170443
 20
110.4606030101
 30
0.0
 10
31.0491204826
 20
110.3861628409
 30
0.0
 10
31.4069939097
 20
110.1904768499
 30
0.0
 10
31.8023850971
 20
109.8403207009
 30
0.0
 10
32.1518949848
 20
109.3929647453
 30
0.0
 10
32.4269734991
 20
108.8845460255
 30
0.0
 10
32.6054767816
 20
108.3567560105
 30
0.0
 10
32.653306012
 20
107.9972954987
 30
0.0
 10
32.653306012
 20
107.8263440365
 30
0.0
  0
SPLINE
  5
241
100
AcDbEntity
  8
0
100
AcDbSpline
 62
7
  6
BYLAYER
 70
0
 71
3
 72
17
 73
13
 74
0
 42
0.0000001
 43
0.0000001
 44
0.0000000001
 40
0.0
 40
0.0
 40
0.0
 40
0.0
 40
0.042857965
 40
0.0874854797
 40
0.1353180708
 40
0.1872814984
 40
0.3045423159
 40
0.4382097446
 40
0.5825520305
 40
0.7297107839
 40
0.8713099826
 40
1.0
 40
1.0
 40
1.0
 40
1.0
 10
60.64482716
 20
26.6837997608
 30
0.0
 10
60.6941206999
 20
26.7122856398
 30
0.0
 10
60.8028177948
 20
26.7574397702
 30
0.0
 10
60.982219343
 20
26.7837524086
 30
0.0
 10
61.1748886244
 20
26.7695547782
 30
0.0
 10
61.454838664
 20
26.695114609
 30
0.0
 10
61.8127120911
 20
26.499428618
 30
0.0
 10
62.2081032785
 20
26.149272469
 30
0.0
 10
62.5576131661
 20
25.7019165135
 30
0.0
 10
62.8326916804
 20
25.1934977936
 30
0.0
 10
63.0111949629
 20
24.6657077786
 30
0.0
 10
63.0590241934
 20
24.3062472668
 30
0.0
 10
63.0590241934
 20
24.1352958047
 30
0.0
  0
SPLINE
  5
242
100
AcDbEntity
  8
0
100
AcDbSpline
 62
7
  6
BYLAYER
 70
0
 71
3
 72
11
 73
7
 74
0
 42
0.0000001
 43
0.0000001
 44
0.0000000001
 40
0.0
 40
0.0
 40
0.0
 40
0.0
 40
0.2896413964
 40
0.5491107671
 40
0.7822355978
 40
1.0
 40
1.0
 40
1.0
 40
1.0
 10
63.0590241934
 20
24.1352958047
 30
0.0
 10
63.0590241934
 20
24.0339813729
 30
0.0
 10
63.0436243623
 20
23.8412573426
 30
0.0
 10
62.9656216129
 20
23.5764607192
 30
0.0
 10
62.8342262722
 20
23.3615406031
 30
0.0
 10
62.7107343411
 20
23.2578673885
 30
0.0
 10
62.6447823261
 20
23.2197548666
 30
0.0
  0
SPLINE
  5
243
100
AcDbEntity
  8
0
100
AcDbSpline
 62
7
  6
BYLAYER
 70
0
 71
3
 72
11
 73
7
 74
0
 42
0.0000001
 43
0.0000001
 44
0.0000000001
 40
0.0
 40
0.0
 40
0.0
 40
0.0
 40
0.2896413964
 40
0.5491107671
 40
0.7822355978
 40
1.0
 40
1.0
 40
1.0
 40
1.0
 10
32.653306012
 20
107.8263440365
 30
0.0
 10
32.653306012
 20
107.7250296047
 30
0.0
 10
32.6379061809
 20
107.5323055745
 30
0.0
 10
32.5599034316
 20
107.2675089511
 30
0.0
 10
32.4285080909
 20
107.052588835
 30
0.0
 10
32.3050161598
 20
106.9489156204
 30
0.0
 10
32.2390641448
 20
106.9108030985
 30
0.0
  0
SPLINE
  5
244
100
AcDbEntity
  8
0
100
AcDbSpline
 62
7
  6
BYLAYER
 70
0
 71
3
 72
11
 73
7
 74
0
 42
0.0000001
 43
0.0000001
 44
0.0000000001
 40
0.0
 40
0.0
 40
0.0
 40
0.0
 40
0.2896413964
 40
0.5491107671
 40
0.7822355978
 40
1.0
 40
1.0
 40
1.0
 40
1.0
 10
32.653306012
 20
101.2943246995
 30
0.0
 10
32.653306012
 20
101.1930102677
 30
0.0
 10
32.6379061809
 20
101.0002862375
 30
0.0
 10
32.5599034316
 20
100.735489614
 30
0.0
 10
32.4285080909
 20
100.5205694979
 30
0.0
 10
32.3050161598
 20
100.4168962834
 30
0.0
 10
32.2390641448
 20
100.3787837615
 30
0.0
  0
SPLINE
  5
245
100
AcDbEntity
  8
0
100
AcDbSpline
 62
7
  6
BYLAYER
 70
0
 71
3
 72
11
 73
7
 74
0
 42
0.0000001
 43
0.0000001
 44
0.0000000001
 40
0.0
 40
0.0
 40
0.0
 40
0.0
 40
0.2896413964
 40
0.5491107671
 40
0.7822355978
 40
1.0
 40
1.0
 40
1.0
 40
1.0
 10
32.653306012
 20
50.6711748375
 30
0.0
 10
32.653306012
 20
50.5698604057
 30
0.0
 10
32.6379061809
 20
50.3771363754
 30
0.0
 10
32.5599034316
 20
50.112339752
 30
0.0
 10
32.4285080909
 20
49.8974196359
 30
0.0
 10
32.3050161598
 20
49.7937464213
 30
0.0
 10
32.2390641448
 20
49.7556338994
 30
0.0
  0
SPLINE
  5
246
100
AcDbEntity
  8
0
100
AcDbSpline
 62
7
  6
BYLAYER
 70
0
 71
3
 72
11
 73
7
 74
0
 42
0.0000001
 43
0.0000001
 44
0.0000000001
 40
0.0
 40
0.0
 40
0.0
 40
0.0
 40
0.2896413964
 40
0.5491107671
 40
0.7822355978
 40
1.0
 40
1.0
 40
1.0
 40
1.0
 10
32.653306012
 20
41.689648249
 30
0.0
 10
32.653306012
 20
41.5883338172
 30
0.0
 10
32.6379061809
 20
41.395609787
 30
0.0
 10
32.5599034316
 20
41.1308131636
 30
0.0
 10
32.4285080909
 20
40.9158930475
 30
0.0
 10
32.3050161598
 20
40.8122198329
 30
0.0
 10
32.2390641448
 20
40.774107311
 30
0.0
  0
SPLINE
  5
247
100
AcDbEntity
  8
0
100
AcDbSpline
 62
7
  6
BYLAYER
 70
0
 71
3
 72
15
 73
11
 74
0
 42
0.0000001
 43
0.0000001
 44
0.0000000001
 40
0.0
 40
0.0
 40
0.0
 40
0.0
 40
0.1141555516
 40
0.2373276756
 40
0.3669773296
 40
0.5000011
 40
0.6330247168
 40
0.7626739247
 40
0.885845342
 40
1.0
 40
1.0
 40
1.0
 40
1.0
 10
45.3812221854
 20
53.9371975914
 30
0.0
 10
45.3812221854
 20
53.490028992
 30
0.0
 10
45.4631274763
 20
52.5595038657
 30
0.0
 10
45.7896412743
 20
51.1557056718
 30
0.0
 10
46.3126975409
 20
49.7337706814
 30
0.0
 10
47.0127486203
 20
48.3471682023
 30
0.0
 10
47.8635612968
 20
47.0476104544
 30
0.0
 10
48.8334678894
 20
45.8836719745
 30
0.0
 10
49.8859363374
 20
44.8990157663
 30
0.0
 10
50.6508414612
 20
44.362830974
 30
0.0
 10
51.0380999865
 20
44.1392522182
 30
0.0
  0
SPLINE
  5
248
100
AcDbEntity
  8
0
100
AcDbSpline
 62
7
  6
BYLAYER
 70
0
 71
3
 72
9
 73
5
 74
0
 42
0.0000001
 43
0.0000001
 44
0.0000000001
 40
0.0
 40
0.0
 40
0.0
 40
0.0
 40
0.2476483489
 40
1.0
 40
1.0
 40
1.0
 40
1.0
 10
70.92291674
 20
29.4425679502
 30
0.0
 10
70.922917276
 20
29.4286871467
 30
0.0
 10
70.9206142576
 20
29.372650993
 30
0.0
 10
70.9088205261
 20
29.3170802353
 30
0.0
 10
70.8953478026
 20
29.2771206866
 30
0.0
  0
SPLINE
  5
249
100
AcDbEntity
  8
0
100
AcDbSpline
 62
7
  6
BYLAYER
 70
0
 71
3
 72
10
 73
6
 74
0
 42
0.0000001
 43
0.0000001
 44
0.0000000001
 40
0.0
 40
0.0
 40
0.0
 40
0.0
 40
0.4577331607
 40
0.7180771425
 40
1.0
 40
1.0
 40
1.0
 40
1.0
 10
70.8953478026
 20
29.2771206866
 30
0.0
 10
70.8652044276
 20
29.1877166651
 30
0.0
 10
70.7809970593
 20
29.0592008251
 30
0.0
 10
70.6275149802
 20
28.9214122688
 30
0.0
 10
70.5339720922
 20
28.8592620354
 30
0.0
 10
70.4836468677
 20
28.8302069269
 30
0.0
  0
SPLINE
  5
24A
100
AcDbEntity
  8
0
100
AcDbSpline
 62
7
  6
BYLAYER
 70
0
 71
3
 72
14
 73
10
 74
0
 42
0.0000001
 43
0.0000001
 44
0.0000000001
 40
0.0
 40
0.0
 40
0.0
 40
0.0
 40
0.1080471438
 40
0.2181317193
 40
0.3321125724
 40
0.4515014986
 40
0.5774450424
 40
0.710727948
 40
1.0
 40
1.0
 40
1.0
 40
1.0
 10
39.9670863507
 20
105.7731864541
 30
0.0
 10
40.0982466466
 20
105.8489114342
 30
0.0
 10
40.3767443694
 20
105.9792664767
 30
0.0
 10
40.8273203598
 20
106.1039540573
 30
0.0
 10
41.3076754313
 20
106.1574248199
 30
0.0
 10
41.8126137646
 20
106.1399612162
 30
0.0
 10
42.3374035525
 20
106.0519031975
 30
0.0
 10
43.0767661839
 20
105.8363425086
 30
0.0
 10
43.6159078074
 20
105.5797382084
 30
0.0
 10
43.9670616144
 20
105.3770040499
 30
0.0
  0
SPLINE
  5
24B
100
AcDbEntity
  8
0
100
AcDbSpline
 62
7
  6
BYLAYER
 70
0
 71
3
 72
12
 73
8
 74
0
 42
0.0000001
 43
0.0000001
 44
0.0000000001
 40
0.0
 40
0.0
 40
0.0
 40
0.0
 40
0.1084612168
 40
0.2189109193
 40
0.4521570533
 40
0.7110024287
 40
1.0
 40
1.0
 40
1.0
 40
1.0
 10
24.9590908635
 20
39.8799373019
 30
0.0
 10
24.8943675533
 20
39.9173196986
 30
0.0
 10
24.7698732525
 20
40.0040070697
 30
0.0
 10
24.5461133293
 20
40.2225880122
 30
0.0
 10
24.323453906
 20
40.5808115619
 30
0.0
 10
24.1660469305
 20
41.100190837
 30
0.0
 10
24.1325654539
 20
41.4787840013
 30
0.0
 10
24.1308056675
 20
41.6779313956
 30
0.0
  0
SPLINE
  5
24C
100
AcDbEntity
  8
0
100
AcDbSpline
 62
7
  6
BYLAYER
 70
0
 71
3
 72
9
 73
5
 74
0
 42
0.0000001
 43
0.0000001
 44
0.0000000001
 40
0.0
 40
0.0
 40
0.0
 40
0.0
 40
0.2636791446
 40
1.0
 40
1.0
 40
1.0
 40
1.0
 10
26.9877602528
 20
46.6264612768
 30
0.0
 10
27.0488293099
 20
46.6609972519
 30
0.0
 10
27.2840321364
 20
46.785284375
 30
0.0
 10
27.5346410079
 20
46.8821383828
 30
0.0
 10
27.7245852149
 20
46.9301402116
 30
0.0
  0
SPLINE
  5
24D
100
AcDbEntity
  8
0
100
AcDbSpline
 62
7
  6
BYLAYER
 70
0
 71
3
 72
16
 73
12
 74
0
 42
0.0000001
 43
0.0000001
 44
0.0000000001
 40
0.0
 40
0.0
 40
0.0
 40
0.0
 40
0.1243241994
 40
0.2606516178
 40
0.4030900968
 40
0.5450296033
 40
0.6798222494
 40
0.8019699786
 40
0.8572926732
 40
0.908579197
 40
1.0
 40
1.0
 40
1.0
 40
1.0
 10
70.4836468677
 20
28.8302069269
 30
0.0
 10
70.3829028832
 20
28.7720427075
 30
0.0
 10
70.1566424093
 20
28.6756190866
 30
0.0
 10
69.7872525312
 20
28.5920239431
 30
0.0
 10
69.3928261406
 20
28.5666324397
 30
0.0
 10
69.0005291556
 20
28.6010644004
 30
0.0
 10
68.6371046181
 20
28.6931010869
 30
0.0
 10
68.3696697336
 20
28.8167007125
 30
0.0
 10
68.1946471996
 20
28.9411328267
 30
0.0
 10
68.0596300966
 20
29.0683174964
 30
0.0
 10
67.984555331
 20
29.1837176197
 30
0.0
 10
67.955211649
 20
29.2640687746
 30
0.0
  0
SPLINE
  5
24E
100
AcDbEntity
  8
0
100
AcDbSpline
 62
7
  6
BYLAYER
 70
0
 71
3
 72
9
 73
5
 74
0
 42
0.0000001
 43
0.0000001
 44
0.0000000001
 40
0.0
 40
0.0
 40
0.0
 40
0.0
 40
0.254997018
 40
1.0
 40
1.0
 40
1.0
 40
1.0
 10
67.955211649
 20
29.2640687746
 30
0.0
 10
67.9499079561
 20
29.2785917595
 30
0.0
 10
67.9314406012
 20
29.3363650868
 30
0.0
 10
67.9230495642
 20
29.3973967335
 30
0.0
 10
67.92304782
 20
29.4425681672
 30
0.0
  0
SPLINE
  5
24F
100
AcDbEntity
  8
0
100
AcDbSpline
 62
7
  6
BYLAYER
 70
0
 71
3
 72
15
 73
11
 74
0
 42
0.0000001
 43
0.0000001
 44
0.0000000001
 40
0.0
 40
0.0
 40
0.0
 40
0.0
 40
0.1137565461
 40
0.2366908076
 40
0.3662602942
 40
0.499341655
 40
0.6325223697
 40
0.7623436528
 40
0.8857498883
 40
1.0
 40
1.0
 40
1.0
 40
1.0
 10
24.1239084417
 20
42.4551003987
 30
0.0
 10
24.1223840229
 20
42.6266356064
 30
0.0
 10
24.1512350796
 20
42.9841658623
 30
0.0
 10
24.2737433498
 20
43.5242275762
 30
0.0
 10
24.4726492478
 20
44.0721241927
 30
0.0
 10
24.7404611697
 20
44.6070125114
 30
0.0
 10
25.0670714468
 20
45.1086092201
 30
0.0
 10
25.4400691653
 20
45.5581311491
 30
0.0
 10
25.8453580491
 20
45.9381841325
 30
0.0
 10
26.1400845407
 20
46.1451185671
 30
0.0
 10
26.289289046
 20
46.2312613142
 30
0.0
  0
SPLINE
  5
250
100
AcDbEntity
  8
0
100
AcDbSpline
 62
7
  6
BYLAYER
 70
0
 71
3
 72
14
 73
10
 74
0
 42
0.0000001
 43
0.0000001
 44
0.0000000001
 40
0.0
 40
0.0
 40
0.0
 40
0.0
 40
0.111771988
 40
0.2316935287
 40
0.3579613386
 40
0.4883294215
 40
0.7509548523
 40
0.8783773506
 40
1.0
 40
1.0
 40
1.0
 40
1.0
 10
24.1308056675
 20
41.6779313956
 30
0.0
 10
24.1290887201
 20
41.8722308884
 30
0.0
 10
24.1568706749
 20
42.2756100376
 30
0.0
 10
24.2783966601
 20
42.8872712881
 30
0.0
 10
24.477794641
 20
43.512233622
 30
0.0
 10
24.8403137662
 20
44.3401292735
 30
0.0
 10
25.3249766619
 20
45.1127324776
 30
0.0
 10
25.9077155513
 20
45.7863080793
 30
0.0
 10
26.2262378313
 20
46.0813818326
 30
0.0
 10
26.390202736
 20
46.2148691907
 30
0.0
  0
SPLINE
  5
251
100
AcDbEntity
  8
0
100
AcDbSpline
 62
7
  6
BYLAYER
 70
0
 71
3
 72
9
 73
5
 74
0
 42
0.0000001
 43
0.0000001
 44
0.0000000001
 40
0.0
 40
0.0
 40
0.0
 40
0.0
 40
0.2586413368
 40
1.0
 40
1.0
 40
1.0
 40
1.0
 10
26.390202736
 20
46.2148691907
 30
0.0
 10
26.4365389241
 20
46.2525924787
 30
0.0
 10
26.6183109726
 20
46.3951629714
 30
0.0
 10
26.8107287226
 20
46.5244224755
 30
0.0
 10
26.9590492355
 20
46.6100548524
 30
0.0
  0
SPLINE
  5
252
100
AcDbEntity
  8
0
100
AcDbSpline
 62
7
  6
BYLAYER
 70
0
 71
3
 72
17
 73
13
 74
0
 42
0.0000001
 43
0.0000001
 44
0.0000000001
 40
0.0
 40
0.0
 40
0.0
 40
0.0
 40
0.042857965
 40
0.0874854797
 40
0.1353180708
 40
0.1872814984
 40
0.3045423159
 40
0.4382097446
 40
0.5825520305
 40
0.7297107839
 40
0.8713099826
 40
1.0
 40
1.0
 40
1.0
 40
1.0
 10
62.6447823261
 20
23.2197548666
 30
0.0
 10
62.5954887862
 20
23.1912689877
 30
0.0
 10
62.4867916913
 20
23.1461148572
 30
0.0
 10
62.3073901431
 20
23.1198022188
 30
0.0
 10
62.1147208618
 20
23.1339998492
 30
0.0
 10
61.8347708222
 20
23.2084400184
 30
0.0
 10
61.4768973951
 20
23.4041260094
 30
0.0
 10
61.0815062077
 20
23.7542821584
 30
0.0
 10
60.73199632
 20
24.2016381139
 30
0.0
 10
60.4569178057
 20
24.7100568338
 30
0.0
 10
60.2784145232
 20
25.2378468488
 30
0.0
 10
60.2305852928
 20
25.5973073606
 30
0.0
 10
60.2305852928
 20
25.7682588227
 30
0.0
  0
SPLINE
  5
253
100
AcDbEntity
  8
0
100
AcDbSpline
 62
7
  6
BYLAYER
 70
0
 71
3
 72
11
 73
7
 74
0
 42
0.0000001
 43
0.0000001
 44
0.0000000001
 40
0.0
 40
0.0
 40
0.0
 40
0.0
 40
0.2896413964
 40
0.5491107671
 40
0.7822355978
 40
1.0
 40
1.0
 40
1.0
 40
1.0
 10
29.8248671114
 20
52.3041378555
 30
0.0
 10
29.8248671114
 20
52.4054522873
 30
0.0
 10
29.8402669426
 20
52.5981763176
 30
0.0
 10
29.9182696919
 20
52.862972941
 30
0.0
 10
30.0496650326
 20
53.0778930571
 30
0.0
 10
30.1731569637
 20
53.1815662717
 30
0.0
 10
30.2391089787
 20
53.2196787936
 30
0.0
  0
SPLINE
  5
254
100
AcDbEntity
  8
0
100
AcDbSpline
 62
7
  6
BYLAYER
 70
0
 71
3
 72
17
 73
13
 74
0
 42
0.0000001
 43
0.0000001
 44
0.0000000001
 40
0.0
 40
0.0
 40
0.0
 40
0.0
 40
0.042857965
 40
0.0874854797
 40
0.1353180708
 40
0.1872814984
 40
0.3045423159
 40
0.4382097446
 40
0.5825520305
 40
0.7297107839
 40
0.8713099826
 40
1.0
 40
1.0
 40
1.0
 40
1.0
 10
32.2390641448
 20
40.774107311
 30
0.0
 10
32.1897706049
 20
40.745621432
 30
0.0
 10
32.08107351
 20
40.7004673016
 30
0.0
 10
31.9016719618
 20
40.6741546631
 30
0.0
 10
31.7090026805
 20
40.6883522936
 30
0.0
 10
31.4290526408
 20
40.7627924627
 30
0.0
 10
31.0711792138
 20
40.9584784538
 30
0.0
 10
30.6757880264
 20
41.3086346028
 30
0.0
 10
30.3262781387
 20
41.7559905583
 30
0.0
 10
30.0511996244
 20
42.2644092782
 30
0.0
 10
29.8726963419
 20
42.7921992932
 30
0.0
 10
29.8248671114
 20
43.151659805
 30
0.0
 10
29.8248671114
 20
43.3226112671
 30
0.0
  0
SPLINE
  5
255
100
AcDbEntity
  8
0
100
AcDbSpline
 62
7
  6
BYLAYER
 70
0
 71
3
 72
11
 73
7
 74
0
 42
0.0000001
 43
0.0000001
 44
0.0000000001
 40
0.0
 40
0.0
 40
0.0
 40
0.0
 40
0.2896413964
 40
0.5491107671
 40
0.7822355978
 40
1.0
 40
1.0
 40
1.0
 40
1.0
 10
29.8248671114
 20
43.3226112671
 30
0.0
 10
29.8248671114
 20
43.4239256989
 30
0.0
 10
29.8402669426
 20
43.6166497292
 30
0.0
 10
29.9182696919
 20
43.8814463526
 30
0.0
 10
30.0496650326
 20
44.0963664687
 30
0.0
 10
30.1731569637
 20
44.2000396833
 30
0.0
 10
30.2391089787
 20
44.2381522052
 30
0.0
  0
SPLINE
  5
256
100
AcDbEntity
  8
0
100
AcDbSpline
 62
7
  6
BYLAYER
 70
0
 71
3
 72
11
 73
7
 74
0
 42
0.0000001
 43
0.0000001
 44
0.0000000001
 40
0.0
 40
0.0
 40
0.0
 40
0.0
 40
0.2177227832
 40
0.4508712161
 40
0.7104668615
 40
1.0
 40
1.0
 40
1.0
 40
1.0
 10
67.92304782
 20
29.4425681672
 30
0.0
 10
67.9230456146
 20
29.4996836835
 30
0.0
 10
67.9440495411
 20
29.6187680463
 30
0.0
 10
68.0343728685
 20
29.7847350524
 30
0.0
 10
68.1771706241
 20
29.9346418808
 30
0.0
 10
68.2965398251
 20
30.0169525479
 30
0.0
 10
68.3623176923
 20
30.0549291905
 30
0.0
  0
SPLINE
  5
257
100
AcDbEntity
  8
0
100
AcDbSpline
 62
7
  6
BYLAYER
 70
0
 71
3
 72
9
 73
5
 74
0
 42
0.0000001
 43
0.0000001
 44
0.0000000001
 40
0.0
 40
0.0
 40
0.0
 40
0.0
 40
0.247084756
 40
1.0
 40
1.0
 40
1.0
 40
1.0
 10
70.918704306
 20
29.303478777
 30
0.0
 10
70.9174535709
 20
29.3131047289
 30
0.0
 10
70.9112830875
 20
29.3519135905
 30
0.0
 10
70.9006442001
 20
29.3899890045
 30
0.0
 10
70.8904540932
 20
29.4177570067
 30
0.0
  0
SPLINE
  5
258
100
AcDbEntity
  8
0
100
AcDbSpline
 62
7
  6
BYLAYER
 70
0
 71
3
 72
16
 73
12
 74
0
 42
0.0000001
 43
0.0000001
 44
0.0000000001
 40
0.0
 40
0.0
 40
0.0
 40
0.0
 40
0.0914459504
 40
0.1427480935
 40
0.1980831459
 40
0.3202451591
 40
0.4550355734
 40
0.5969637231
 40
0.7393857253
 40
0.8756967582
 40
1.0
 40
1.0
 40
1.0
 40
1.0
 10
70.8904540932
 20
29.4177570067
 30
0.0
 10
70.8609852404
 20
29.4980595174
 30
0.0
 10
70.7857790358
 20
29.6133563691
 30
0.0
 10
70.650652526
 20
29.7404138277
 30
0.0
 10
70.4755691571
 20
29.8647118128
 30
0.0
 10
70.2081390617
 20
29.9881511163
 30
0.0
 10
69.8447982516
 20
30.0800437362
 30
0.0
 10
69.4526430774
 20
30.1143714048
 30
0.0
 10
69.0583838953
 20
30.0889308713
 30
0.0
 10
68.6891665206
 20
30.0053307285
 30
0.0
 10
68.4630138757
 20
29.9089402078
 30
0.0
 10
68.3623176923
 20
29.8508035862
 30
0.0
  0
SPLINE
  5
259
100
AcDbEntity
  8
0
100
AcDbSpline
 62
7
  6
BYLAYER
 70
0
 71
3
 72
17
 73
13
 74
0
 42
0.0000001
 43
0.0000001
 44
0.0000000001
 40
0.0
 40
0.0
 40
0.0
 40
0.0
 40
0.042857965
 40
0.0874854797
 40
0.1353180708
 40
0.1872814984
 40
0.3045423159
 40
0.4382097446
 40
0.5825520305
 40
0.7297107839
 40
0.8713099826
 40
1.0
 40
1.0
 40
1.0
 40
1.0
 10
32.2390641448
 20
49.7556338994
 30
0.0
 10
32.1897706049
 20
49.7271480205
 30
0.0
 10
32.08107351
 20
49.68199389
 30
0.0
 10
31.9016719618
 20
49.6556812516
 30
0.0
 10
31.7090026805
 20
49.669878882
 30
0.0
 10
31.4290526408
 20
49.7443190512
 30
0.0
 10
31.0711792138
 20
49.9400050422
 30
0.0
 10
30.6757880264
 20
50.2901611912
 30
0.0
 10
30.3262781387
 20
50.7375171467
 30
0.0
 10
30.0511996244
 20
51.2459358666
 30
0.0
 10
29.8726963419
 20
51.7737258816
 30
0.0
 10
29.8248671114
 20
52.1331863934
 30
0.0
 10
29.8248671114
 20
52.3041378555
 30
0.0
  0
SPLINE
  5
25A
100
AcDbEntity
  8
0
100
AcDbSpline
 62
7
  6
BYLAYER
 70
0
 71
3
 72
10
 73
6
 74
0
 42
0.0000001
 43
0.0000001
 44
0.0000000001
 40
0.0
 40
0.0
 40
0.0
 40
0.0
 40
0.2818829202
 40
0.5422179254
 40
1.0
 40
1.0
 40
1.0
 40
1.0
 10
68.3623176923
 20
29.8508035862
 30
0.0
 10
68.3120707961
 20
29.8217937003
 30
0.0
 10
68.218663522
 20
29.7597481106
 30
0.0
 10
68.0653499582
 20
29.6222095985
 30
0.0
 10
67.9811452952
 20
29.4939732895
 30
0.0
 10
67.9509002311
 20
29.4047339385
 30
0.0
  0
SPLINE
  5
25B
100
AcDbEntity
  8
0
100
AcDbSpline
 62
7
  6
BYLAYER
 70
0
 71
3
 72
17
 73
13
 74
0
 42
0.0000001
 43
0.0000001
 44
0.0000000001
 40
0.0
 40
0.0
 40
0.0
 40
0.0
 40
0.042857965
 40
0.0874854797
 40
0.1353180708
 40
0.1872814984
 40
0.3045423159
 40
0.4382097446
 40
0.5825520305
 40
0.7297107839
 40
0.8713099826
 40
1.0
 40
1.0
 40
1.0
 40
1.0
 10
32.2390641448
 20
100.3787837615
 30
0.0
 10
32.1897706049
 20
100.3502978825
 30
0.0
 10
32.08107351
 20
100.3051437521
 30
0.0
 10
31.9016719618
 20
100.2788311136
 30
0.0
 10
31.7090026805
 20
100.293028744
 30
0.0
 10
31.4290526408
 20
100.3674689132
 30
0.0
 10
31.0711792138
 20
100.5631549042
 30
0.0
 10
30.6757880264
 20
100.9133110532
 30
0.0
 10
30.3262781387
 20
101.3606670088
 30
0.0
 10
30.0511996244
 20
101.8690857287
 30
0.0
 10
29.8726963419
 20
102.3968757436
 30
0.0
 10
29.8248671114
 20
102.7563362554
 30
0.0
 10
29.8248671114
 20
102.9272877176
 30
0.0
  0
SPLINE
  5
25C
100
AcDbEntity
  8
0
100
AcDbSpline
 62
7
  6
BYLAYER
 70
0
 71
3
 72
14
 73
10
 74
0
 42
0.0000001
 43
0.0000001
 44
0.0000000001
 40
0.0
 40
0.0
 40
0.0
 40
0.0
 40
0.2892730352
 40
0.4225562199
 40
0.5484998506
 40
0.6678886669
 40
0.7818692291
 40
0.8919533702
 40
1.0
 40
1.0
 40
1.0
 40
1.0
 10
38.3101838132
 20
102.110910749
 30
0.0
 10
38.3101838132
 20
102.5163981861
 30
0.0
 10
38.3575245366
 20
103.1116289082
 30
0.0
 10
38.5405239072
 20
103.8597395105
 30
0.0
 10
38.7266598173
 20
104.3582648813
 30
0.0
 10
38.9640087154
 20
104.8042990434
 30
0.0
 10
39.2504989964
 20
105.1935738556
 30
0.0
 10
39.5837772315
 20
105.5214480517
 30
0.0
 10
39.8359231652
 20
105.6974598057
 30
0.0
 10
39.9670863507
 20
105.7731864541
 30
0.0
  0
SPLINE
  5
25D
100
AcDbEntity
  8
0
100
AcDbSpline
 62
7
  6
BYLAYER
 70
0
 71
3
 72
15
 73
11
 74
0
 42
0.0000001
 43
0.0000001
 44
0.0000000001
 40
0.0
 40
0.0
 40
0.0
 40
0.0
 40
0.1141546703
 40
0.2373261017
 40
0.3669753162
 40
0.4999989361
 40
0.6330227034
 40
0.7626723508
 40
0.8858444607
 40
1.0
 40
1.0
 40
1.0
 40
1.0
 10
43.9670616144
 20
40.0568106795
 30
0.0
 10
43.5798030474
 20
40.2803894594
 30
0.0
 10
42.8148978482
 20
40.8165743261
 30
0.0
 10
41.7624293181
 20
41.8012306367
 30
0.0
 10
40.7925227043
 20
42.965169221
 30
0.0
 10
39.9417100471
 20
44.2647270118
 30
0.0
 10
39.2416590146
 20
45.6513294862
 30
0.0
 10
38.7186028278
 20
47.073264406
 30
0.0
 10
38.3920890773
 20
48.4770624776
 30
0.0
 10
38.3101838132
 20
49.4075875015
 30
0.0
 10
38.3101838132
 20
49.8547560527
 30
0.0
  0
SPLINE
  5
25E
100
AcDbEntity
  8
0
100
AcDbSpline
 62
7
  6
BYLAYER
 70
0
 71
3
 72
17
 73
13
 74
0
 42
0.0000001
 43
0.0000001
 44
0.0000000001
 40
0.0
 40
0.0
 40
0.0
 40
0.0
 40
0.042857965
 40
0.0874854797
 40
0.1353180708
 40
0.1872814984
 40
0.3045423159
 40
0.4382097446
 40
0.5825520305
 40
0.7297107839
 40
0.8713099826
 40
1.0
 40
1.0
 40
1.0
 40
1.0
 10
32.2390641448
 20
106.9108030985
 30
0.0
 10
32.1897706049
 20
106.8823172195
 30
0.0
 10
32.08107351
 20
106.8371630891
 30
0.0
 10
31.9016719618
 20
106.8108504506
 30
0.0
 10
31.7090026805
 20
106.8250480811
 30
0.0
 10
31.4290526408
 20
106.8994882502
 30
0.0
 10
31.0711792138
 20
107.0951742413
 30
0.0
 10
30.6757880264
 20
107.4453303903
 30
0.0
 10
30.3262781387
 20
107.8926863458
 30
0.0
 10
30.0511996244
 20
108.4011050657
 30
0.0
 10
29.8726963419
 20
108.9288950807
 30
0.0
 10
29.8248671114
 20
109.2883555925
 30
0.0
 10
29.8248671114
 20
109.4593070546
 30
0.0
  0
SPLINE
  5
25F
100
AcDbEntity
  8
0
100
AcDbSpline
 62
7
  6
BYLAYER
 70
0
 71
3
 72
11
 73
7
 74
0
 42
0.0000001
 43
0.0000001
 44
0.0000000001
 40
0.0
 40
0.0
 40
0.0
 40
0.0
 40
0.2896413964
 40
0.5491107671
 40
0.7822355978
 40
1.0
 40
1.0
 40
1.0
 40
1.0
 10
60.2305852928
 20
25.7682588227
 30
0.0
 10
60.2305852928
 20
25.8695732545
 30
0.0
 10
60.2459851239
 20
26.0622972848
 30
0.0
 10
60.3239878732
 20
26.3270939082
 30
0.0
 10
60.4553832139
 20
26.5420140243
 30
0.0
 10
60.578875145
 20
26.6456872389
 30
0.0
 10
60.64482716
 20
26.6837997608
 30
0.0
  0
SPLINE
  5
260
100
AcDbEntity
  8
0
100
AcDbSpline
 62
7
  6
BYLAYER
 70
0
 71
3
 72
11
 73
7
 74
0
 42
0.0000001
 43
0.0000001
 44
0.0000000001
 40
0.0
 40
0.0
 40
0.0
 40
0.0
 40
0.2896413964
 40
0.5491107671
 40
0.7822355978
 40
1.0
 40
1.0
 40
1.0
 40
1.0
 10
29.8248671114
 20
109.4593070546
 30
0.0
 10
29.8248671114
 20
109.5606214864
 30
0.0
 10
29.8402669426
 20
109.7533455167
 30
0.0
 10
29.9182696919
 20
110.0181421401
 30
0.0
 10
30.0496650326
 20
110.2330622562
 30
0.0
 10
30.1731569637
 20
110.3367354708
 30
0.0
 10
30.2391089787
 20
110.3748479927
 30
0.0
  0
SPLINE
  5
261
100
AcDbEntity
  8
0
100
AcDbSpline
 62
7
  6
BYLAYER
 70
0
 71
3
 72
17
 73
13
 74
0
 42
0.0000001
 43
0.0000001
 44
0.0000000001
 40
0.0
 40
0.0
 40
0.0
 40
0.0
 40
0.1286842356
 40
0.2703031337
 40
0.4174437425
 40
0.5617827569
 40
0.69545054
 40
0.8127145007
 40
0.8646808868
 40
0.9125101646
 40
0.957139951
 40
1.0
 40
1.0
 40
1.0
 40
1.0
 10
68.3623176923
 20
30.0549291905
 30
0.0
 10
68.4733481919
 20
30.1190322967
 30
0.0
 10
68.7247786972
 20
30.222747214
 30
0.0
 10
69.1345126777
 20
30.3047603959
 30
0.0
 10
69.5678925469
 20
30.3167122306
 30
0.0
 10
69.9894972728
 20
30.2574813391
 30
0.0
 10
70.3652159867
 20
30.1319856635
 30
0.0
 10
70.626480558
 20
29.9728891067
 30
0.0
 10
70.7798986655
 20
29.8190419731
 30
0.0
 10
70.8612934801
 20
29.6991785246
 30
0.0
 10
70.9115816899
 20
29.5728200257
 30
0.0
 10
70.9229150912
 20
29.4852689782
 30
0.0
 10
70.92291674
 20
29.4425679502
 30
0.0
  0
SPLINE
  5
262
100
AcDbEntity
  8
0
100
AcDbSpline
 62
7
  6
BYLAYER
 70
0
 71
3
 72
11
 73
7
 74
0
 42
0.0000001
 43
0.0000001
 44
0.0000000001
 40
0.0
 40
0.0
 40
0.0
 40
0.0
 40
0.2896413964
 40
0.5491107671
 40
0.7822355978
 40
1.0
 40
1.0
 40
1.0
 40
1.0
 10
29.8248671114
 20
102.9272877176
 30
0.0
 10
29.8248671114
 20
103.0286021494
 30
0.0
 10
29.8402669426
 20
103.2213261796
 30
0.0
 10
29.9182696919
 20
103.486122803
 30
0.0
 10
30.0496650326
 20
103.7010429192
 30
0.0
 10
30.1731569637
 20
103.8047161337
 30
0.0
 10
30.2391089787
 20
103.8428286556
 30
0.0
  0
ENDSEC
  0
SECTION
  2
OBJECTS
  0
DICTIONARY
  5
C
100
AcDbDictionary
280
0
281
1
  3
ACAD_GROUP
350
D
  3
ACAD_MLINESTYLE
350
17
  3
ACAD_LAYOUT
350
1A
  3
ACAD_PLOTSETTINGS
350
19
  3
ACAD_PLOTSTYLENAME
350
E
  0
DICTIONARY
  5
D
102
{ACAD_REACTORS
330
C
102
}
100
AcDbDictionary
280
0
281
1
  0
ACDBDICTIONARYWDFLT
  5
E
102
{ACAD_REACTORS
330
C
102
}
100
AcDbDictionary
281
1
  3
Normal
350
F
100
AcDbDictionaryWithDefault
340
F
  0
DICTIONARY
  5
17
102
{ACAD_REACTORS
330
C
102
}
100
AcDbDictionary
280
0
281
1
  3
Standard
350
18
  0
DICTIONARY
  5
19
102
{ACAD_REACTORS
330
C
102
}
100
AcDbDictionary
281
1
  0
DICTIONARY
  5
1A
102
{ACAD_REACTORS
330
C
102
}
100
AcDbDictionary
281
1
  3
Model
350
263
  3
Layout1
350
264
  0
ACDBPLACEHOLDER
  5
F
102
{ACAD_REACTORS
330
E
102
}
  0
MLINESTYLE
  5
18
102
{ACAD_REACTORS
330
17
102
}
100
AcDbMlineStyle
  2
STANDARD
 70
0
  3

 62
256
 51
90.0
 52
90.0
 71
2
 49
0.5
 62
256
  6
BYLAYER
 49
-0.5
 62
256
  6
BYLAYER
  0
LAYOUT
  5
263
102
{ACAD_REACTORS
330
1A
102
}
100
AcDbPlotSettings
  1

  2
none_device
  4

  6

 40
0.0
 41
0.0
 42
0.0
 43
0.0
 44
210.0
 45
297.0
 46
0.0
 47
0.0
 48
0.0
 49
0.0
140
0.0
141
0.0
142
1.0
143
1.0
 70
1024
 72
1
 73
0
 74
0
  7

 75
0
147
1.0
148
0.0
149
0.0
100
AcDbLayout
  1
Model
 70
0
 71
0
 10
0.0
 20
0.0
 11
210.0
 21
297.0
 12
0.0
 22
0.0
 32
0.0
 14
0.0
 24
0.0
 34
0.0
 15
0.0
 25
0.0
 35
0.0
146
0.0
 13
0.0
 23
0.0
 33
0.0
 16
1.0
 26
0.0
 36
0.0
 17
0.0
 27
1.0
 37
0.0
 76
0
330
210
345
0
346
0
  0
LAYOUT
  5
264
102
{ACAD_REACTORS
330
1A
102
}
100
AcDbPlotSettings
  1

  2
none_device
  4

  6

 40
0.0
 41
0.0
 42
0.0
 43
0.0
 44
210.0
 45
297.0
 46
0.0
 47
0.0
 48
0.0
 49
0.0
140
0.0
141
0.0
142
1.0
143
1.0
 70
0
 72
1
 73
0
 74
0
  7

 75
0
147
1.0
148
0.0
149
0.0
100
AcDbLayout
  1
Layout1
 70
0
 71
1
 10
0.0
 20
0.0
 11
210.0
 21
297.0
 12
0.0
 22
0.0
 32
0.0
 14
0.0
 24
0.0
 34
0.0
 15
0.0
 25
0.0
 35
0.0
146
0.0
 13
0.0
 23
0.0
 33
0.0
 16
1.0
 26
0.0
 36
0.0
 17
0.0
 27
1.0
 37
0.0
 76
0
330
211
345
0
346
0
  0
ENDSEC
  0
EOF
