999
DXF file: C:\Users\sesa63760\Dev\_Creo\CAD\MCADID0004138_3D-CAD\drw0001_3.dxf
999
Pro/ENGINEER 2019471 by Parametric Technology Corporation
  0
SECTION
  2
HEADER
  9
$ACADVER
  1
AC1024
  9
$DWGCODEPAGE
  3
ANSI_1252
  9
$EXTMAX
 10
63.289790942
 20
89.5098471893
 30
0.0
  9
$EXTMIN
 10
0.0
 20
0.0
 30
0.0
  9
$LIMMIN
 10
0.0
 20
0.0
  9
$LIMMAX
 10
63.289790942
 20
89.5098471893
  9
$VIEWCTR
 10
31.644895471
 20
44.7549235947
  9
$VIEWSIZE
 40
89.5098471893
  9
$CLAYER
  8
0
  9
$LTSCALE
 40
5.8347159649
  9
$CELTYPE
  6
BYLAYER
  9
$DIMSCALE
 40
1.0
  9
$DIMASZ
 40
0.7534498922
  9
$DIMEXO
 40
1.0
  9
$DIMDLI
 40
4.031258303
  9
$DIMEXE
 40
1.0
  9
$DIMCEN
 40
0.9547717034
  9
$DIMLFAC
 40
1.0
  9
$DIMBLK
  1
_FILLED
  9
$DIMALT
 70
0
  9
$DIMALTF
 40
0.0393700787
  9
$DIMTXT
 40
1.054829849
  9
$DIMTOL
 70
1
  9
$DIMLIM
 70
0
  9
$DIMTFAC
 40
1.0
  9
$DIMTP
 40
0.01
  9
$DIMTM
 40
0.01
  9
$DIMGAP
 40
0.625
  9
$DIMDSEP
 70
46
  9
$AUNITS
 70
0
  9
$PDMODE
 70
3
  9
$PDSIZE
 40
0.3125
  9
$HANDSEED
  5
2B5
  9
$TILEMODE
 70
1
  9
$MEASUREMENT
 70
1
  9
$INSUNITS
 70
4
  0
ENDSEC
  0
SECTION
  2
CLASSES
  0
CLASS
  1
ACDBDICTIONARYWDFLT
  2
AcDbDictionaryWithDefault
  3
AutoCAD 2000
 90
0
 91
1
280
0
281
0
  0
CLASS
  1
ACDBPLACEHOLDER
  2
AcDbPlaceHolder
  3
AutoCAD 2000
 90
0
 91
1
280
0
281
0
  0
CLASS
  1
LAYOUT
  2
AcDbLayout
  3
AutoCAD 2000
 90
0
 91
0
280
0
281
0
  0
ENDSEC
  0
SECTION
  2
TABLES
  0
TABLE
  2
VPORT
  5
8
100
AcDbSymbolTable
 70
2
  0
VPORT
  5
1F4
100
AcDbSymbolTableRecord
100
AcDbViewportTableRecord
  2
*ACTIVE
 70
0
 10
0.0
 20
0.0
 11
1.0
 21
1.0
 12
31.644895471
 22
44.7549235947
 13
0.0
 23
0.0
 14
1.0
 24
1.0
 15
0.0
 25
0.0
 16
0.0
 26
0.0
 36
1.0
 17
0.0
 27
0.0
 37
0.0
 40
89.5098471893
 41
0.7070707071
 42
50.0
 43
0.0
 44
0.0
 50
0.0
 51
0.0
 71
0
 72
100
 73
1
 74
1
 75
0
 76
0
 77
0
 78
0
  0
ENDTAB
  0
TABLE
  2
LTYPE
  5
5
100
AcDbSymbolTable
 70
6
  0
LTYPE
  5
14
100
AcDbSymbolTableRecord
100
AcDbLinetypeTableRecord
  2
BYBLOCK
 70
0
  3

 72
65
 73
0
 40
0.0
  0
LTYPE
  5
15
100
AcDbSymbolTableRecord
100
AcDbLinetypeTableRecord
  2
BYLAYER
 70
0
  3

 72
65
 73
0
 40
0.0
  0
LTYPE
  5
16
100
AcDbSymbolTableRecord
100
AcDbLinetypeTableRecord
  2
CONTINUOUS
 70
64
  3
Solid line
 72
65
 73
0
 40
0.0
  0
LTYPE
  5
1F5
100
AcDbSymbolTableRecord
100
AcDbLinetypeTableRecord
  2
CENTER
 70
64
  3
____ _ ____ _ ____ _ ____ _ ____ _ ____ _ ____
 72
65
 73
4
 40
0.6
 49
0.375
 74
0
 49
-0.075
 74
0
 49
0.075
 74
0
 49
-0.075
 74
0
  0
LTYPE
  5
1F6
100
AcDbSymbolTableRecord
100
AcDbLinetypeTableRecord
  2
HIDDEN
 70
64
  3
- - - - - - - - - - - - - - - - - - - -
 72
65
 73
2
 40
0.2
 49
0.1
 74
0
 49
-0.1
 74
0
  0
LTYPE
  5
1F7
100
AcDbSymbolTableRecord
100
AcDbLinetypeTableRecord
  2
PHANTOM
 70
64
  3
_____ _ _ _____ _ _ _____ _ _ _____
 72
65
 73
6
 40
0.8
 49
0.45
 74
0
 49
-0.05
 74
0
 49
0.1
 74
0
 49
-0.05
 74
0
 49
0.1
 74
0
 49
-0.05
 74
0
  0
LTYPE
  5
1F8
100
AcDbSymbolTableRecord
100
AcDbLinetypeTableRecord
  2
DOT
 70
64
  3
. . . . . . . . . . . . . . . . . . . .
 72
65
 73
2
 40
0.2
 49
0.1
 74
0
 49
-0.1
 74
0
  0
LTYPE
  5
1F9
100
AcDbSymbolTableRecord
100
AcDbLinetypeTableRecord
  2
DASHED
 70
64
  3
- - - - - - - - - - - - - - - - - - - -
 72
65
 73
2
 40
0.2
 49
0.1
 74
0
 49
-0.1
 74
0
  0
ENDTAB
  0
TABLE
  2
LAYER
  5
2
100
AcDbSymbolTable
 70
36
  0
LAYER
  5
10
100
AcDbSymbolTableRecord
100
AcDbLayerTableRecord
  2
0
 70
0
 62
7
  6
CONTINUOUS
370
-3
390
F
  0
LAYER
  5
1FA
100
AcDbSymbolTableRecord
100
AcDbLayerTableRecord
  2
DEFAULT_1
 70
0
 62
7
  6
CENTER
370
-3
390
F
  0
LAYER
  5
1FB
100
AcDbSymbolTableRecord
100
AcDbLayerTableRecord
  2
DEFAULT_2
 70
0
 62
7
  6
HIDDEN
370
-3
390
F
  0
LAYER
  5
1FC
100
AcDbSymbolTableRecord
100
AcDbLayerTableRecord
  2
DEFAULT_3
 70
0
 62
7
  6
PHANTOM
370
-3
390
F
  0
LAYER
  5
1FD
100
AcDbSymbolTableRecord
100
AcDbLayerTableRecord
  2
00_COMPONENTS
 70
0
 62
7
  6
CONTINUOUS
370
-3
390
F
  0
LAYER
  5
1FE
100
AcDbSymbolTableRecord
100
AcDbLayerTableRecord
  2
01_1_DEFAULT_DATUMS
 70
0
 62
7
  6
CONTINUOUS
370
-3
390
F
  0
LAYER
  5
1FF
100
AcDbSymbolTableRecord
100
AcDbLayerTableRecord
  2
01_PLANES
 70
0
 62
7
  6
CONTINUOUS
370
-3
390
F
  0
LAYER
  5
200
100
AcDbSymbolTableRecord
100
AcDbLayerTableRecord
  2
02_COORD_SYS
 70
0
 62
7
  6
CONTINUOUS
370
-3
390
F
  0
LAYER
  5
201
100
AcDbSymbolTableRecord
100
AcDbLayerTableRecord
  2
03_AXES
 70
0
 62
7
  6
CONTINUOUS
370
-3
390
F
  0
LAYER
  5
202
100
AcDbSymbolTableRecord
100
AcDbLayerTableRecord
  2
04_POINTS
 70
0
 62
7
  6
CONTINUOUS
370
-3
390
F
  0
LAYER
  5
203
100
AcDbSymbolTableRecord
100
AcDbLayerTableRecord
  2
05_CURVES
 70
0
 62
7
  6
CONTINUOUS
370
-3
390
F
  0
LAYER
  5
204
100
AcDbSymbolTableRecord
100
AcDbLayerTableRecord
  2
06_SURFS
 70
0
 62
7
  6
CONTINUOUS
370
-3
390
F
  0
LAYER
  5
205
100
AcDbSymbolTableRecord
100
AcDbLayerTableRecord
  2
07_COSMETICS
 70
0
 62
7
  6
CONTINUOUS
370
-3
390
F
  0
LAYER
  5
206
100
AcDbSymbolTableRecord
100
AcDbLayerTableRecord
  2
10_NOTES
 70
0
 62
7
  6
CONTINUOUS
370
-3
390
F
  0
LAYER
  5
207
100
AcDbSymbolTableRecord
100
AcDbLayerTableRecord
  2
11_NOTES_PUB
 70
0
 62
7
  6
CONTINUOUS
370
-3
390
F
  0
LAYER
  5
208
100
AcDbSymbolTableRecord
100
AcDbLayerTableRecord
  2
13_REF_GTOL
 70
0
 62
7
  6
CONTINUOUS
370
-3
390
F
  0
LAYER
  5
209
100
AcDbSymbolTableRecord
100
AcDbLayerTableRecord
  2
16_MISC
 70
0
 62
7
  6
CONTINUOUS
370
-3
390
F
  0
LAYER
  5
20A
100
AcDbSymbolTableRecord
100
AcDbLayerTableRecord
  2
17_NO_PRINT
 70
0
 62
7
  6
CONTINUOUS
370
-3
390
F
  0
LAYER
  5
20B
100
AcDbSymbolTableRecord
100
AcDbLayerTableRecord
  2
18_DATUM_CAMS_JOINTS
 70
0
 62
7
  6
CONTINUOUS
370
-3
390
F
  0
LAYER
  5
20C
100
AcDbSymbolTableRecord
100
AcDbLayerTableRecord
  2
19_DATUM_FUNCTIONAL
 70
0
 62
7
  6
CONTINUOUS
370
-3
390
F
  0
LAYER
  5
20D
100
AcDbSymbolTableRecord
100
AcDbLayerTableRecord
  2
20_DATUM_KINEMATIC_SCHEME
 70
0
 62
7
  6
CONTINUOUS
370
-3
390
F
  0
ENDTAB
  0
TABLE
  2
STYLE
  5
3
100
AcDbSymbolTable
 70
1
  0
STYLE
  5
11
100
AcDbSymbolTableRecord
100
AcDbTextStyleTableRecord
  2
STANDARD
 70
0
 40
0.0
 41
1.0
 50
0.0
 71
0
 42
0.2
  3
ARIAL.TTF
  4

  0
STYLE
  5
20E
100
AcDbSymbolTableRecord
100
AcDbTextStyleTableRecord
  2
TEXTSTYLE_1
 70
0
 40
0.0
 41
0.8
 50
0.0
 71
0
 42
0.2
  3
gdt
  4

  0
ENDTAB
  0
TABLE
  2
VIEW
  5
6
100
AcDbSymbolTable
 70
0
  0
ENDTAB
  0
TABLE
  2
UCS
  5
7
100
AcDbSymbolTable
 70
0
  0
ENDTAB
  0
TABLE
  2
APPID
  5
9
100
AcDbSymbolTable
 70
1
  0
APPID
  5
20F
100
AcDbSymbolTableRecord
100
AcDbRegAppTableRecord
  2
ACAD
 70
0
  0
ENDTAB
  0
TABLE
  2
BLOCK_RECORD
  5
1
100
AcDbSymbolTable
 70
0
  0
BLOCK_RECORD
  5
210
100
AcDbSymbolTableRecord
100
AcDbBlockTableRecord
  2
*Model_Space
  0
BLOCK_RECORD
  5
211
100
AcDbSymbolTableRecord
100
AcDbBlockTableRecord
  2
*Paper_Space
  0
BLOCK_RECORD
  5
212
100
AcDbSymbolTableRecord
100
AcDbBlockTableRecord
  2
_FILLED
  0
ENDTAB
  0
TABLE
  2
DIMSTYLE
  5
A
100
AcDbSymbolTable
 70
1
100
AcDbDimStyleTable
 71
0
  0
DIMSTYLE
105
213
100
AcDbSymbolTableRecord
100
AcDbDimStyleTableRecord
  2
STANDARD
 70
0
  3

  4

 40
1.0
 41
0.7534498922
 42
1.0
 43
0.38
 44
1.0
 45
0.0
 46
0.0
 47
0.01
 48
0.01
140
1.054829849
141
0.09
142
0.0
143
25.4
144
1.0
145
0.0
146
1.0
147
0.625
 71
1
 72
0
 73
0
 74
0
 75
0
 76
0
 77
1
 78
8
 79
2
170
0
171
1
172
0
173
0
174
0
175
0
176
0
177
0
178
0
270
2
179
2
271
2
272
2
273
2
274
2
275
0
280
0
281
0
282
0
283
1
284
8
285
0
286
0
287
3
288
0
340
11
278
46
341
212
342
212
343
212
344
212
  0
ENDTAB
  0
ENDSEC
  0
SECTION
  2
BLOCKS
  0
BLOCK
  5
20
100
AcDbEntity
  8
0
100
AcDbBlockBegin
  2
*Model_Space
 70
0
 10
0.0
 20
0.0
 30
0.0
  3
*Model_Space
  1

  0
ENDBLK
  5
21
100
AcDbEntity
  8
0
100
AcDbBlockEnd
  0
BLOCK
  5
1C
100
AcDbEntity
  8
0
100
AcDbBlockBegin
  2
*Paper_Space
 70
0
 10
0.0
 20
0.0
 30
0.0
  3
*Paper_Space
  1

  0
ENDBLK
  5
1D
100
AcDbEntity
  8
0
100
AcDbBlockEnd
  0
BLOCK
  5
214
100
AcDbEntity
  8
0
100
AcDbBlockBegin
  2
_FILLED
 70
64
 10
0.0
 20
0.0
  3
_FILLED
  1

  0
SOLID
  5
215
100
AcDbEntity
  8
0
  6
BYBLOCK
 62
0
100
AcDbTrace
 10
0.0
 20
0.0
 11
-1.0
 21
0.25
 12
-1.0
 22
-0.25
 13
-1.0
 23
-0.25
  0
ENDBLK
  5
216
100
AcDbEntity
  8
0
  6
BYBLOCK
 62
0
100
AcDbBlockEnd
  0
ENDSEC
  0
SECTION
  2
ENTITIES
  0
LINE
  5
217
100
AcDbEntity
  8
0
100
AcDbLine
 62
7
  6
BYLAYER
 10
10.3825663253
 20
16.6019092609
 11
9.6816143407
 21
17.307667803
  0
LINE
  5
218
100
AcDbEntity
  8
0
100
AcDbLine
 62
7
  6
BYLAYER
 10
20.494391709
 20
12.4998280427
 11
10.8688369722
 21
12.4998280427
  0
LINE
  5
219
100
AcDbEntity
  8
0
100
AcDbLine
 62
7
  6
BYLAYER
 10
10.6922715695
 20
12.6118098801
 11
10.5316143406
 21
12.9528870577
  0
LINE
  5
21A
100
AcDbEntity
  8
0
100
AcDbLine
 62
7
  6
BYLAYER
 10
20.6709571118
 20
12.6118098801
 11
10.6922715695
 21
12.6118098801
  0
LINE
  5
21B
100
AcDbEntity
  8
0
100
AcDbLine
 62
7
  6
BYLAYER
 10
20.8316143406
 20
12.9528870581
 11
10.5316143406
 21
12.9528870579
  0
LINE
  5
21C
100
AcDbEntity
  8
0
100
AcDbLine
 62
7
  6
BYLAYER
 10
20.9257373789
 20
14.6981587699
 11
10.4374913023
 21
14.6981587699
  0
LINE
  5
21D
100
AcDbEntity
  8
0
100
AcDbLine
 62
7
  6
BYLAYER
 10
21.0816143406
 20
14.8540076761
 11
10.2816143406
 21
14.8540076758
  0
LINE
  5
21E
100
AcDbEntity
  8
0
100
AcDbLine
 62
7
  6
BYLAYER
 10
25.3456756994
 20
76.7068344964
 11
26.0285184113
 21
77.3896772084
  0
LINE
  5
21F
100
AcDbEntity
  8
0
100
AcDbLine
 62
7
  6
BYLAYER
 10
26.1699397678
 20
77.3000196613
 11
25.4870966508
 21
76.6171766659
  0
LINE
  5
220
100
AcDbEntity
  8
0
100
AcDbLine
 62
7
  6
BYLAYER
 10
10.2816143406
 20
15.3975771741
 11
21.0816143406
 21
15.3975771741
  0
LINE
  5
221
100
AcDbEntity
  8
0
100
AcDbLine
 62
7
  6
BYLAYER
 10
20.9806623559
 20
15.4977087247
 11
10.3825663253
 21
15.4977087247
  0
LINE
  5
222
100
AcDbEntity
  8
0
100
AcDbLine
 62
7
  6
BYLAYER
 10
10.3825663253
 20
16.6019092609
 11
20.9806623559
 21
16.6019092609
  0
LINE
  5
223
100
AcDbEntity
  8
0
100
AcDbLine
 62
7
  6
BYLAYER
 10
21.6816143406
 20
17.3076678029
 11
9.6816143406
 21
17.3076678029
  0
LINE
  5
224
100
AcDbEntity
  8
0
100
AcDbLine
 62
7
  6
BYLAYER
 10
20.9806623561
 20
15.4977087249
 11
21.0816143406
 21
15.397577174
  0
LINE
  5
225
100
AcDbEntity
  8
0
100
AcDbLine
 62
7
  6
BYLAYER
 10
7.487097055
 20
44.2484947663
 11
7.487097055
 21
73.4484947664
  0
LINE
  5
226
100
AcDbEntity
  8
0
100
AcDbLine
 62
7
  6
BYLAYER
 10
8.2870970558
 20
44.2484947663
 11
8.2870970558
 21
73.4484947664
  0
LINE
  5
227
100
AcDbEntity
  8
0
100
AcDbLine
 62
7
  6
BYLAYER
 10
9.1816143406
 20
23.4994947664
 11
9.1816143406
 21
26.4994947664
  0
LINE
  5
228
100
AcDbEntity
  8
0
100
AcDbLine
 62
7
  6
BYLAYER
 10
9.2870167962
 20
76.2482558527
 11
9.2870167962
 21
41.3310985642
  0
LINE
  5
229
100
AcDbEntity
  8
0
100
AcDbLine
 62
7
  6
BYLAYER
 10
9.4870167955
 20
41.3310985658
 11
9.4870167969
 21
76.4482558527
  0
LINE
  5
22A
100
AcDbEntity
  8
0
100
AcDbLine
 62
7
  6
BYLAYER
 10
9.6816143406
 20
23.0252159567
 11
9.6816143406
 21
17.3076678031
  0
LINE
  5
22B
100
AcDbEntity
  8
0
100
AcDbLine
 62
7
  6
BYLAYER
 10
10.2816143406
 20
15.397577174
 11
10.2816143406
 21
14.8540076758
  0
LINE
  5
22C
100
AcDbEntity
  8
0
100
AcDbLine
 62
7
  6
BYLAYER
 10
10.3825663253
 20
16.6019092609
 11
10.3825663253
 21
15.4977087251
  0
LINE
  5
22D
100
AcDbEntity
  8
0
100
AcDbLine
 62
7
  6
BYLAYER
 10
10.5316143406
 20
14.6981587699
 11
10.5316143406
 21
12.9528870579
  0
LINE
  5
22E
100
AcDbEntity
  8
0
100
AcDbLine
 62
7
  6
BYLAYER
 10
10.9370970561
 20
72.4482558519
 11
10.9370970561
 21
70.4482558519
  0
LINE
  5
22F
100
AcDbEntity
  8
0
100
AcDbLine
 62
7
  6
BYLAYER
 10
10.4184277763
 20
39.8340021605
 11
9.1816146329
 21
26.4994979176
  0
LINE
  5
230
100
AcDbEntity
  8
0
100
AcDbLine
 62
7
  6
BYLAYER
 10
9.6816143406
 20
23.0252159567
 11
21.6816143406
 21
23.0252159567
  0
LINE
  5
231
100
AcDbEntity
  8
0
100
AcDbLine
 62
7
  6
BYLAYER
 10
11.1370970556
 20
70.4482558527
 11
11.1370970556
 21
72.4482558527
  0
LINE
  5
232
100
AcDbEntity
  8
0
100
AcDbLine
 62
7
  6
BYLAYER
 10
22.1816143406
 20
23.4994947664
 11
9.1816143406
 21
23.4994947664
  0
LINE
  5
233
100
AcDbEntity
  8
0
100
AcDbLine
 62
7
  6
BYLAYER
 10
21.7321362753
 20
28.5202936614
 11
10.4184277764
 21
39.8340021605
  0
LINE
  5
234
100
AcDbEntity
  8
0
100
AcDbLine
 62
7
  6
BYLAYER
 10
9.34559544
 20
41.1896772089
 11
22.2284381519
 21
28.306834497
  0
LINE
  5
235
100
AcDbEntity
  8
0
100
AcDbLine
 62
7
  6
BYLAYER
 10
9.4870167955
 20
41.3310985658
 11
22.3698595095
 21
28.4482558519
  0
LINE
  5
236
100
AcDbEntity
  8
0
100
AcDbLine
 62
7
  6
BYLAYER
 10
15.4370970556
 20
72.4482558527
 11
15.4370970556
 21
70.4482558527
  0
LINE
  5
237
100
AcDbEntity
  8
0
100
AcDbLine
 62
7
  6
BYLAYER
 10
15.6370970554
 20
70.4482558518
 11
15.6370970554
 21
72.4482558538
  0
LINE
  5
238
100
AcDbEntity
  8
0
100
AcDbLine
 62
7
  6
BYLAYER
 10
22.0268168235
 20
76.5964920436
 11
22.2153264805
 21
77.3000196614
  0
LINE
  5
239
100
AcDbEntity
  8
0
100
AcDbLine
 62
7
  6
BYLAYER
 10
22.4085116461
 20
77.3000196613
 11
22.1802822212
 21
76.4482558519
  0
LINE
  5
23A
100
AcDbEntity
  8
0
100
AcDbLine
 62
7
  6
BYLAYER
 10
27.5870167962
 20
26.4482558526
 11
48.5870167962
 21
26.4482558526
  0
LINE
  5
23B
100
AcDbEntity
  8
0
100
AcDbLine
 62
7
  6
BYLAYER
 10
9.1816143406
 20
26.4994947664
 11
22.1816143406
 21
26.4994947664
  0
LINE
  5
23C
100
AcDbEntity
  8
0
100
AcDbLine
 62
7
  6
BYLAYER
 10
27.5870167962
 20
27.2480823721
 11
48.5870167962
 21
27.2480823721
  0
LINE
  5
23D
100
AcDbEntity
  8
0
100
AcDbLine
 62
7
  6
BYLAYER
 10
22.3698595094
 20
28.2482558527
 11
56.163335616
 21
28.2482558527
  0
LINE
  5
23E
100
AcDbEntity
  8
0
100
AcDbLine
 62
7
  6
BYLAYER
 10
56.163335616
 20
28.4482558519
 11
22.3698595095
 21
28.4482558519
  0
LINE
  5
23F
100
AcDbEntity
  8
0
100
AcDbLine
 62
7
  6
BYLAYER
 10
17.2870970557
 20
44.5619643517
 11
17.2870970557
 21
68.3482558542
  0
LINE
  5
240
100
AcDbEntity
  8
0
100
AcDbLine
 62
7
  6
BYLAYER
 10
16.1985871415
 20
34.0538427955
 11
15.6816143406
 21
26.4994947664
  0
LINE
  5
241
100
AcDbEntity
  8
0
100
AcDbLine
 62
7
  6
BYLAYER
 10
9.34559544
 20
41.1896772089
 11
9.4870167962
 21
41.3310985651
  0
LINE
  5
242
100
AcDbEntity
  8
0
100
AcDbLine
 62
7
  6
BYLAYER
 10
56.3632652418
 20
28.4429506744
 11
56.1633356165
 21
28.448255853
  0
LINE
  5
243
100
AcDbEntity
  8
0
100
AcDbLine
 62
7
  6
BYLAYER
 10
21.7321362752
 20
28.5202936614
 11
22.1816143406
 21
26.4994947664
  0
LINE
  5
244
100
AcDbEntity
  8
0
100
AcDbLine
 62
7
  6
BYLAYER
 10
20.8316143406
 20
14.6981587699
 11
20.8316143406
 21
12.9528870581
  0
LINE
  5
245
100
AcDbEntity
  8
0
100
AcDbLine
 62
7
  6
BYLAYER
 10
20.9806623559
 20
16.6019092609
 11
20.9806623559
 21
15.4977087251
  0
LINE
  5
246
100
AcDbEntity
  8
0
100
AcDbLine
 62
7
  6
BYLAYER
 10
21.0816143406
 20
15.397577174
 11
21.0816143406
 21
14.8540076761
  0
LINE
  5
247
100
AcDbEntity
  8
0
100
AcDbLine
 62
7
  6
BYLAYER
 10
21.6816143406
 20
23.0252159567
 11
21.6816143406
 21
17.3076678031
  0
LINE
  5
248
100
AcDbEntity
  8
0
100
AcDbLine
 62
7
  6
BYLAYER
 10
10.4184277764
 20
39.8340021605
 11
10.5598491324
 21
39.9754235164
  0
LINE
  5
249
100
AcDbEntity
  8
0
100
AcDbLine
 62
7
  6
BYLAYER
 10
25.6008055548
 20
36.2482558526
 11
17.2870970557
 21
44.5619643517
  0
LINE
  5
24A
100
AcDbEntity
  8
0
100
AcDbLine
 62
7
  6
BYLAYER
 10
22.1816143406
 20
23.4994947664
 11
22.1816143406
 21
26.4994947664
  0
LINE
  5
24B
100
AcDbEntity
  8
0
100
AcDbLine
 62
7
  6
BYLAYER
 10
22.3698595089
 20
28.2482558527
 11
22.3698595089
 21
28.4482558527
  0
LINE
  5
24C
100
AcDbEntity
  8
0
100
AcDbLine
 62
7
  6
BYLAYER
 10
22.4085116458
 20
77.3000196613
 11
22.4085116455
 21
77.4467639088
  0
LINE
  5
24D
100
AcDbEntity
  8
0
100
AcDbLine
 62
7
  6
BYLAYER
 10
23.8042543427
 20
77.4482558527
 11
23.8042543427
 21
77.3000196613
  0
LINE
  5
24E
100
AcDbEntity
  8
0
100
AcDbLine
 62
7
  6
BYLAYER
 10
52.271165953
 20
76.3785072809
 11
52.1370236031
 21
76.2482696984
  0
LINE
  5
24F
100
AcDbEntity
  8
0
100
AcDbLine
 62
7
  6
BYLAYER
 10
43.2870970557
 20
36.2482558526
 11
25.6008055548
 21
36.2482558526
  0
LINE
  5
250
100
AcDbEntity
  8
0
100
AcDbLine
 62
7
  6
BYLAYER
 10
24.7699397681
 20
76.5000196501
 11
24.7699397681
 21
76.6482558527
  0
LINE
  5
251
100
AcDbEntity
  8
0
100
AcDbLine
 62
7
  6
BYLAYER
 10
25.2042543023
 20
76.6482558527
 11
25.2042543023
 21
76.5000196501
  0
LINE
  5
252
100
AcDbEntity
  8
0
100
AcDbLine
 62
7
  6
BYLAYER
 10
26.1699397684
 20
77.3000196613
 11
26.1699397684
 21
77.4478239463
  0
LINE
  5
253
100
AcDbEntity
  8
0
100
AcDbLine
 62
7
  6
BYLAYER
 10
27.5656824661
 20
77.4482558527
 11
27.5656824655
 21
77.3000196613
  0
LINE
  5
254
100
AcDbEntity
  8
0
100
AcDbLine
 62
7
  6
BYLAYER
 10
27.5870167962
 20
26.4482558522
 11
27.5870167962
 21
28.2482558527
  0
LINE
  5
255
100
AcDbEntity
  8
0
100
AcDbLine
 62
7
  6
BYLAYER
 10
9.4870167955
 20
41.3310985656
 11
9.2870167962
 21
41.3310985656
  0
LINE
  5
256
100
AcDbEntity
  8
0
100
AcDbLine
 62
7
  6
BYLAYER
 10
57.4290465164
 20
71.0764029077
 11
57.2909380648
 21
70.9422040451
  0
LINE
  5
257
100
AcDbEntity
  8
0
100
AcDbLine
 62
7
  6
BYLAYER
 10
9.2870167962
 20
44.2484947663
 11
7.4870970557
 21
44.2484947663
  0
LINE
  5
258
100
AcDbEntity
  8
0
100
AcDbLine
 62
7
  6
BYLAYER
 10
20.6709571118
 20
12.6118098801
 11
20.8316143406
 21
12.9528870577
  0
LINE
  5
259
100
AcDbEntity
  8
0
100
AcDbLine
 62
7
  6
BYLAYER
 10
21.7321362753
 20
28.5202936614
 11
21.8735576314
 21
28.6617150175
  0
LINE
  5
25A
100
AcDbEntity
  8
0
100
AcDbLine
 62
7
  6
BYLAYER
 10
22.369859509
 20
28.4482558523
 11
22.2296905182
 21
28.3080868615
  0
LINE
  5
25B
100
AcDbEntity
  8
0
100
AcDbLine
 62
7
  6
BYLAYER
 10
10.3825663251
 20
15.4977087249
 11
10.2816143406
 21
15.397577174
  0
LINE
  5
25C
100
AcDbEntity
  8
0
100
AcDbLine
 62
7
  6
BYLAYER
 10
27.7939118903
 20
76.4482558519
 11
27.5656824655
 21
77.3000196613
  0
LINE
  5
25D
100
AcDbEntity
  8
0
100
AcDbLine
 62
7
  6
BYLAYER
 10
27.7588676308
 20
77.3000196616
 11
27.9473772879
 21
76.5964920437
  0
LINE
  5
25E
100
AcDbEntity
  8
0
100
AcDbLine
 62
7
  6
BYLAYER
 10
43.2870970557
 20
65.2482558527
 11
43.2870970557
 21
36.2482558526
  0
LINE
  5
25F
100
AcDbEntity
  8
0
100
AcDbLine
 62
7
  6
BYLAYER
 10
20.9806623559
 20
16.6019092609
 11
21.6816143405
 21
17.307667803
  0
LINE
  5
260
100
AcDbEntity
  8
0
100
AcDbLine
 62
7
  6
BYLAYER
 10
48.5870167962
 20
28.2482558527
 11
48.5870167962
 21
26.4482558522
  0
LINE
  5
261
100
AcDbEntity
  8
0
100
AcDbLine
 62
7
  6
BYLAYER
 10
24.4870970551
 20
76.6171769483
 11
23.804254344
 21
77.3000196613
  0
LINE
  5
262
100
AcDbEntity
  8
0
100
AcDbLine
 62
7
  6
BYLAYER
 10
23.9456756999
 20
77.3896772084
 11
24.6285184119
 21
76.7068344964
  0
LINE
  5
263
100
AcDbEntity
  8
0
100
AcDbLine
 62
7
  6
BYLAYER
 10
52.1370070816
 20
76.4482558527
 11
52.1370070816
 21
76.2482558527
  0
LINE
  5
264
100
AcDbEntity
  8
0
100
AcDbLine
 62
7
  6
BYLAYER
 10
40.1870970542
 20
68.3482558542
 11
43.2870970557
 21
65.2482558527
  0
LINE
  5
265
100
AcDbEntity
  8
0
100
AcDbLine
 62
7
  6
BYLAYER
 10
56.1633356155
 20
28.4482558527
 11
56.1633356155
 21
28.2482558527
  0
LINE
  5
266
100
AcDbEntity
  8
0
100
AcDbLine
 62
7
  6
BYLAYER
 10
56.163335616
 20
28.4482558519
 11
57.2909219784
 21
70.9421917666
  0
LINE
  5
267
100
AcDbEntity
  8
0
100
AcDbLine
 62
7
  6
BYLAYER
 10
56.3632652418
 20
28.4429506737
 11
57.5556360469
 21
73.3783367973
  0
LINE
  5
268
100
AcDbEntity
  8
0
100
AcDbLine
 62
7
  6
BYLAYER
 10
57.4282981116
 20
71.0759619231
 11
57.5053550681
 21
73.5164908231
  0
LINE
  5
269
100
AcDbEntity
  8
0
100
AcDbLine
 62
7
  6
BYLAYER
 10
17.2870970557
 20
68.3482558542
 11
40.1870970542
 21
68.3482558542
  0
LWPOLYLINE
  5
26A
100
AcDbEntity
  8
0
100
AcDbPolyline
 62
7
  6
BYLAYER
 90
3
 70
0
 10
57.5052258128
 20
73.4821981728
 10
57.5051378505
 20
73.5098791633
 10
57.5051907698
 20
73.5166693987
  0
LINE
  5
26B
100
AcDbEntity
  8
0
100
AcDbLine
 62
7
  6
BYLAYER
 10
15.6370970556
 20
70.4482558536
 11
15.4370970556
 21
70.4482558536
  0
LINE
  5
26C
100
AcDbEntity
  8
0
100
AcDbLine
 62
7
  6
BYLAYER
 10
11.1370970556
 20
70.4482558527
 11
10.9370970556
 21
70.4482558527
  0
LINE
  5
26D
100
AcDbEntity
  8
0
100
AcDbLine
 62
7
  6
BYLAYER
 10
10.9370970556
 20
72.4482558536
 11
11.1370970556
 21
72.4482558536
  0
LINE
  5
26E
100
AcDbEntity
  8
0
100
AcDbLine
 62
7
  6
BYLAYER
 10
15.4370970556
 20
72.4482558536
 11
15.6370970556
 21
72.4482558536
  0
LINE
  5
26F
100
AcDbEntity
  8
0
100
AcDbLine
 62
7
  6
BYLAYER
 10
57.4908516754
 20
70.936889273
 11
57.29092205
 21
70.9421944516
  0
LINE
  5
270
100
AcDbEntity
  8
0
100
AcDbLine
 62
7
  6
BYLAYER
 10
7.4870970557
 20
73.4484947664
 11
9.2870167962
 21
73.4484947664
  0
LINE
  5
271
100
AcDbEntity
  8
0
100
AcDbLine
 62
7
  6
BYLAYER
 10
9.2870167962
 20
76.2482558527
 11
21.9016155901
 21
76.2482558527
  0
LINE
  5
272
100
AcDbEntity
  8
0
100
AcDbLine
 62
7
  6
BYLAYER
 10
28.0725785124
 20
76.2482558527
 11
52.1370070757
 21
76.2482558527
  0
LINE
  5
273
100
AcDbEntity
  8
0
100
AcDbLine
 62
7
  6
BYLAYER
 10
54.9988181594
 20
76.3791179255
 11
52.2717942595
 21
76.3791179255
  0
LINE
  5
274
100
AcDbEntity
  8
0
100
AcDbLine
 62
7
  6
BYLAYER
 10
27.7939118894
 20
76.4482558519
 11
22.1802822205
 21
76.4482558519
  0
LINE
  5
275
100
AcDbEntity
  8
0
100
AcDbLine
 62
7
  6
BYLAYER
 10
21.8349540776
 20
76.4482558527
 11
9.4870167955
 21
76.4482558527
  0
LINE
  5
276
100
AcDbEntity
  8
0
100
AcDbLine
 62
7
  6
BYLAYER
 10
28.1392400286
 20
76.4482558527
 11
54.847372583
 21
76.4482558527
  0
LINE
  5
277
100
AcDbEntity
  8
0
100
AcDbLine
 62
7
  6
BYLAYER
 10
25.2042546167
 20
76.5000196609
 11
24.7699399537
 21
76.5000196393
  0
LINE
  5
278
100
AcDbEntity
  8
0
100
AcDbLine
 62
7
  6
BYLAYER
 10
25.2042543438
 20
76.6482558527
 11
24.7699397681
 21
76.6482558527
  0
LINE
  5
279
100
AcDbEntity
  8
0
100
AcDbLine
 62
7
  6
BYLAYER
 10
22.4085116461
 20
77.3000196613
 11
23.804254344
 21
77.3000196613
  0
LINE
  5
27A
100
AcDbEntity
  8
0
100
AcDbLine
 62
7
  6
BYLAYER
 10
26.1699397678
 20
77.3000196613
 11
27.5656824655
 21
77.3000196613
  0
LINE
  5
27B
100
AcDbEntity
  8
0
100
AcDbLine
 62
7
  6
BYLAYER
 10
27.5656824655
 20
77.4482558527
 11
26.1699397688
 21
77.4482558527
  0
LINE
  5
27C
100
AcDbEntity
  8
0
100
AcDbLine
 62
7
  6
BYLAYER
 10
23.8042543431
 20
77.4482558527
 11
22.4085116458
 21
77.4482558527
  0
LINE
  5
27D
100
AcDbEntity
  8
0
100
AcDbLine
 62
7
  6
BYLAYER
 10
28.0842680043
 20
76.4560177687
 11
28.1392400287
 21
76.4482558527
  0
LINE
  5
27E
100
AcDbEntity
  8
0
100
AcDbLine
 62
7
  6
BYLAYER
 10
52.1370070757
 20
76.2482558527
 11
57.2909219784
 21
70.9421917666
  0
LINE
  5
27F
100
AcDbEntity
  8
0
100
AcDbLine
 62
7
  6
BYLAYER
 10
57.5556429671
 20
73.3785986266
 11
57.5053550681
 21
73.5164908231
  0
LINE
  5
280
100
AcDbEntity
  8
0
100
AcDbLine
 62
7
  6
BYLAYER
 10
54.9988182303
 20
76.3791179255
 11
54.8475730067
 21
76.4482558527
  0
LINE
  5
281
100
AcDbEntity
  8
0
100
AcDbLine
 62
7
  6
BYLAYER
 10
52.271165953
 20
76.3785072809
 11
57.4290465164
 21
71.0764029077
  0
LINE
  5
282
100
AcDbEntity
  8
0
100
AcDbLine
 62
7
  6
BYLAYER
 10
54.9988181593
 20
76.3791179254
 11
57.5052258128
 21
73.4821981728
  0
CIRCLE
  5
283
100
AcDbEntity
  8
0
100
AcDbCircle
 62
7
  6
BYLAYER
 10
13.2870970556
 20
42.4482558526
 40
2.3500000001
  0
CIRCLE
  5
284
100
AcDbEntity
  8
0
100
AcDbCircle
 62
7
  6
BYLAYER
 10
13.2870970556
 20
42.4482558526
 40
2.15
  0
ARC
  5
285
100
AcDbEntity
  8
0
100
AcDbCircle
 62
7
  6
BYLAYER
 10
9.2073355309
 20
23.0252159567
 40
0.4742788097
100
AcDbArc
 50
0.0
 51
90.0
  0
ARC
  5
286
100
AcDbEntity
  8
0
100
AcDbCircle
 62
7
  6
BYLAYER
 10
22.1558931503
 20
23.0252159567
 40
0.4742788097
100
AcDbArc
 50
90.0
 51
180.0
  0
ARC
  5
287
100
AcDbEntity
  8
0
100
AcDbCircle
 62
7
  6
BYLAYER
 10
9.4870167962
 20
41.3310985651
 40
0.2
100
AcDbArc
 50
180.0000002578
 51
225.0
  0
ARC
  5
288
100
AcDbEntity
  8
0
100
AcDbCircle
 62
7
  6
BYLAYER
 10
22.3698595087
 20
28.4482558527
 40
0.2
100
AcDbArc
 50
224.9999997772
 51
270.0
  0
ARC
  5
289
100
AcDbEntity
  8
0
100
AcDbCircle
 62
7
  6
BYLAYER
 10
10.8688009107
 20
12.6949603124
 40
0.1951322697
100
AcDbArc
 50
205.2217936783
 51
270.0
  0
ARC
  5
28A
100
AcDbEntity
  8
0
100
AcDbCircle
 62
7
  6
BYLAYER
 10
20.4944277706
 20
12.6949603124
 40
0.1951322697
100
AcDbArc
 50
270.0
 51
334.7782063217
  0
ARC
  5
28B
100
AcDbEntity
  8
0
100
AcDbCircle
 62
7
  6
BYLAYER
 10
10.4374632465
 20
14.8540076757
 40
0.1558489058
100
AcDbArc
 50
180.0
 51
270.0
  0
ARC
  5
28C
100
AcDbEntity
  8
0
100
AcDbCircle
 62
7
  6
BYLAYER
 10
20.9257654348
 20
14.8540076757
 40
0.1558489058
100
AcDbArc
 50
270.0
 51
360.0
  0
ARC
  5
28D
100
AcDbEntity
  8
0
100
AcDbCircle
 62
7
  6
BYLAYER
 10
13.2870970556
 20
72.4482558527
 40
2.3500000004
100
AcDbArc
 50
0.0000000288
 51
180.0000000197
  0
ARC
  5
28E
100
AcDbEntity
  8
0
100
AcDbCircle
 62
7
  6
BYLAYER
 10
13.2870970556
 20
70.4482558527
 40
2.3500000002
100
AcDbArc
 50
180.0000000193
 51
359.9999999785
  0
ARC
  5
28F
100
AcDbEntity
  8
0
100
AcDbCircle
 62
7
  6
BYLAYER
 10
13.2870970556
 20
72.4482558527
 40
2.15
100
AcDbArc
 50
0.0
 51
180.0
  0
ARC
  5
290
100
AcDbEntity
  8
0
100
AcDbCircle
 62
7
  6
BYLAYER
 10
13.2870970556
 20
70.4482558527
 40
2.15
100
AcDbArc
 50
180.0
 51
360.0
  0
ARC
  5
291
100
AcDbEntity
  8
0
100
AcDbCircle
 62
7
  6
BYLAYER
 10
9.4870167962
 20
76.2482558527
 40
0.2
100
AcDbArc
 50
90.0
 51
180.0
  0
ARC
  5
292
100
AcDbEntity
  8
0
100
AcDbCircle
 62
7
  6
BYLAYER
 10
24.7700939666
 20
76.9002479571
 40
0.4002704685
100
AcDbArc
 50
225.0074999114
 51
269.9273317056
  0
ARC
  5
293
100
AcDbEntity
  8
0
100
AcDbCircle
 62
7
  6
BYLAYER
 10
24.7699397681
 20
76.8482558527
 40
0.2
100
AcDbArc
 50
225.0
 51
270.0
  0
ARC
  5
294
100
AcDbEntity
  8
0
100
AcDbCircle
 62
7
  6
BYLAYER
 10
21.8349457095
 20
76.6469782899
 40
0.1987224374
100
AcDbArc
 50
270.0024005061
 51
345.0
  0
ARC
  5
295
100
AcDbEntity
  8
0
100
AcDbCircle
 62
7
  6
BYLAYER
 10
22.4085116458
 20
77.2482558527
 40
0.2
100
AcDbArc
 50
90.0
 51
165.0000000918
  0
ARC
  5
296
100
AcDbEntity
  8
0
100
AcDbCircle
 62
7
  6
BYLAYER
 10
23.8042543432
 20
77.2482558527
 40
0.2
100
AcDbArc
 50
44.9999997974
 51
90.0000000286
  0
ARC
  5
297
100
AcDbEntity
  8
0
100
AcDbCircle
 62
7
  6
BYLAYER
 10
25.2043134155
 20
76.8999870592
 40
0.3999131351
100
AcDbArc
 50
270.0053661054
 51
314.9971396135
  0
ARC
  5
298
100
AcDbEntity
  8
0
100
AcDbCircle
 62
7
  6
BYLAYER
 10
25.2042543432
 20
76.8482558527
 40
0.2
100
AcDbArc
 50
270.0000001719
 51
315.0
  0
ARC
  5
299
100
AcDbEntity
  8
0
100
AcDbCircle
 62
7
  6
BYLAYER
 10
28.1405624531
 20
76.6482558527
 40
0.2
100
AcDbArc
 50
194.9999999912
 51
270.0
  0
ARC
  5
29A
100
AcDbEntity
  8
0
100
AcDbCircle
 62
7
  6
BYLAYER
 10
27.5656824655
 20
77.2482558527
 40
0.2
100
AcDbArc
 50
14.9999999635
 51
90.0
  0
ARC
  5
29B
100
AcDbEntity
  8
0
100
AcDbCircle
 62
7
  6
BYLAYER
 10
26.1699397681
 20
77.2482558527
 40
0.2
100
AcDbArc
 50
90.0
 51
135.0000002228
  0
ARC
  5
29C
100
AcDbEntity
  8
0
100
AcDbCircle
 62
7
  6
BYLAYER
 10
56.1633356164
 20
28.4482558527
 40
0.2
100
AcDbArc
 50
269.9999998854
 51
358.48
  0
SPLINE
  5
29D
100
AcDbEntity
  8
0
100
AcDbSpline
 62
7
  6
BYLAYER
 70
0
 71
3
 72
8
 73
4
 74
0
 42
0.0000001
 43
0.0000001
 44
0.0000000001
 40
0.0
 40
0.0
 40
0.0
 40
0.0
 40
1.0
 40
1.0
 40
1.0
 40
1.0
 10
21.9245252563
 20
76.4695980184
 30
0.0
 10
21.9022240513
 20
76.4583388182
 30
0.0
 10
21.8773414214
 20
76.4512302011
 30
0.0
 10
21.8524563388
 20
76.4490288393
 30
0.0
  0
SPLINE
  5
29E
100
AcDbEntity
  8
0
100
AcDbSpline
 62
7
  6
BYLAYER
 70
0
 71
3
 72
12
 73
8
 74
0
 42
0.0000001
 43
0.0000001
 44
0.0000000001
 40
0.0
 40
0.0
 40
0.0
 40
0.0
 40
0.1144258795
 40
0.2028522735
 40
0.3155824321
 40
0.6138226791
 40
1.0
 40
1.0
 40
1.0
 40
1.0
 10
26.0285184121
 20
77.389677209
 30
0.0
 10
26.0308864403
 20
77.3920452372
 30
0.0
 10
26.0378599908
 20
77.392459426
 30
0.0
 10
26.046559816
 20
77.3901498175
 30
0.0
 10
26.0602559808
 20
77.3846521237
 30
0.0
 10
26.0803822188
 20
77.3728243893
 30
0.0
 10
26.0967649623
 20
77.361248454
 30
0.0
 10
26.1057877257
 20
77.3544418189
 30
0.0
  0
SPLINE
  5
29F
100
AcDbEntity
  8
0
100
AcDbSpline
 62
7
  6
BYLAYER
 70
0
 71
3
 72
9
 73
5
 74
0
 42
0.0000001
 43
0.0000001
 44
0.0000000001
 40
0.0
 40
0.0
 40
0.0
 40
0.0
 40
0.2309096478
 40
1.0
 40
1.0
 40
1.0
 40
1.0
 10
26.1057877257
 20
77.3544418189
 30
0.0
 10
26.1109583016
 20
77.3505412153
 30
0.0
 10
26.1330537881
 20
77.3332568498
 30
0.0
 10
26.1541665776
 20
77.3147362484
 30
0.0
 10
26.1699397369
 20
77.3000196912
 30
0.0
  0
SPLINE
  5
2A0
100
AcDbEntity
  8
0
100
AcDbSpline
 62
7
  6
BYLAYER
 70
0
 71
3
 72
8
 73
4
 74
0
 42
0.0000001
 43
0.0000001
 44
0.0000000001
 40
0.0
 40
0.0
 40
0.0
 40
0.0
 40
1.0
 40
1.0
 40
1.0
 40
1.0
 10
22.0268168221
 20
76.5964920385
 30
0.0
 10
22.0264963442
 20
76.5952959992
 30
0.0
 10
22.0263550926
 20
76.5940232737
 30
0.0
 10
22.0264866326
 20
76.5927920493
 30
0.0
  0
SPLINE
  5
2A1
100
AcDbEntity
  8
0
100
AcDbSpline
 62
7
  6
BYLAYER
 70
0
 71
3
 72
13
 73
9
 74
0
 42
0.0000001
 43
0.0000001
 44
0.0000000001
 40
0.0
 40
0.0
 40
0.0
 40
0.0
 40
0.3142609497
 40
0.6041980035
 40
0.7338205526
 40
0.8500067068
 40
0.9422011601
 40
1.0
 40
1.0
 40
1.0
 40
1.0
 10
22.0548309921
 20
76.3498798796
 30
0.0
 10
22.0557306467
 20
76.3755683683
 30
0.0
 10
22.0565156405
 20
76.4251117962
 30
0.0
 10
22.0483886256
 20
76.4847707841
 30
0.0
 10
22.0397292054
 20
76.5277091572
 30
0.0
 10
22.0342360302
 20
76.5548278219
 30
0.0
 10
22.0299367956
 20
76.5761120673
 30
0.0
 10
22.0267226433
 20
76.5880704356
 30
0.0
 10
22.026486612
 20
76.5927920603
 30
0.0
  0
SPLINE
  5
2A2
100
AcDbEntity
  8
0
100
AcDbSpline
 62
7
  6
BYLAYER
 70
0
 71
3
 72
9
 73
5
 74
0
 42
0.0000001
 43
0.0000001
 44
0.0000000001
 40
0.0
 40
0.0
 40
0.0
 40
0.0
 40
0.5010538902
 40
1.0
 40
1.0
 40
1.0
 40
1.0
 10
21.9016155901
 20
76.2482558527
 30
0.0
 10
21.9307494738
 20
76.2587839373
 30
0.0
 10
21.9885096835
 20
76.2820905735
 30
0.0
 10
22.0363054424
 20
76.3243888636
 30
0.0
 10
22.0544325375
 20
76.34934834
 30
0.0
  0
SPLINE
  5
2A3
100
AcDbEntity
  8
0
100
AcDbSpline
 62
7
  6
BYLAYER
 70
0
 71
3
 72
18
 73
14
 74
0
 42
0.0000001
 43
0.0000001
 44
0.0000000001
 40
0.0
 40
0.0
 40
0.0
 40
0.0
 40
0.0219928168
 40
0.0523245718
 40
0.1427532364
 40
0.2599084686
 40
0.3907143244
 40
0.4591259605
 40
0.5297503759
 40
0.6023107583
 40
0.6780162793
 40
0.8364339061
 40
1.0
 40
1.0
 40
1.0
 40
1.0
 10
21.8349540436
 20
76.4482558527
 30
0.0
 10
21.8370261878
 20
76.4482558527
 30
0.0
 10
21.8418978418
 20
76.4469054986
 30
0.0
 10
21.8538479965
 20
76.4407914392
 30
0.0
 10
21.8731070914
 20
76.4292276778
 30
0.0
 10
21.899544921
 20
76.4114370337
 30
0.0
 10
21.9228568711
 20
76.3926269983
 30
0.0
 10
21.9398331366
 20
76.3736270353
 30
0.0
 10
21.9513922753
 20
76.3573181442
 30
0.0
 10
21.9599854262
 20
76.3383079699
 30
0.0
 10
21.9614389723
 20
76.30832571
 30
0.0
 10
21.9375454274
 20
76.2759249328
 30
0.0
 10
21.9142538636
 20
76.2570748471
 30
0.0
 10
21.9016155898
 20
76.2482558527
 30
0.0
  0
SPLINE
  5
2A4
100
AcDbEntity
  8
0
100
AcDbSpline
 62
7
  6
BYLAYER
 70
0
 71
3
 72
10
 73
6
 74
0
 42
0.0000001
 43
0.0000001
 44
0.0000000001
 40
0.0
 40
0.0
 40
0.0
 40
0.0
 40
0.499050356
 40
0.7495220119
 40
1.0
 40
1.0
 40
1.0
 40
1.0
 10
27.9197612019
 20
76.3493523521
 30
0.0
 10
27.9379158517
 20
76.3243553542
 30
0.0
 10
27.9735743326
 20
76.2923434034
 30
0.0
 10
28.0288623525
 20
76.2642860583
 30
0.0
 10
28.0579970465
 20
76.2535300253
 30
0.0
 10
28.0725785124
 20
76.2482558527
 30
0.0
  0
SPLINE
  5
2A5
100
AcDbEntity
  8
0
100
AcDbSpline
 62
7
  6
BYLAYER
 70
0
 71
3
 72
8
 73
4
 74
0
 42
0.0000001
 43
0.0000001
 44
0.0000000001
 40
0.0
 40
0.0
 40
0.0
 40
0.0
 40
1.0
 40
1.0
 40
1.0
 40
1.0
 10
27.9477074847
 20
76.5927921281
 30
0.0
 10
27.9478390163
 20
76.5940233274
 30
0.0
 10
27.9476977604
 20
76.5952960246
 30
0.0
 10
27.9473772892
 20
76.596492039
 30
0.0
  0
SPLINE
  5
2A6
100
AcDbEntity
  8
0
100
AcDbSpline
 62
7
  6
BYLAYER
 70
0
 71
3
 72
13
 73
9
 74
0
 42
0.0000001
 43
0.0000001
 44
0.0000000001
 40
0.0
 40
0.0
 40
0.0
 40
0.0
 40
0.3426296105
 40
0.6263004974
 40
0.7492064537
 40
0.8560100459
 40
0.9414837249
 40
1.0
 40
1.0
 40
1.0
 40
1.0
 10
27.9198092354
 20
76.3488933166
 30
0.0
 10
27.9171758662
 20
76.3769037628
 30
0.0
 10
27.9180768901
 20
76.4286776266
 30
0.0
 10
27.9269935412
 20
76.4895848116
 30
0.0
 10
27.934928691
 20
76.5309870308
 30
0.0
 10
27.9403184708
 20
76.5563076979
 30
0.0
 10
27.9445937228
 20
76.5764325216
 30
0.0
 10
27.9472020072
 20
76.5879999377
 30
0.0
 10
27.9477119078
 20
76.5927776866
 30
0.0
  0
SPLINE
  5
2A7
100
AcDbEntity
  8
0
100
AcDbSpline
 62
7
  6
BYLAYER
 70
0
 71
3
 72
13
 73
9
 74
0
 42
0.0000001
 43
0.0000001
 44
0.0000000001
 40
0.0
 40
0.0
 40
0.0
 40
0.0
 40
0.1154630468
 40
0.2102751898
 40
0.3308145071
 40
0.4746233525
 40
0.637697686
 40
1.0
 40
1.0
 40
1.0
 40
1.0
 10
22.2153264803
 20
77.3000196609
 30
0.0
 10
22.2173193665
 20
77.3074572132
 30
0.0
 10
22.2326911147
 20
77.3150881139
 30
0.0
 10
22.2536350049
 20
77.3184258224
 30
0.0
 10
22.2779006084
 20
77.3195600258
 30
0.0
 10
22.3062976243
 20
77.3181038813
 30
0.0
 10
22.3506831116
 20
77.3129185854
 30
0.0
 10
22.3850720629
 20
77.3058795566
 30
0.0
 10
22.4085116459
 20
77.3000196608
 30
0.0
  0
SPLINE
  5
2A8
100
AcDbEntity
  8
0
100
AcDbSpline
 62
7
  6
BYLAYER
 70
0
 71
3
 72
14
 73
10
 74
0
 42
0.0000001
 43
0.0000001
 44
0.0000000001
 40
0.0
 40
0.0
 40
0.0
 40
0.0
 40
0.3763954686
 40
0.5417902009
 40
0.6857756155
 40
0.8045284775
 40
0.8956732636
 40
0.9587994622
 40
1.0
 40
1.0
 40
1.0
 40
1.0
 10
25.4870971308
 20
76.6171770851
 30
0.0
 10
25.4713091602
 20
76.631907423
 30
0.0
 10
25.4479296752
 20
76.652445367
 30
0.0
 10
25.4167630723
 20
76.6764734073
 30
0.0
 10
25.3965327904
 20
76.6904239718
 30
0.0
 10
25.3790494747
 20
76.700792159
 30
0.0
 10
25.3646783509
 20
76.7071632183
 30
0.0
 10
25.3537999602
 20
76.7100566885
 30
0.0
 10
25.3473468906
 20
76.7085057218
 30
0.0
 10
25.3456756065
 20
76.7068344429
 30
0.0
  0
SPLINE
  5
2A9
100
AcDbEntity
  8
0
100
AcDbSpline
 62
7
  6
BYLAYER
 70
0
 71
3
 72
14
 73
10
 74
0
 42
0.0000001
 43
0.0000001
 44
0.0000000001
 40
0.0
 40
0.0
 40
0.0
 40
0.0
 40
0.0412004638
 40
0.1043265867
 40
0.1954713241
 40
0.3142241685
 40
0.4582095963
 40
0.6236043709
 40
1.0
 40
1.0
 40
1.0
 40
1.0
 10
24.6285184119
 20
76.7068344965
 30
0.0
 10
24.6268471337
 20
76.7085057747
 30
0.0
 10
24.6203940716
 20
76.7100567408
 30
0.0
 10
24.6095156982
 20
76.7071632565
 30
0.0
 10
24.5951445942
 20
76.7007921816
 30
0.0
 10
24.5776613006
 20
76.6904239712
 30
0.0
 10
24.5574310418
 20
76.6764733786
 30
0.0
 10
24.5262644702
 20
76.6524452908
 30
0.0
 10
24.5028850098
 20
76.6319073112
 30
0.0
 10
24.4870970553
 20
76.6171769491
 30
0.0
  0
SPLINE
  5
2AA
100
AcDbEntity
  8
0
100
AcDbSpline
 62
7
  6
BYLAYER
 70
0
 71
3
 72
9
 73
5
 74
0
 42
0.0000001
 43
0.0000001
 44
0.0000000001
 40
0.0
 40
0.0
 40
0.0
 40
0.0
 40
0.26529683
 40
1.0
 40
1.0
 40
1.0
 40
1.0
 10
23.8042543428
 20
77.3000196616
 30
0.0
 10
23.8096951501
 20
77.305096004
 30
0.0
 10
23.8304233885
 20
77.3239896899
 30
0.0
 10
23.8519551422
 20
77.3420312517
 30
0.0
 10
23.8684063855
 20
77.3544418189
 30
0.0
  0
SPLINE
  5
2AB
100
AcDbEntity
  8
0
100
AcDbSpline
 62
7
  6
BYLAYER
 70
0
 71
3
 72
9
 73
5
 74
0
 42
0.0000001
 43
0.0000001
 44
0.0000000001
 40
0.0
 40
0.0
 40
0.0
 40
0.0
 40
0.5642422707
 40
1.0
 40
1.0
 40
1.0
 40
1.0
 10
23.8684063855
 20
77.3544418189
 30
0.0
 10
23.8774291489
 20
77.361248454
 30
0.0
 10
23.8937763008
 20
77.3728343473
 30
0.0
 10
23.9111469143
 20
77.3829641016
 30
0.0
 10
23.9190931579
 20
77.3865759449
 30
0.0
  0
SPLINE
  5
2AC
100
AcDbEntity
  8
0
100
AcDbSpline
 62
7
  6
BYLAYER
 70
0
 71
3
 72
10
 73
6
 74
0
 42
0.0000001
 43
0.0000001
 44
0.0000000001
 40
0.0
 40
0.0
 40
0.0
 40
0.0
 40
0.3572130348
 40
0.6374136579
 40
1.0
 40
1.0
 40
1.0
 40
1.0
 10
23.9190931579
 20
77.3865759449
 30
0.0
 10
23.922096714
 20
77.3879411653
 30
0.0
 10
23.9276417456
 20
77.390147733
 30
0.0
 10
23.9363316036
 20
77.3924601301
 30
0.0
 10
23.943307671
 20
77.3920452372
 30
0.0
 10
23.9456756992
 20
77.389677209
 30
0.0
  0
SPLINE
  5
2AD
100
AcDbEntity
  8
0
100
AcDbSpline
 62
7
  6
BYLAYER
 70
0
 71
3
 72
13
 73
9
 74
0
 42
0.0000001
 43
0.0000001
 44
0.0000000001
 40
0.0
 40
0.0
 40
0.0
 40
0.0
 40
0.362302314
 40
0.5253766475
 40
0.6691854929
 40
0.7897248102
 40
0.8845369531
 40
1.0
 40
1.0
 40
1.0
 40
1.0
 10
27.5656824655
 20
77.3000196618
 30
0.0
 10
27.5891220485
 20
77.3058795575
 30
0.0
 10
27.6235109997
 20
77.3129185863
 30
0.0
 10
27.6678964869
 20
77.3181038822
 30
0.0
 10
27.6962935028
 20
77.3195600267
 30
0.0
 10
27.7205591062
 20
77.3184258233
 30
0.0
 10
27.7415029964
 20
77.3150881148
 30
0.0
 10
27.7568747446
 20
77.3074572141
 30
0.0
 10
27.7588676308
 20
77.3000196618
 30
0.0
  0
SPLINE
  5
2AE
100
AcDbEntity
  8
0
100
AcDbSpline
 62
7
  6
BYLAYER
 70
0
 71
3
 72
9
 73
5
 74
0
 42
0.0000001
 43
0.0000001
 44
0.0000000001
 40
0.0
 40
0.0
 40
0.0
 40
0.0
 40
0.4938244364
 40
1.0
 40
1.0
 40
1.0
 40
1.0
 10
57.4908516614
 20
70.9368887496
 30
0.0
 10
57.4915326701
 20
70.9625514851
 30
0.0
 10
57.4803049197
 20
71.0153418383
 30
0.0
 10
57.448215412
 20
71.0584517171
 30
0.0
 10
57.42845308
 20
71.0758260941
 30
0.0
  0
SPLINE
  5
2AF
100
AcDbEntity
  8
0
100
AcDbSpline
 62
7
  6
BYLAYER
 70
0
 71
3
 72
9
 73
5
 74
0
 42
0.0000001
 43
0.0000001
 44
0.0000000001
 40
0.0
 40
0.0
 40
0.0
 40
0.0
 40
0.5096799567
 40
1.0
 40
1.0
 40
1.0
 40
1.0
 10
52.2717946282
 20
76.379117428
 30
0.0
 10
52.2556550185
 20
76.4000486997
 30
0.0
 10
52.2149819573
 20
76.4352279089
 30
0.0
 10
52.1624342489
 20
76.4482558526
 30
0.0
 10
52.1370070816
 20
76.4482558527
 30
0.0
  0
SPLINE
  5
2B0
100
AcDbEntity
  8
0
100
AcDbSpline
 62
7
  6
BYLAYER
 70
0
 71
3
 72
20
 73
16
 74
0
 42
0.0000001
 43
0.0000001
 44
0.0000000001
 40
0.0
 40
0.0
 40
0.0
 40
0.0
 40
0.0535508228
 40
0.142455877
 40
0.2588609942
 40
0.3891709098
 40
0.4576835596
 40
0.52798261
 40
0.6002153601
 40
0.676371773
 40
0.7153832537
 40
0.7547883516
 40
0.8362176456
 40
0.9184289105
 40
1.0
 40
1.0
 40
1.0
 40
1.0
 10
28.1392400672
 20
76.4482558527
 30
0.0
 10
28.1342029853
 20
76.4482558527
 30
0.0
 10
28.121641042
 20
76.4418194242
 30
0.0
 10
28.1012012198
 20
76.429380521
 30
0.0
 10
28.0749722833
 20
76.4114761352
 30
0.0
 10
28.0520073708
 20
76.3926535356
 30
0.0
 10
28.0346082956
 20
76.3741878674
 30
0.0
 10
28.0232313134
 20
76.3577812554
 30
0.0
 10
28.0156952611
 20
76.3383445895
 30
0.0
 10
28.0149578158
 20
76.320344891
 30
0.0
 10
28.0181821177
 20
76.3060826386
 30
0.0
 10
28.0246186429
 20
76.2923673852
 30
0.0
 10
28.0370526127
 20
76.2776087082
 30
0.0
 10
28.0538559897
 20
76.2618182361
 30
0.0
 10
28.0661847232
 20
76.2524973163
 30
0.0
 10
28.0725785137
 20
76.2482558527
 30
0.0
  0
SPLINE
  5
2B1
100
AcDbEntity
  8
0
100
AcDbSpline
 62
7
  6
BYLAYER
 70
0
 71
3
 72
10
 73
6
 74
0
 42
0.0000001
 43
0.0000001
 44
0.0000000001
 40
0.0
 40
0.0
 40
0.0
 40
0.0
 40
0.2500165295
 40
0.4999535519
 40
1.0
 40
1.0
 40
1.0
 40
1.0
 10
22.1802822205
 20
76.4482558519
 30
0.0
 10
22.1665477497
 20
76.448255852
 30
0.0
 10
22.1394939334
 20
76.4382889466
 30
0.0
 10
22.0954528362
 20
76.4052095295
 30
0.0
 10
22.0705989423
 20
76.3715571337
 30
0.0
 10
22.0544325375
 20
76.34934834
 30
0.0
  0
SPLINE
  5
2B2
100
AcDbEntity
  8
0
100
AcDbSpline
 62
7
  6
BYLAYER
 70
0
 71
3
 72
11
 73
7
 74
0
 42
0.0000001
 43
0.0000001
 44
0.0000000001
 40
0.0
 40
0.0
 40
0.0
 40
0.0
 40
0.2501466489
 40
0.5002803811
 40
0.7502778494
 40
1.0
 40
1.0
 40
1.0
 40
1.0
 10
27.9197612019
 20
76.3493523521
 30
0.0
 10
27.9117085261
 20
76.3604640183
 30
0.0
 10
27.8951780894
 20
76.3824073317
 30
0.0
 10
27.8667311422
 20
76.4123426083
 30
0.0
 10
27.8347432342
 20
76.4382516707
 30
0.0
 10
27.8076113827
 20
76.4482558519
 30
0.0
 10
27.7939118894
 20
76.4482558519
 30
0.0
  0
ENDSEC
  0
SECTION
  2
OBJECTS
  0
DICTIONARY
  5
C
100
AcDbDictionary
280
0
281
1
  3
ACAD_GROUP
350
D
  3
ACAD_MLINESTYLE
350
17
  3
ACAD_LAYOUT
350
1A
  3
ACAD_PLOTSETTINGS
350
19
  3
ACAD_PLOTSTYLENAME
350
E
  0
DICTIONARY
  5
D
102
{ACAD_REACTORS
330
C
102
}
100
AcDbDictionary
280
0
281
1
  0
ACDBDICTIONARYWDFLT
  5
E
102
{ACAD_REACTORS
330
C
102
}
100
AcDbDictionary
281
1
  3
Normal
350
F
100
AcDbDictionaryWithDefault
340
F
  0
DICTIONARY
  5
17
102
{ACAD_REACTORS
330
C
102
}
100
AcDbDictionary
280
0
281
1
  3
Standard
350
18
  0
DICTIONARY
  5
19
102
{ACAD_REACTORS
330
C
102
}
100
AcDbDictionary
281
1
  0
DICTIONARY
  5
1A
102
{ACAD_REACTORS
330
C
102
}
100
AcDbDictionary
281
1
  3
Model
350
2B3
  3
Layout1
350
2B4
  0
ACDBPLACEHOLDER
  5
F
102
{ACAD_REACTORS
330
E
102
}
  0
MLINESTYLE
  5
18
102
{ACAD_REACTORS
330
17
102
}
100
AcDbMlineStyle
  2
STANDARD
 70
0
  3

 62
256
 51
90.0
 52
90.0
 71
2
 49
0.5
 62
256
  6
BYLAYER
 49
-0.5
 62
256
  6
BYLAYER
  0
LAYOUT
  5
2B3
102
{ACAD_REACTORS
330
1A
102
}
100
AcDbPlotSettings
  1

  2
none_device
  4

  6

 40
0.0
 41
0.0
 42
0.0
 43
0.0
 44
210.0
 45
297.0
 46
0.0
 47
0.0
 48
0.0
 49
0.0
140
0.0
141
0.0
142
1.0
143
1.0
 70
1024
 72
1
 73
0
 74
0
  7

 75
0
147
1.0
148
0.0
149
0.0
100
AcDbLayout
  1
Model
 70
0
 71
0
 10
0.0
 20
0.0
 11
210.0
 21
297.0
 12
0.0
 22
0.0
 32
0.0
 14
0.0
 24
0.0
 34
0.0
 15
0.0
 25
0.0
 35
0.0
146
0.0
 13
0.0
 23
0.0
 33
0.0
 16
1.0
 26
0.0
 36
0.0
 17
0.0
 27
1.0
 37
0.0
 76
0
330
210
345
0
346
0
  0
LAYOUT
  5
2B4
102
{ACAD_REACTORS
330
1A
102
}
100
AcDbPlotSettings
  1

  2
none_device
  4

  6

 40
0.0
 41
0.0
 42
0.0
 43
0.0
 44
210.0
 45
297.0
 46
0.0
 47
0.0
 48
0.0
 49
0.0
140
0.0
141
0.0
142
1.0
143
1.0
 70
0
 72
1
 73
0
 74
0
  7

 75
0
147
1.0
148
0.0
149
0.0
100
AcDbLayout
  1
Layout1
 70
0
 71
1
 10
0.0
 20
0.0
 11
210.0
 21
297.0
 12
0.0
 22
0.0
 32
0.0
 14
0.0
 24
0.0
 34
0.0
 15
0.0
 25
0.0
 35
0.0
146
0.0
 13
0.0
 23
0.0
 33
0.0
 16
1.0
 26
0.0
 36
0.0
 17
0.0
 27
1.0
 37
0.0
 76
0
330
211
345
0
346
0
  0
ENDSEC
  0
EOF
