999
DXF file: C:\Users\sesa63760\Dev\_Creo\CAD\MCADID0004750_3D-CAD\drw0001_7.dxf
999
Pro/ENGINEER 2019471 by Parametric Technology Corporation
  0
SECTION
  2
HEADER
  9
$ACADVER
  1
AC1024
  9
$DWGCODEPAGE
  3
ANSI_1252
  9
$EXTMAX
 10
68.4490086864
 20
96.8064551422
 30
0.0
  9
$EXTMIN
 10
0.0
 20
0.0
 30
0.0
  9
$LIMMIN
 10
0.0
 20
0.0
  9
$LIMMAX
 10
68.4490086864
 20
96.8064551422
  9
$VIEWCTR
 10
34.2245043432
 20
48.4032275711
  9
$VIEWSIZE
 40
96.8064551422
  9
$CLAYER
  8
0
  9
$LTSCALE
 40
6.3103467056
  9
$CELTYPE
  6
BYLAYER
  9
$DIMSCALE
 40
1.0
  9
$DIMASZ
 40
0.814869151
  9
$DIMEXO
 40
1.0
  9
$DIMDLI
 40
4.3598759057
  9
$DIMEXE
 40
1.0
  9
$DIMCEN
 40
1.0326021882
  9
$DIMLFAC
 40
1.0
  9
$DIMBLK
  1
_FILLED
  9
$DIMALT
 70
0
  9
$DIMALTF
 40
0.0393700787
  9
$DIMTXT
 40
1.1408168114
  9
$DIMTOL
 70
1
  9
$DIMLIM
 70
0
  9
$DIMTFAC
 40
1.0
  9
$DIMTP
 40
0.01
  9
$DIMTM
 40
0.01
  9
$DIMGAP
 40
0.625
  9
$DIMDSEP
 70
46
  9
$AUNITS
 70
0
  9
$PDMODE
 70
3
  9
$PDSIZE
 40
0.3125
  9
$HANDSEED
  5
27E
  9
$TILEMODE
 70
1
  9
$MEASUREMENT
 70
1
  9
$INSUNITS
 70
4
  0
ENDSEC
  0
SECTION
  2
CLASSES
  0
CLASS
  1
ACDBDICTIONARYWDFLT
  2
AcDbDictionaryWithDefault
  3
AutoCAD 2000
 90
0
 91
1
280
0
281
0
  0
CLASS
  1
ACDBPLACEHOLDER
  2
AcDbPlaceHolder
  3
AutoCAD 2000
 90
0
 91
1
280
0
281
0
  0
CLASS
  1
LAYOUT
  2
AcDbLayout
  3
AutoCAD 2000
 90
0
 91
0
280
0
281
0
  0
ENDSEC
  0
SECTION
  2
TABLES
  0
TABLE
  2
VPORT
  5
8
100
AcDbSymbolTable
 70
2
  0
VPORT
  5
1F4
100
AcDbSymbolTableRecord
100
AcDbViewportTableRecord
  2
*ACTIVE
 70
0
 10
0.0
 20
0.0
 11
1.0
 21
1.0
 12
34.2245043432
 22
48.4032275711
 13
0.0
 23
0.0
 14
1.0
 24
1.0
 15
0.0
 25
0.0
 16
0.0
 26
0.0
 36
1.0
 17
0.0
 27
0.0
 37
0.0
 40
96.8064551422
 41
0.7070707071
 42
50.0
 43
0.0
 44
0.0
 50
0.0
 51
0.0
 71
0
 72
100
 73
1
 74
1
 75
0
 76
0
 77
0
 78
0
  0
ENDTAB
  0
TABLE
  2
LTYPE
  5
5
100
AcDbSymbolTable
 70
6
  0
LTYPE
  5
14
100
AcDbSymbolTableRecord
100
AcDbLinetypeTableRecord
  2
BYBLOCK
 70
0
  3

 72
65
 73
0
 40
0.0
  0
LTYPE
  5
15
100
AcDbSymbolTableRecord
100
AcDbLinetypeTableRecord
  2
BYLAYER
 70
0
  3

 72
65
 73
0
 40
0.0
  0
LTYPE
  5
16
100
AcDbSymbolTableRecord
100
AcDbLinetypeTableRecord
  2
CONTINUOUS
 70
64
  3
Solid line
 72
65
 73
0
 40
0.0
  0
LTYPE
  5
1F5
100
AcDbSymbolTableRecord
100
AcDbLinetypeTableRecord
  2
CENTER
 70
64
  3
____ _ ____ _ ____ _ ____ _ ____ _ ____ _ ____
 72
65
 73
4
 40
0.6
 49
0.375
 74
0
 49
-0.075
 74
0
 49
0.075
 74
0
 49
-0.075
 74
0
  0
LTYPE
  5
1F6
100
AcDbSymbolTableRecord
100
AcDbLinetypeTableRecord
  2
HIDDEN
 70
64
  3
- - - - - - - - - - - - - - - - - - - -
 72
65
 73
2
 40
0.2
 49
0.1
 74
0
 49
-0.1
 74
0
  0
LTYPE
  5
1F7
100
AcDbSymbolTableRecord
100
AcDbLinetypeTableRecord
  2
PHANTOM
 70
64
  3
_____ _ _ _____ _ _ _____ _ _ _____
 72
65
 73
6
 40
0.8
 49
0.45
 74
0
 49
-0.05
 74
0
 49
0.1
 74
0
 49
-0.05
 74
0
 49
0.1
 74
0
 49
-0.05
 74
0
  0
LTYPE
  5
1F8
100
AcDbSymbolTableRecord
100
AcDbLinetypeTableRecord
  2
DOT
 70
64
  3
. . . . . . . . . . . . . . . . . . . .
 72
65
 73
2
 40
0.2
 49
0.1
 74
0
 49
-0.1
 74
0
  0
LTYPE
  5
1F9
100
AcDbSymbolTableRecord
100
AcDbLinetypeTableRecord
  2
DASHED
 70
64
  3
- - - - - - - - - - - - - - - - - - - -
 72
65
 73
2
 40
0.2
 49
0.1
 74
0
 49
-0.1
 74
0
  0
ENDTAB
  0
TABLE
  2
LAYER
  5
2
100
AcDbSymbolTable
 70
36
  0
LAYER
  5
10
100
AcDbSymbolTableRecord
100
AcDbLayerTableRecord
  2
0
 70
0
 62
7
  6
CONTINUOUS
370
-3
390
F
  0
LAYER
  5
1FA
100
AcDbSymbolTableRecord
100
AcDbLayerTableRecord
  2
DEFAULT_1
 70
0
 62
7
  6
CENTER
370
-3
390
F
  0
LAYER
  5
1FB
100
AcDbSymbolTableRecord
100
AcDbLayerTableRecord
  2
DEFAULT_2
 70
0
 62
7
  6
HIDDEN
370
-3
390
F
  0
LAYER
  5
1FC
100
AcDbSymbolTableRecord
100
AcDbLayerTableRecord
  2
DEFAULT_3
 70
0
 62
7
  6
PHANTOM
370
-3
390
F
  0
LAYER
  5
1FD
100
AcDbSymbolTableRecord
100
AcDbLayerTableRecord
  2
00_COMPONENTS
 70
0
 62
7
  6
CONTINUOUS
370
-3
390
F
  0
LAYER
  5
1FE
100
AcDbSymbolTableRecord
100
AcDbLayerTableRecord
  2
01_1_DEFAULT_DATUMS
 70
0
 62
7
  6
CONTINUOUS
370
-3
390
F
  0
LAYER
  5
1FF
100
AcDbSymbolTableRecord
100
AcDbLayerTableRecord
  2
01_PLANES
 70
0
 62
7
  6
CONTINUOUS
370
-3
390
F
  0
LAYER
  5
200
100
AcDbSymbolTableRecord
100
AcDbLayerTableRecord
  2
02_COORD_SYS
 70
0
 62
7
  6
CONTINUOUS
370
-3
390
F
  0
LAYER
  5
201
100
AcDbSymbolTableRecord
100
AcDbLayerTableRecord
  2
03_AXES
 70
0
 62
7
  6
CONTINUOUS
370
-3
390
F
  0
LAYER
  5
202
100
AcDbSymbolTableRecord
100
AcDbLayerTableRecord
  2
04_POINTS
 70
0
 62
7
  6
CONTINUOUS
370
-3
390
F
  0
LAYER
  5
203
100
AcDbSymbolTableRecord
100
AcDbLayerTableRecord
  2
05_CURVES
 70
0
 62
7
  6
CONTINUOUS
370
-3
390
F
  0
LAYER
  5
204
100
AcDbSymbolTableRecord
100
AcDbLayerTableRecord
  2
06_SURFS
 70
0
 62
7
  6
CONTINUOUS
370
-3
390
F
  0
LAYER
  5
205
100
AcDbSymbolTableRecord
100
AcDbLayerTableRecord
  2
07_COSMETICS
 70
0
 62
7
  6
CONTINUOUS
370
-3
390
F
  0
LAYER
  5
206
100
AcDbSymbolTableRecord
100
AcDbLayerTableRecord
  2
10_NOTES
 70
0
 62
7
  6
CONTINUOUS
370
-3
390
F
  0
LAYER
  5
207
100
AcDbSymbolTableRecord
100
AcDbLayerTableRecord
  2
11_NOTES_PUB
 70
0
 62
7
  6
CONTINUOUS
370
-3
390
F
  0
LAYER
  5
208
100
AcDbSymbolTableRecord
100
AcDbLayerTableRecord
  2
13_REF_GTOL
 70
0
 62
7
  6
CONTINUOUS
370
-3
390
F
  0
LAYER
  5
209
100
AcDbSymbolTableRecord
100
AcDbLayerTableRecord
  2
16_MISC
 70
0
 62
7
  6
CONTINUOUS
370
-3
390
F
  0
LAYER
  5
20A
100
AcDbSymbolTableRecord
100
AcDbLayerTableRecord
  2
17_NO_PRINT
 70
0
 62
7
  6
CONTINUOUS
370
-3
390
F
  0
LAYER
  5
20B
100
AcDbSymbolTableRecord
100
AcDbLayerTableRecord
  2
18_DATUM_CAMS_JOINTS
 70
0
 62
7
  6
CONTINUOUS
370
-3
390
F
  0
LAYER
  5
20C
100
AcDbSymbolTableRecord
100
AcDbLayerTableRecord
  2
19_DATUM_FUNCTIONAL
 70
0
 62
7
  6
CONTINUOUS
370
-3
390
F
  0
LAYER
  5
20D
100
AcDbSymbolTableRecord
100
AcDbLayerTableRecord
  2
20_DATUM_KINEMATIC_SCHEME
 70
0
 62
7
  6
CONTINUOUS
370
-3
390
F
  0
ENDTAB
  0
TABLE
  2
STYLE
  5
3
100
AcDbSymbolTable
 70
1
  0
STYLE
  5
11
100
AcDbSymbolTableRecord
100
AcDbTextStyleTableRecord
  2
STANDARD
 70
0
 40
0.0
 41
1.0
 50
0.0
 71
0
 42
0.2
  3
ARIAL.TTF
  4

  0
STYLE
  5
20E
100
AcDbSymbolTableRecord
100
AcDbTextStyleTableRecord
  2
TEXTSTYLE_1
 70
0
 40
0.0
 41
0.8
 50
0.0
 71
0
 42
0.2
  3
gdt
  4

  0
ENDTAB
  0
TABLE
  2
VIEW
  5
6
100
AcDbSymbolTable
 70
0
  0
ENDTAB
  0
TABLE
  2
UCS
  5
7
100
AcDbSymbolTable
 70
0
  0
ENDTAB
  0
TABLE
  2
APPID
  5
9
100
AcDbSymbolTable
 70
1
  0
APPID
  5
20F
100
AcDbSymbolTableRecord
100
AcDbRegAppTableRecord
  2
ACAD
 70
0
  0
ENDTAB
  0
TABLE
  2
BLOCK_RECORD
  5
1
100
AcDbSymbolTable
 70
0
  0
BLOCK_RECORD
  5
210
100
AcDbSymbolTableRecord
100
AcDbBlockTableRecord
  2
*Model_Space
  0
BLOCK_RECORD
  5
211
100
AcDbSymbolTableRecord
100
AcDbBlockTableRecord
  2
*Paper_Space
  0
BLOCK_RECORD
  5
212
100
AcDbSymbolTableRecord
100
AcDbBlockTableRecord
  2
_FILLED
  0
ENDTAB
  0
TABLE
  2
DIMSTYLE
  5
A
100
AcDbSymbolTable
 70
1
100
AcDbDimStyleTable
 71
0
  0
DIMSTYLE
105
213
100
AcDbSymbolTableRecord
100
AcDbDimStyleTableRecord
  2
STANDARD
 70
0
  3

  4

 40
1.0
 41
0.814869151
 42
1.0
 43
0.38
 44
1.0
 45
0.0
 46
0.0
 47
0.01
 48
0.01
140
1.1408168114
141
0.09
142
0.0
143
25.4
144
1.0
145
0.0
146
1.0
147
0.625
 71
1
 72
0
 73
0
 74
0
 75
0
 76
0
 77
1
 78
8
 79
2
170
0
171
1
172
0
173
0
174
0
175
0
176
0
177
0
178
0
270
2
179
2
271
2
272
2
273
2
274
2
275
0
280
0
281
0
282
0
283
1
284
8
285
0
286
0
287
3
288
0
340
11
278
46
341
212
342
212
343
212
344
212
  0
ENDTAB
  0
ENDSEC
  0
SECTION
  2
BLOCKS
  0
BLOCK
  5
20
100
AcDbEntity
  8
0
100
AcDbBlockBegin
  2
*Model_Space
 70
0
 10
0.0
 20
0.0
 30
0.0
  3
*Model_Space
  1

  0
ENDBLK
  5
21
100
AcDbEntity
  8
0
100
AcDbBlockEnd
  0
BLOCK
  5
1C
100
AcDbEntity
  8
0
100
AcDbBlockBegin
  2
*Paper_Space
 70
0
 10
0.0
 20
0.0
 30
0.0
  3
*Paper_Space
  1

  0
ENDBLK
  5
1D
100
AcDbEntity
  8
0
100
AcDbBlockEnd
  0
BLOCK
  5
214
100
AcDbEntity
  8
0
100
AcDbBlockBegin
  2
_FILLED
 70
64
 10
0.0
 20
0.0
  3
_FILLED
  1

  0
SOLID
  5
215
100
AcDbEntity
  8
0
  6
BYBLOCK
 62
0
100
AcDbTrace
 10
0.0
 20
0.0
 11
-1.0
 21
0.25
 12
-1.0
 22
-0.25
 13
-1.0
 23
-0.25
  0
ENDBLK
  5
216
100
AcDbEntity
  8
0
  6
BYBLOCK
 62
0
100
AcDbBlockEnd
  0
ENDSEC
  0
SECTION
  2
ENTITIES
  0
LINE
  5
217
100
AcDbEntity
  8
0
100
AcDbLine
 62
7
  6
BYLAYER
 10
15.2679945025
 20
40.6402078771
 11
15.2679945025
 21
42.2361674731
  0
LINE
  5
218
100
AcDbEntity
  8
0
100
AcDbLine
 62
7
  6
BYLAYER
 10
15.2679944964
 20
55.0442482812
 11
15.2679944964
 21
56.6402078771
  0
LINE
  5
219
100
AcDbEntity
  8
0
100
AcDbLine
 62
7
  6
BYLAYER
 10
15.2679944964
 20
40.6402078771
 11
37.9179944964
 21
40.6402078771
  0
LINE
  5
21A
100
AcDbEntity
  8
0
100
AcDbLine
 62
7
  6
BYLAYER
 10
38.1679944964
 20
40.7402078771
 11
38.6179944964
 21
40.7402078771
  0
LINE
  5
21B
100
AcDbEntity
  8
0
100
AcDbLine
 62
7
  6
BYLAYER
 10
15.2679944964
 20
42.2361674731
 11
37.9179944964
 21
42.2361674731
  0
LINE
  5
21C
100
AcDbEntity
  8
0
100
AcDbLine
 62
7
  6
BYLAYER
 10
60.7991923429
 20
44.0214057236
 11
58.5367966499
 21
44.0214057236
  0
LINE
  5
21D
100
AcDbEntity
  8
0
100
AcDbLine
 62
7
  6
BYLAYER
 10
49.1460478527
 20
44.2452078771
 11
52.6899411401
 21
44.2452078771
  0
LINE
  5
21E
100
AcDbEntity
  8
0
100
AcDbLine
 62
7
  6
BYLAYER
 10
39.7179944964
 20
44.6402078771
 11
48.6179944964
 21
44.6402078771
  0
LINE
  5
21F
100
AcDbEntity
  8
0
100
AcDbLine
 62
7
  6
BYLAYER
 10
52.9179944964
 20
46.1402078771
 11
57.9179944964
 21
46.1402078771
  0
LINE
  5
220
100
AcDbEntity
  8
0
100
AcDbLine
 62
7
  6
BYLAYER
 10
60.7991923429
 20
46.3308068004
 11
58.5367966499
 21
46.3308068004
  0
LINE
  5
221
100
AcDbEntity
  8
0
100
AcDbLine
 62
7
  6
BYLAYER
 10
49.2627388443
 20
46.3744930216
 11
52.5732501484
 21
46.3744930216
  0
LINE
  5
222
100
AcDbEntity
  8
0
100
AcDbLine
 62
7
  6
BYLAYER
 10
48.6179944964
 20
46.703716204
 11
44.4179944964
 21
46.703716204
  0
LINE
  5
223
100
AcDbEntity
  8
0
100
AcDbLine
 62
7
  6
BYLAYER
 10
9.2679922758
 20
48.640207816
 11
7.2679966163
 21
48.6402078493
  0
LINE
  5
224
100
AcDbEntity
  8
0
100
AcDbLine
 62
7
  6
BYLAYER
 10
44.4179944964
 20
50.5766995502
 11
48.6179944964
 21
50.5766995502
  0
LINE
  5
225
100
AcDbEntity
  8
0
100
AcDbLine
 62
7
  6
BYLAYER
 10
37.9179944964
 20
56.6402078771
 11
37.9179944964
 21
40.6402078771
  0
LINE
  5
226
100
AcDbEntity
  8
0
100
AcDbLine
 62
7
  6
BYLAYER
 10
38.1679944964
 20
40.7402078771
 11
38.1679944964
 21
56.5402078771
  0
LINE
  5
227
100
AcDbEntity
  8
0
100
AcDbLine
 62
7
  6
BYLAYER
 10
49.2627388443
 20
50.9059227327
 11
52.5732501484
 21
50.9059227327
  0
LINE
  5
228
100
AcDbEntity
  8
0
100
AcDbLine
 62
7
  6
BYLAYER
 10
60.7991923429
 20
50.9496089539
 11
58.5367966499
 21
50.9496089539
  0
LINE
  5
229
100
AcDbEntity
  8
0
100
AcDbLine
 62
7
  6
BYLAYER
 10
52.9179944964
 20
51.1402078771
 11
57.9179944964
 21
51.1402078771
  0
LINE
  5
22A
100
AcDbEntity
  8
0
100
AcDbLine
 62
7
  6
BYLAYER
 10
39.7179944964
 20
52.6402078771
 11
48.6179944964
 21
52.6402078771
  0
LINE
  5
22B
100
AcDbEntity
  8
0
100
AcDbLine
 62
7
  6
BYLAYER
 10
38.6179944964
 20
56.5402078771
 11
38.6179944964
 21
40.7402078771
  0
LINE
  5
22C
100
AcDbEntity
  8
0
100
AcDbLine
 62
7
  6
BYLAYER
 10
39.2179944964
 20
45.0108893548
 11
39.2179944964
 21
44.8062621796
  0
LINE
  5
22D
100
AcDbEntity
  8
0
100
AcDbLine
 62
7
  6
BYLAYER
 10
39.2586681607
 20
56.2515230658
 11
39.2586681607
 21
52.6440224199
  0
LINE
  5
22E
100
AcDbEntity
  8
0
100
AcDbLine
 62
7
  6
BYLAYER
 10
39.2586681607
 20
52.2477081234
 11
39.2586681607
 21
45.0327072171
  0
LINE
  5
22F
100
AcDbEntity
  8
0
100
AcDbLine
 62
7
  6
BYLAYER
 10
39.2586681607
 20
44.6363929348
 11
39.2586681607
 21
41.0288926743
  0
LINE
  5
230
100
AcDbEntity
  8
0
100
AcDbLine
 62
7
  6
BYLAYER
 10
39.3179944964
 20
56.1594521833
 11
39.3179944964
 21
52.5045731892
  0
LINE
  5
231
100
AcDbEntity
  8
0
100
AcDbLine
 62
7
  6
BYLAYER
 10
39.3179944964
 20
52.1833236792
 11
39.3179944964
 21
45.097092075
  0
LINE
  5
232
100
AcDbEntity
  8
0
100
AcDbLine
 62
7
  6
BYLAYER
 10
39.3179944964
 20
44.7758425651
 11
39.3179944964
 21
41.120963571
  0
LINE
  5
233
100
AcDbEntity
  8
0
100
AcDbLine
 62
7
  6
BYLAYER
 10
39.7179944964
 20
53.6402023514
 11
39.7179944964
 21
43.6402134029
  0
LINE
  5
234
100
AcDbEntity
  8
0
100
AcDbLine
 62
7
  6
BYLAYER
 10
49.1460478527
 20
53.0352078771
 11
52.6899411401
 21
53.0352078771
  0
LINE
  5
235
100
AcDbEntity
  8
0
100
AcDbLine
 62
7
  6
BYLAYER
 10
60.7991923429
 20
53.2590100306
 11
58.5367966499
 21
53.2590100306
  0
LINE
  5
236
100
AcDbEntity
  8
0
100
AcDbLine
 62
7
  6
BYLAYER
 10
39.7179944964
 20
43.6402078771
 11
39.3179944964
 21
43.2402078771
  0
LINE
  5
237
100
AcDbEntity
  8
0
100
AcDbLine
 62
7
  6
BYLAYER
 10
37.9179944964
 20
55.0442482812
 11
15.2679944964
 21
55.0442482812
  0
LINE
  5
238
100
AcDbEntity
  8
0
100
AcDbLine
 62
7
  6
BYLAYER
 10
39.7179944964
 20
53.6402078771
 11
39.3179944964
 21
54.0402078771
  0
LINE
  5
239
100
AcDbEntity
  8
0
100
AcDbLine
 62
7
  6
BYLAYER
 10
38.7246752976
 20
40.7878902992
 11
38.6179944964
 21
40.7402113608
  0
LINE
  5
23A
100
AcDbEntity
  8
0
100
AcDbLine
 62
7
  6
BYLAYER
 10
37.9179944964
 20
40.6402078771
 11
38.1679944964
 21
40.7402078771
  0
LINE
  5
23B
100
AcDbEntity
  8
0
100
AcDbLine
 62
7
  6
BYLAYER
 10
38.6179944964
 20
56.5402078771
 11
38.1679944964
 21
56.5402078771
  0
LINE
  5
23C
100
AcDbEntity
  8
0
100
AcDbLine
 62
7
  6
BYLAYER
 10
37.9179944964
 20
56.6402078771
 11
15.2679944964
 21
56.6402078771
  0
LINE
  5
23D
100
AcDbEntity
  8
0
100
AcDbLine
 62
7
  6
BYLAYER
 10
38.1679944964
 20
56.5402078771
 11
37.9179944964
 21
56.6402078771
  0
LINE
  5
23E
100
AcDbEntity
  8
0
100
AcDbLine
 62
7
  6
BYLAYER
 10
38.6179944964
 20
56.5402087229
 11
38.724707302
 21
56.4926058414
  0
LINE
  5
23F
100
AcDbEntity
  8
0
100
AcDbLine
 62
7
  6
BYLAYER
 10
44.4179944964
 20
50.5766995502
 11
44.4179944964
 21
46.703716204
  0
LINE
  5
240
100
AcDbEntity
  8
0
100
AcDbLine
 62
7
  6
BYLAYER
 10
48.9179944964
 20
52.6402078771
 11
49.1460478527
 21
53.0352078771
  0
LINE
  5
241
100
AcDbEntity
  8
0
100
AcDbLine
 62
7
  6
BYLAYER
 10
48.9179944964
 20
44.6402078771
 11
49.1460478527
 21
44.2452078771
  0
LINE
  5
242
100
AcDbEntity
  8
0
100
AcDbLine
 62
7
  6
BYLAYER
 10
48.6179944964
 20
52.6402078771
 11
48.6179944964
 21
44.6402078771
  0
LINE
  5
243
100
AcDbEntity
  8
0
100
AcDbLine
 62
7
  6
BYLAYER
 10
48.9179944964
 20
44.6402086762
 11
48.9179944964
 21
52.640207078
  0
LINE
  5
244
100
AcDbEntity
  8
0
100
AcDbLine
 62
7
  6
BYLAYER
 10
57.9179944964
 20
52.6402078771
 11
58.5367966499
 21
53.2590100306
  0
LINE
  5
245
100
AcDbEntity
  8
0
100
AcDbLine
 62
7
  6
BYLAYER
 10
57.9179944964
 20
44.6402078771
 11
58.5367966499
 21
44.0214057236
  0
LINE
  5
246
100
AcDbEntity
  8
0
100
AcDbLine
 62
7
  6
BYLAYER
 10
52.9179944964
 20
52.640207078
 11
52.9179944964
 21
44.6402086762
  0
LINE
  5
247
100
AcDbEntity
  8
0
100
AcDbLine
 62
7
  6
BYLAYER
 10
52.9179944964
 20
44.6402078771
 11
52.6899411401
 21
44.2452078771
  0
LINE
  5
248
100
AcDbEntity
  8
0
100
AcDbLine
 62
7
  6
BYLAYER
 10
52.9179944964
 20
52.6402078771
 11
52.6899411401
 21
53.0352078771
  0
LINE
  5
249
100
AcDbEntity
  8
0
100
AcDbLine
 62
7
  6
BYLAYER
 10
61.4179944964
 20
44.6402078771
 11
60.7991923429
 21
44.0214057236
  0
LINE
  5
24A
100
AcDbEntity
  8
0
100
AcDbLine
 62
7
  6
BYLAYER
 10
61.4179944964
 20
52.6402078771
 11
60.7991923429
 21
53.2590100306
  0
LINE
  5
24B
100
AcDbEntity
  8
0
100
AcDbLine
 62
7
  6
BYLAYER
 10
57.9179944964
 20
44.640257077
 11
57.9179944964
 21
52.6401586772
  0
LINE
  5
24C
100
AcDbEntity
  8
0
100
AcDbLine
 62
7
  6
BYLAYER
 10
61.4179944964
 20
52.6401586772
 11
61.4179944964
 21
44.640257077
  0
ARC
  5
24D
100
AcDbEntity
  8
0
100
AcDbCircle
 62
7
  6
BYLAYER
 10
-42.1993437573
 20
-99.356388453
 40
172.1023254556
100
AcDbArc
 50
61.7505353997
 51
61.9923868438
  0
ARC
  5
24E
100
AcDbEntity
  8
0
100
AcDbCircle
 62
7
  6
BYLAYER
 10
-41.0169517799
 20
194.4250336186
 40
169.5943459748
100
AcDbArc
 50
298.0058251397
 51
298.2512594572
  0
ARC
  5
24F
100
AcDbEntity
  8
0
100
AcDbCircle
 62
7
  6
BYLAYER
 10
48.930349651
 20
163.6173596488
 40
119.3734149546
100
AcDbArc
 50
265.0441912972
 51
265.3527730621
  0
ARC
  5
250
100
AcDbEntity
  8
0
100
AcDbCircle
 62
7
  6
BYLAYER
 10
48.7713089962
 20
-64.4435906867
 40
117.4733986649
100
AcDbArc
 50
94.6447230207
 51
94.9583038951
  0
ARC
  5
251
100
AcDbEntity
  8
0
100
AcDbCircle
 62
7
  6
BYLAYER
 10
7.4879837807
 20
-13.4047406216
 40
76.5595973012
100
AcDbArc
 50
65.4819680756
 51
65.920406001
  0
ARC
  5
252
100
AcDbEntity
  8
0
100
AcDbCircle
 62
7
  6
BYLAYER
 10
7.6595103723
 20
110.3043135713
 40
76.1419108642
100
AcDbArc
 50
294.0786801282
 51
294.5195382587
  0
ARC
  5
253
100
AcDbEntity
  8
0
100
AcDbCircle
 62
7
  6
BYLAYER
 10
15.2679944964
 20
48.6402078771
 40
8.0
100
AcDbArc
 50
90.0
 51
270.0
  0
ARC
  5
254
100
AcDbEntity
  8
0
100
AcDbCircle
 62
7
  6
BYLAYER
 10
51.0405715071
 20
51.9592496939
 40
1.9601036058
100
AcDbArc
 50
16.7008479874
 51
19.9341406492
  0
ARC
  5
255
100
AcDbEntity
  8
0
100
AcDbCircle
 62
7
  6
BYLAYER
 10
50.7639281409
 20
45.3107243372
 40
1.9269420851
100
AcDbArc
 50
196.672540225
 51
199.954640456
  0
ARC
  5
256
100
AcDbEntity
  8
0
100
AcDbCircle
 62
7
  6
BYLAYER
 10
48.6179944964
 20
52.3402078771
 40
0.3
100
AcDbArc
 50
0.0
 51
90.0
  0
ARC
  5
257
100
AcDbEntity
  8
0
100
AcDbCircle
 62
7
  6
BYLAYER
 10
48.6179944964
 20
44.9402078771
 40
0.3
100
AcDbArc
 50
270.0
 51
360.0
  0
SPLINE
  5
258
100
AcDbEntity
  8
0
100
AcDbSpline
 62
7
  6
BYLAYER
 70
0
 71
3
 72
9
 73
5
 74
0
 42
0.0000001
 43
0.0000001
 44
0.0000000001
 40
0.0
 40
0.0
 40
0.0
 40
0.0
 40
0.492290771
 40
1.0
 40
1.0
 40
1.0
 40
1.0
 10
48.9526736957
 20
44.6531050448
 30
0.0
 10
48.9779274821
 20
44.5833912955
 30
0.0
 10
49.0369528803
 20
44.4445168603
 30
0.0
 10
49.1078132767
 20
44.3114321055
 30
0.0
 10
49.1460478527
 20
44.2452078771
 30
0.0
  0
SPLINE
  5
259
100
AcDbEntity
  8
0
100
AcDbSpline
 62
7
  6
BYLAYER
 70
0
 71
3
 72
10
 73
6
 74
0
 42
0.0000001
 43
0.0000001
 44
0.0000000001
 40
0.0
 40
0.0
 40
0.0
 40
0.0
 40
0.2598545766
 40
0.5132629787
 40
1.0
 40
1.0
 40
1.0
 40
1.0
 10
49.2627388443
 20
46.3744930216
 30
0.0
 10
49.2253869732
 20
46.317827423
 30
0.0
 10
49.1542541633
 20
46.2040848531
 30
0.0
 10
49.0290563859
 20
45.9748419014
 30
0.0
 10
48.9544372582
 20
45.7951475111
 30
0.0
 10
48.9179944964
 20
45.6733573065
 30
0.0
  0
SPLINE
  5
25A
100
AcDbEntity
  8
0
100
AcDbSpline
 62
7
  6
BYLAYER
 70
0
 71
3
 72
11
 73
7
 74
0
 42
0.0000001
 43
0.0000001
 44
0.0000000001
 40
0.0
 40
0.0
 40
0.0
 40
0.0
 40
0.2499919581
 40
0.4999865759
 40
0.7499891542
 40
1.0
 40
1.0
 40
1.0
 40
1.0
 10
48.9179944964
 20
48.6402078771
 30
0.0
 10
48.9179944964
 20
48.8317735769
 30
0.0
 10
48.9340163409
 20
49.2150875512
 30
0.0
 10
49.0039724815
 20
49.7860550611
 30
0.0
 10
49.1143551498
 20
50.35049319
 30
0.0
 10
49.2103060224
 20
50.7216572668
 30
0.0
 10
49.2627388443
 20
50.9059227327
 30
0.0
  0
SPLINE
  5
25B
100
AcDbEntity
  8
0
100
AcDbSpline
 62
7
  6
BYLAYER
 70
0
 71
3
 72
10
 73
6
 74
0
 42
0.0000001
 43
0.0000001
 44
0.0000000001
 40
0.0
 40
0.0
 40
0.0
 40
0.0
 40
0.4867371641
 40
0.740145526
 40
1.0
 40
1.0
 40
1.0
 40
1.0
 10
48.9179944964
 20
51.6070584477
 30
0.0
 10
48.9544372689
 20
51.4852682075
 30
0.0
 10
49.0290564162
 20
51.3055737958
 30
0.0
 10
49.1542541953
 20
51.0763308453
 30
0.0
 10
49.2253869879
 20
50.9625883088
 30
0.0
 10
49.2627388443
 20
50.9059227327
 30
0.0
  0
SPLINE
  5
25C
100
AcDbEntity
  8
0
100
AcDbSpline
 62
7
  6
BYLAYER
 70
0
 71
3
 72
9
 73
5
 74
0
 42
0.0000001
 43
0.0000001
 44
0.0000000001
 40
0.0
 40
0.0
 40
0.0
 40
0.0
 40
0.2574726776
 40
1.0
 40
1.0
 40
1.0
 40
1.0
 10
49.1460478527
 20
53.0352078771
 30
0.0
 10
49.121941385
 20
52.9934542503
 30
0.0
 10
49.031883555
 20
52.8293426181
 30
0.0
 10
48.9578531833
 20
52.6557399563
 30
0.0
 10
48.9179944964
 20
52.5225338713
 30
0.0
  0
SPLINE
  5
25D
100
AcDbEntity
  8
0
100
AcDbSpline
 62
7
  6
BYLAYER
 70
0
 71
3
 72
10
 73
6
 74
0
 42
0.0000001
 43
0.0000001
 44
0.0000000001
 40
0.0
 40
0.0
 40
0.0
 40
0.0
 40
0.242957108
 40
0.6159867521
 40
1.0
 40
1.0
 40
1.0
 40
1.0
 10
52.9179944964
 20
44.757881883
 30
0.0
 10
52.9049417875
 20
44.7142602691
 30
0.0
 10
52.867750222
 20
44.6048609673
 30
0.0
 10
52.7929225562
 20
44.4327560002
 30
0.0
 10
52.7259251145
 20
44.3075339492
 30
0.0
 10
52.6899411401
 20
44.2452078771
 30
0.0
  0
SPLINE
  5
25E
100
AcDbEntity
  8
0
100
AcDbSpline
 62
7
  6
BYLAYER
 70
0
 71
3
 72
9
 73
5
 74
0
 42
0.0000001
 43
0.0000001
 44
0.0000000001
 40
0.0
 40
0.0
 40
0.0
 40
0.0
 40
0.5077111145
 40
1.0
 40
1.0
 40
1.0
 40
1.0
 10
52.6899411401
 20
53.0352078771
 30
0.0
 10
52.72815639
 20
52.9690171227
 30
0.0
 10
52.7989868139
 20
52.8360033381
 30
0.0
 10
52.8579861481
 20
52.6972017764
 30
0.0
 10
52.8832357782
 20
52.6275269785
 30
0.0
  0
SPLINE
  5
25F
100
AcDbEntity
  8
0
100
AcDbSpline
 62
7
  6
BYLAYER
 70
0
 71
3
 72
10
 73
6
 74
0
 42
0.0000001
 43
0.0000001
 44
0.0000000001
 40
0.0
 40
0.0
 40
0.0
 40
0.0
 40
0.4867453556
 40
0.7401525403
 40
1.0
 40
1.0
 40
1.0
 40
1.0
 10
52.9179944964
 20
51.6070584477
 30
0.0
 10
52.8815510971
 20
51.4852661128
 30
0.0
 10
52.8069320643
 20
51.3055696861
 30
0.0
 10
52.6817352889
 20
51.0763259358
 30
0.0
 10
52.6106010104
 20
50.9625868002
 30
0.0
 10
52.5732501484
 20
50.9059227327
 30
0.0
  0
SPLINE
  5
260
100
AcDbEntity
  8
0
100
AcDbSpline
 62
7
  6
BYLAYER
 70
0
 71
3
 72
11
 73
7
 74
0
 42
0.0000001
 43
0.0000001
 44
0.0000000001
 40
0.0
 40
0.0
 40
0.0
 40
0.0
 40
0.2500108778
 40
0.5000134767
 40
0.7500080909
 40
1.0
 40
1.0
 40
1.0
 40
1.0
 10
52.5732501484
 20
50.9059227327
 30
0.0
 10
52.6256829771
 20
50.7216572432
 30
0.0
 10
52.721633854
 20
50.350493126
 30
0.0
 10
52.8320165392
 20
49.7860549616
 30
0.0
 10
52.9019726484
 20
49.2150874724
 30
0.0
 10
52.9179944964
 20
48.8317735392
 30
0.0
 10
52.9179944964
 20
48.640207877
 30
0.0
  0
SPLINE
  5
261
100
AcDbEntity
  8
0
100
AcDbSpline
 62
7
  6
BYLAYER
 70
0
 71
3
 72
11
 73
7
 74
0
 42
0.0000001
 43
0.0000001
 44
0.0000000001
 40
0.0
 40
0.0
 40
0.0
 40
0.0
 40
0.2499919445
 40
0.4999865732
 40
0.749989059
 40
1.0
 40
1.0
 40
1.0
 40
1.0
 10
52.9179944964
 20
48.640207877
 30
0.0
 10
52.9179944964
 20
48.4486421854
 30
0.0
 10
52.9019723129
 20
48.0653282217
 30
0.0
 10
52.8320165656
 20
47.4943607661
 30
0.0
 10
52.7216347756
 20
46.9299224141
 30
0.0
 10
52.625682991
 20
46.5587585599
 30
0.0
 10
52.5732501484
 20
46.3744930216
 30
0.0
  0
SPLINE
  5
262
100
AcDbEntity
  8
0
100
AcDbSpline
 62
7
  6
BYLAYER
 70
0
 71
3
 72
11
 73
7
 74
0
 42
0.0000001
 43
0.0000001
 44
0.0000000001
 40
0.0
 40
0.0
 40
0.0
 40
0.0
 40
0.2500109806
 40
0.5000134875
 40
0.7500081109
 40
1.0
 40
1.0
 40
1.0
 40
1.0
 10
49.2627388443
 20
46.3744930216
 30
0.0
 10
49.2103059935
 20
46.5587585892
 30
0.0
 10
49.1143541594
 20
46.9299224794
 30
0.0
 10
49.0039724076
 20
47.4943608838
 30
0.0
 10
48.9340166809
 20
48.0653283105
 30
0.0
 10
48.9179944964
 20
48.4486422279
 30
0.0
 10
48.9179944964
 20
48.6402078771
 30
0.0
  0
SPLINE
  5
263
100
AcDbEntity
  8
0
100
AcDbSpline
 62
7
  6
BYLAYER
 70
0
 71
3
 72
10
 73
6
 74
0
 42
0.0000001
 43
0.0000001
 44
0.0000000001
 40
0.0
 40
0.0
 40
0.0
 40
0.0
 40
0.2598475145
 40
0.5132547273
 40
1.0
 40
1.0
 40
1.0
 40
1.0
 10
52.5732501484
 20
46.3744930216
 30
0.0
 10
52.6106010183
 20
46.317828942
 30
0.0
 10
52.6817353516
 20
46.2040898138
 30
0.0
 10
52.8069320508
 20
45.9748460203
 30
0.0
 10
52.8815511032
 20
45.7951496209
 30
0.0
 10
52.9179944964
 20
45.6733573065
 30
0.0
  0
SPLINE
  5
264
100
AcDbEntity
  8
0
100
AcDbSpline
 62
7
  6
BYLAYER
 70
0
 71
3
 72
15
 73
11
 74
0
 42
0.0000001
 43
0.0000001
 44
0.0000000001
 40
0.0
 40
0.0
 40
0.0
 40
0.0
 40
0.1124503645
 40
0.2267503478
 40
0.3443553341
 40
0.4662329311
 40
0.5928203721
 40
0.7241541744
 40
0.8600064795
 40
1.0
 40
1.0
 40
1.0
 40
1.0
 10
61.4179944964
 20
45.1761062634
 30
0.0
 10
61.4179944965
 20
45.1257374196
 30
0.0
 10
61.4102200094
 20
45.0240144254
 30
0.0
 10
61.3759635284
 20
44.873127206
 30
0.0
 10
61.3205420576
 20
44.7242256526
 30
0.0
 10
61.2459640297
 20
44.5778608704
 30
0.0
 10
61.1544512726
 20
44.4341973851
 30
0.0
 10
61.0481300331
 20
44.2932777992
 30
0.0
 10
60.9290508935
 20
44.1550002315
 30
0.0
 10
60.8435321758
 20
44.0657455565
 30
0.0
 10
60.7991923429
 20
44.0214057236
 30
0.0
  0
SPLINE
  5
265
100
AcDbEntity
  8
0
100
AcDbSpline
 62
7
  6
BYLAYER
 70
0
 71
3
 72
15
 73
11
 74
0
 42
0.0000001
 43
0.0000001
 44
0.0000000001
 40
0.0
 40
0.0
 40
0.0
 40
0.0
 40
0.1399939696
 40
0.2758466122
 40
0.4071806548
 40
0.533768151
 40
0.6556460977
 40
0.7732507655
 40
0.887550023
 40
1.0
 40
1.0
 40
1.0
 40
1.0
 10
60.7991923429
 20
53.2590100306
 30
0.0
 10
60.8435323153
 20
53.2146700582
 30
0.0
 10
60.9290515251
 20
53.1254153762
 30
0.0
 10
61.0481307793
 20
52.9871372968
 30
0.0
 10
61.1544516257
 20
52.8462170503
 30
0.0
 10
61.2459640489
 20
52.7025530924
 30
0.0
 10
61.3205430567
 20
52.5561887182
 30
0.0
 10
61.3759631689
 20
52.4072870334
 30
0.0
 10
61.4102207752
 20
52.2564007487
 30
0.0
 10
61.4179944964
 20
52.1546781608
 30
0.0
 10
61.4179944964
 20
52.1043094936
 30
0.0
  0
SPLINE
  5
266
100
AcDbEntity
  8
0
100
AcDbSpline
 62
7
  6
BYLAYER
 70
0
 71
3
 72
15
 73
11
 74
0
 42
0.0000001
 43
0.0000001
 44
0.0000000001
 40
0.0
 40
0.0
 40
0.0
 40
0.0
 40
0.1399940219
 40
0.2758467133
 40
0.4071807583
 40
0.533768201
 40
0.6556460951
 40
0.773250746
 40
0.8875500136
 40
1.0
 40
1.0
 40
1.0
 40
1.0
 10
58.5367966499
 20
44.0214057236
 30
0.0
 10
58.4924566589
 20
44.0657457146
 30
0.0
 10
58.4069373667
 20
44.1550003864
 30
0.0
 10
58.2878580054
 20
44.2932784478
 30
0.0
 10
58.1815371425
 20
44.4341986917
 30
0.0
 10
58.090024763
 20
44.5778626354
 30
0.0
 10
58.0154458861
 20
44.724227021
 30
0.0
 10
57.9600257851
 20
44.8731286881
 30
0.0
 10
57.925768234
 20
45.0240149935
 30
0.0
 10
57.917994496
 20
45.1257375918
 30
0.0
 10
57.9179944962
 20
45.1761062655
 30
0.0
  0
SPLINE
  5
267
100
AcDbEntity
  8
0
100
AcDbSpline
 62
7
  6
BYLAYER
 70
0
 71
3
 72
15
 73
11
 74
0
 42
0.0000001
 43
0.0000001
 44
0.0000000001
 40
0.0
 40
0.0
 40
0.0
 40
0.0
 40
0.1124503548
 40
0.2267503277
 40
0.3443553327
 40
0.4662329807
 40
0.5928204734
 40
0.7241542733
 40
0.8600065311
 40
1.0
 40
1.0
 40
1.0
 40
1.0
 10
57.9179944962
 20
52.1043094955
 30
0.0
 10
57.9179944964
 20
52.1546783328
 30
0.0
 10
57.9257689566
 20
52.2564013171
 30
0.0
 10
57.9600254968
 20
52.407288517
 30
0.0
 10
58.0154469906
 20
52.5561900835
 30
0.0
 10
58.0900251412
 20
52.7025548575
 30
0.0
 10
58.1815379373
 20
52.846218359
 30
0.0
 10
58.2878591614
 20
52.9871379471
 30
0.0
 10
58.4069381983
 20
53.1254155307
 30
0.0
 10
58.4924568353
 20
53.214670216
 30
0.0
 10
58.5367966499
 20
53.2590100306
 30
0.0
  0
SPLINE
  5
268
100
AcDbEntity
  8
0
100
AcDbSpline
 62
7
  6
BYLAYER
 70
0
 71
3
 72
15
 73
11
 74
0
 42
0.0000001
 43
0.0000001
 44
0.0000000001
 40
0.0
 40
0.0
 40
0.0
 40
0.0
 40
0.1124503548
 40
0.2267503277
 40
0.3443553327
 40
0.4662329807
 40
0.5928204735
 40
0.7241542733
 40
0.8600065311
 40
1.0
 40
1.0
 40
1.0
 40
1.0
 10
57.9179944962
 20
45.1761062655
 30
0.0
 10
57.9179944964
 20
45.2264751028
 30
0.0
 10
57.9257689566
 20
45.3281980871
 30
0.0
 10
57.9600254969
 20
45.4790852869
 30
0.0
 10
58.0154469907
 20
45.6279868534
 30
0.0
 10
58.0900251413
 20
45.7743516274
 30
0.0
 10
58.1815379373
 20
45.9180151288
 30
0.0
 10
58.2878591615
 20
46.0589347169
 30
0.0
 10
58.4069381984
 20
46.1972123004
 30
0.0
 10
58.4924568353
 20
46.2864669858
 30
0.0
 10
58.5367966499
 20
46.3308068004
 30
0.0
  0
SPLINE
  5
269
100
AcDbEntity
  8
0
100
AcDbSpline
 62
7
  6
BYLAYER
 70
0
 71
3
 72
13
 73
9
 74
0
 42
0.0000001
 43
0.0000001
 44
0.0000000001
 40
0.0
 40
0.0
 40
0.0
 40
0.0
 40
0.2499716815
 40
0.4999125338
 40
0.6249294545
 40
0.7499522425
 40
0.8749872958
 40
1.0
 40
1.0
 40
1.0
 40
1.0
 10
58.5367966499
 20
46.3308068004
 30
0.0
 10
58.4469044015
 20
46.5105912971
 30
0.0
 10
58.2795324673
 20
46.8765724183
 30
0.0
 10
58.1131340969
 20
47.351824236
 30
0.0
 10
58.0142838866
 20
47.7417706609
 30
0.0
 10
57.9593981876
 20
48.0385824525
 30
0.0
 10
57.9256177225
 20
48.3385366484
 30
0.0
 10
57.9179944963
 20
48.5396836869
 30
0.0
 10
57.9179944964
 20
48.6402078771
 30
0.0
  0
SPLINE
  5
26A
100
AcDbEntity
  8
0
100
AcDbSpline
 62
7
  6
BYLAYER
 70
0
 71
3
 72
13
 73
9
 74
0
 42
0.0000001
 43
0.0000001
 44
0.0000000001
 40
0.0
 40
0.0
 40
0.0
 40
0.0
 40
0.1250130721
 40
0.2500488847
 40
0.3750718862
 40
0.5000886032
 40
0.7500289722
 40
1.0
 40
1.0
 40
1.0
 40
1.0
 10
61.4179944964
 20
48.6402078771
 30
0.0
 10
61.4179944965
 20
48.5396833912
 30
0.0
 10
61.4103705767
 20
48.3385354919
 30
0.0
 10
61.3765910596
 20
48.0385800906
 30
0.0
 10
61.3217039221
 20
47.7417679335
 30
0.0
 10
61.2228551494
 20
47.3518215535
 30
0.0
 10
61.0564552331
 20
46.8765713499
 30
0.0
 10
60.889084356
 20
46.5105908267
 30
0.0
 10
60.7991923429
 20
46.3308068004
 30
0.0
  0
SPLINE
  5
26B
100
AcDbEntity
  8
0
100
AcDbSpline
 62
7
  6
BYLAYER
 70
0
 71
3
 72
15
 73
11
 74
0
 42
0.0000001
 43
0.0000001
 44
0.0000000001
 40
0.0
 40
0.0
 40
0.0
 40
0.0
 40
0.1399939696
 40
0.2758466122
 40
0.4071806548
 40
0.533768151
 40
0.6556460977
 40
0.7732507655
 40
0.887550023
 40
1.0
 40
1.0
 40
1.0
 40
1.0
 10
60.7991923429
 20
46.3308068004
 30
0.0
 10
60.8435323153
 20
46.286466828
 30
0.0
 10
60.9290515251
 20
46.197212146
 30
0.0
 10
61.0481307793
 20
46.0589340665
 30
0.0
 10
61.1544516256
 20
45.9180138201
 30
0.0
 10
61.2459640488
 20
45.7743498622
 30
0.0
 10
61.3205430566
 20
45.627985488
 30
0.0
 10
61.3759631688
 20
45.4790838032
 30
0.0
 10
61.4102207751
 20
45.3281975185
 30
0.0
 10
61.4179944964
 20
45.2264749306
 30
0.0
 10
61.4179944964
 20
45.1761062634
 30
0.0
  0
SPLINE
  5
26C
100
AcDbEntity
  8
0
100
AcDbSpline
 62
7
  6
BYLAYER
 70
0
 71
3
 72
13
 73
9
 74
0
 42
0.0000001
 43
0.0000001
 44
0.0000000001
 40
0.0
 40
0.0
 40
0.0
 40
0.0
 40
0.1250130275
 40
0.250048898
 40
0.3750720526
 40
0.5000885859
 40
0.7500286835
 40
1.0
 40
1.0
 40
1.0
 40
1.0
 10
57.9179944964
 20
48.6402078771
 30
0.0
 10
57.9179944963
 20
48.7407323357
 30
0.0
 10
57.9256185372
 20
48.941880265
 30
0.0
 10
57.959398302
 20
49.2418357852
 30
0.0
 10
58.0142845987
 20
49.5386481162
 30
0.0
 10
58.1131316264
 20
49.9285947597
 30
0.0
 10
58.27953349
 20
50.4038442793
 30
0.0
 10
58.4469045253
 20
50.7698247047
 30
0.0
 10
58.5367966499
 20
50.9496089539
 30
0.0
  0
SPLINE
  5
26D
100
AcDbEntity
  8
0
100
AcDbSpline
 62
7
  6
BYLAYER
 70
0
 71
3
 72
15
 73
11
 74
0
 42
0.0000001
 43
0.0000001
 44
0.0000000001
 40
0.0
 40
0.0
 40
0.0
 40
0.0
 40
0.1399940219
 40
0.2758467133
 40
0.4071807583
 40
0.533768201
 40
0.6556460951
 40
0.773250746
 40
0.8875500136
 40
1.0
 40
1.0
 40
1.0
 40
1.0
 10
58.5367966499
 20
50.9496089539
 30
0.0
 10
58.4924566589
 20
50.9939489449
 30
0.0
 10
58.4069373668
 20
51.0832036167
 30
0.0
 10
58.2878580054
 20
51.221481678
 30
0.0
 10
58.1815371426
 20
51.3624019218
 30
0.0
 10
58.0900247631
 20
51.5060658656
 30
0.0
 10
58.0154458862
 20
51.6524302511
 30
0.0
 10
57.9600257852
 20
51.8013319182
 30
0.0
 10
57.925768234
 20
51.9522182236
 30
0.0
 10
57.9179944961
 20
52.0539408218
 30
0.0
 10
57.9179944962
 20
52.1043094955
 30
0.0
  0
SPLINE
  5
26E
100
AcDbEntity
  8
0
100
AcDbSpline
 62
7
  6
BYLAYER
 70
0
 71
3
 72
13
 73
9
 74
0
 42
0.0000001
 43
0.0000001
 44
0.0000000001
 40
0.0
 40
0.0
 40
0.0
 40
0.0
 40
0.2499720143
 40
0.4999126281
 40
0.624929376
 40
0.7499522992
 40
0.8749873624
 40
1.0
 40
1.0
 40
1.0
 40
1.0
 10
60.7991923429
 20
50.9496089539
 30
0.0
 10
60.8890847181
 20
50.7698242035
 30
0.0
 10
61.05645691
 20
50.4038431556
 30
0.0
 10
61.2228570987
 20
49.9285919015
 30
0.0
 10
61.3217055355
 20
49.5386451872
 30
0.0
 10
61.3765903732
 20
49.2418332672
 30
0.0
 10
61.4103711992
 20
48.9418790367
 30
0.0
 10
61.4179944965
 20
48.7407320218
 30
0.0
 10
61.4179944964
 20
48.6402078771
 30
0.0
  0
SPLINE
  5
26F
100
AcDbEntity
  8
0
100
AcDbSpline
 62
7
  6
BYLAYER
 70
0
 71
3
 72
15
 73
11
 74
0
 42
0.0000001
 43
0.0000001
 44
0.0000000001
 40
0.0
 40
0.0
 40
0.0
 40
0.0
 40
0.1124503645
 40
0.2267503478
 40
0.3443553341
 40
0.4662329311
 40
0.5928203721
 40
0.7241541744
 40
0.8600064795
 40
1.0
 40
1.0
 40
1.0
 40
1.0
 10
61.4179944964
 20
52.1043094936
 30
0.0
 10
61.4179944965
 20
52.0539406497
 30
0.0
 10
61.4102200094
 20
51.9522176556
 30
0.0
 10
61.3759635284
 20
51.8013304362
 30
0.0
 10
61.3205420576
 20
51.6524288828
 30
0.0
 10
61.2459640296
 20
51.5060641006
 30
0.0
 10
61.1544512726
 20
51.3624006153
 30
0.0
 10
61.0481300331
 20
51.2214810294
 30
0.0
 10
60.9290508935
 20
51.0832034617
 30
0.0
 10
60.8435321757
 20
50.9939487868
 30
0.0
 10
60.7991923429
 20
50.9496089539
 30
0.0
  0
SPLINE
  5
270
100
AcDbEntity
  8
0
100
AcDbSpline
 62
7
  6
BYLAYER
 70
0
 71
3
 72
16
 73
12
 74
0
 42
0.0000001
 43
0.0000001
 44
0.0000000001
 40
0.0
 40
0.0
 40
0.0
 40
0.0
 40
0.3605410134
 40
0.5232896145
 40
0.6665068666
 40
0.7861275855
 40
0.8798246093
 40
0.9171465536
 40
0.9487120943
 40
0.9756861955
 40
1.0
 40
1.0
 40
1.0
 40
1.0
 10
48.6179944964
 20
46.703716204
 30
0.0
 10
48.6568861178
 20
46.703716204
 30
0.0
 10
48.7134199846
 20
46.7064135229
 30
0.0
 10
48.7846799018
 20
46.7162136948
 30
0.0
 10
48.829655243
 20
46.7257270979
 30
0.0
 10
48.8664098754
 20
46.7372058329
 30
0.0
 10
48.8910583197
 20
46.7487891444
 30
0.0
 10
48.9052425193
 20
46.7592086529
 30
0.0
 10
48.9124269421
 20
46.7667458404
 30
0.0
 10
48.9169262841
 20
46.7746000655
 30
0.0
 10
48.9179944964
 20
46.7801675807
 30
0.0
 10
48.9179944964
 20
46.782790315
 30
0.0
  0
SPLINE
  5
271
100
AcDbEntity
  8
0
100
AcDbSpline
 62
7
  6
BYLAYER
 70
0
 71
3
 72
16
 73
12
 74
0
 42
0.0000001
 43
0.0000001
 44
0.0000000001
 40
0.0
 40
0.0
 40
0.0
 40
0.0
 40
0.360537453
 40
0.5232845444
 40
0.6665005794
 40
0.7861182179
 40
0.8798102162
 40
0.9171323887
 40
0.948702301
 40
0.975682769
 40
1.0
 40
1.0
 40
1.0
 40
1.0
 10
48.6179944964
 20
50.5766995502
 30
0.0
 10
48.6568860424
 20
50.5766995502
 30
0.0
 10
48.7134197442
 20
50.5740005405
 30
0.0
 10
48.7846794979
 20
50.5642003389
 30
0.0
 10
48.8296547007
 20
50.5546874803
 30
0.0
 10
48.8664092475
 20
50.5432116914
 30
0.0
 10
48.8910592369
 20
50.5316327975
 30
0.0
 10
48.9052435274
 20
50.5212129821
 30
0.0
 10
48.9124274854
 20
50.5136734719
 30
0.0
 10
48.9169261488
 20
50.505817104
 30
0.0
 10
48.9179944964
 20
50.500248564
 30
0.0
 10
48.9179944964
 20
50.4976254392
 30
0.0
  0
SPLINE
  5
272
100
AcDbEntity
  8
0
100
AcDbSpline
 62
7
  6
BYLAYER
 70
0
 71
3
 72
11
 73
7
 74
0
 42
0.0000001
 43
0.0000001
 44
0.0000000001
 40
0.0
 40
0.0
 40
0.0
 40
0.0
 40
0.1812458826
 40
0.4126499471
 40
0.690679005
 40
1.0
 40
1.0
 40
1.0
 40
1.0
 10
39.3179944964
 20
45.097092075
 30
0.0
 10
39.3179944964
 20
45.0916143515
 30
0.0
 10
39.3138791702
 20
45.0792618939
 30
0.0
 10
39.3009769383
 20
45.0626676328
 30
0.0
 10
39.2820429412
 20
45.0465212322
 30
0.0
 10
39.2669063213
 20
45.0371347511
 30
0.0
 10
39.2586715262
 20
45.0327095539
 30
0.0
  0
SPLINE
  5
273
100
AcDbEntity
  8
0
100
AcDbSpline
 62
7
  6
BYLAYER
 70
0
 71
3
 72
11
 73
7
 74
0
 42
0.0000001
 43
0.0000001
 44
0.0000000001
 40
0.0
 40
0.0
 40
0.0
 40
0.0
 40
0.3092985012
 40
0.5873527443
 40
0.8187831825
 40
1.0
 40
1.0
 40
1.0
 40
1.0
 10
39.2586549899
 20
52.2477172544
 30
0.0
 10
39.2668910785
 20
52.2432913621
 30
0.0
 10
39.28203269
 20
52.2339047491
 30
0.0
 10
39.3009710818
 20
52.2177539911
 30
0.0
 10
39.3138810662
 20
52.2011579297
 30
0.0
 10
39.3179944964
 20
52.188801783
 30
0.0
 10
39.3179944964
 20
52.1833236792
 30
0.0
  0
SPLINE
  5
274
100
AcDbEntity
  8
0
100
AcDbSpline
 62
7
  6
BYLAYER
 70
0
 71
3
 72
9
 73
5
 74
0
 42
0.0000001
 43
0.0000001
 44
0.0000000001
 40
0.0
 40
0.0
 40
0.0
 40
0.0
 40
0.506960946
 40
1.0
 40
1.0
 40
1.0
 40
1.0
 10
39.3179944964
 20
41.120963571
 30
0.0
 10
39.3179944964
 20
41.1016760165
 30
0.0
 10
39.3064854984
 20
41.0628002099
 30
0.0
 10
39.2757376447
 20
41.0366800876
 30
0.0
 10
39.2586715262
 20
41.0288950997
 30
0.0
  0
SPLINE
  5
275
100
AcDbEntity
  8
0
100
AcDbSpline
 62
7
  6
BYLAYER
 70
0
 71
3
 72
9
 73
5
 74
0
 42
0.0000001
 43
0.0000001
 44
0.0000000001
 40
0.0
 40
0.0
 40
0.0
 40
0.0
 40
0.4930428313
 40
1.0
 40
1.0
 40
1.0
 40
1.0
 10
39.2586549902
 20
56.2515325332
 30
0.0
 10
39.2757243522
 20
56.2437460658
 30
0.0
 10
39.3064823994
 20
56.2176273053
 30
0.0
 10
39.3179944964
 20
56.178743112
 30
0.0
 10
39.3179944964
 20
56.1594521833
 30
0.0
  0
SPLINE
  5
276
100
AcDbEntity
  8
0
100
AcDbSpline
 62
7
  6
BYLAYER
 70
0
 71
3
 72
15
 73
11
 74
0
 42
0.0000001
 43
0.0000001
 44
0.0000000001
 40
0.0
 40
0.0
 40
0.0
 40
0.0
 40
0.1280890389
 40
0.2556179372
 40
0.3821836487
 40
0.5075746852
 40
0.6318116418
 40
0.7550911361
 40
0.8777105082
 40
1.0
 40
1.0
 40
1.0
 40
1.0
 10
9.2679922758
 20
48.640207877
 30
0.0
 10
9.2680104923
 20
48.2248137846
 30
0.0
 10
9.3438732392
 20
47.3938347477
 30
0.0
 10
9.6816681899
 20
46.1943520422
 30
0.0
 10
10.2314684186
 20
45.0851339079
 30
0.0
 10
10.9745843497
 20
44.1080721412
 30
0.0
 10
11.8855189934
 20
43.3006384012
 30
0.0
 10
12.9322343358
 20
42.6959566476
 30
0.0
 10
14.0746279722
 20
42.3209726407
 30
0.0
 10
14.8714083954
 20
42.2361629373
 30
0.0
 10
15.2679944964
 20
42.2361633607
 30
0.0
  0
SPLINE
  5
277
100
AcDbEntity
  8
0
100
AcDbSpline
 62
7
  6
BYLAYER
 70
0
 71
3
 72
15
 73
11
 74
0
 42
0.0000001
 43
0.0000001
 44
0.0000000001
 40
0.0
 40
0.0
 40
0.0
 40
0.0
 40
0.1222895239
 40
0.2449089288
 40
0.3681884569
 40
0.4924254522
 40
0.6178165247
 40
0.7443822776
 40
0.8719112178
 40
1.0
 40
1.0
 40
1.0
 40
1.0
 10
15.2679944964
 20
55.0442524189
 30
0.0
 10
14.8714082897
 20
55.0442519955
 30
0.0
 10
14.0746276919
 20
54.95944317
 30
0.0
 10
12.9322337049
 20
54.5844587983
 30
0.0
 10
11.8855180225
 20
53.9797769965
 30
0.0
 10
10.974583391
 20
53.1723426344
 30
0.0
 10
10.2314676096
 20
52.1952803186
 30
0.0
 10
9.6816673321
 20
51.0860617222
 30
0.0
 10
9.3438732264
 20
49.8865794589
 30
0.0
 10
9.2680096586
 20
49.055601139
 30
0.0
 10
9.2679920397
 20
48.6402078772
 30
0.0
  0
SPLINE
  5
278
100
AcDbEntity
  8
0
100
AcDbSpline
 62
7
  6
BYLAYER
 70
0
 71
3
 72
12
 73
8
 74
0
 42
0.0000001
 43
0.0000001
 44
0.0000000001
 40
0.0
 40
0.0
 40
0.0
 40
0.0
 40
0.3259053015
 40
0.5946528734
 40
0.8070354044
 40
0.9028328128
 40
1.0
 40
1.0
 40
1.0
 40
1.0
 10
39.2586549901
 20
44.6363925981
 30
0.0
 10
39.2665465842
 20
44.6357517087
 30
0.0
 10
39.2810917748
 20
44.6356949799
 30
0.0
 10
39.3004557301
 20
44.6398300038
 30
0.0
 10
39.3126372635
 20
44.6481008958
 30
0.0
 10
39.3172869889
 20
44.6569902982
 30
0.0
 10
39.3179944964
 20
44.661718784
 30
0.0
 10
39.3179944964
 20
44.6640793731
 30
0.0
  0
SPLINE
  5
279
100
AcDbEntity
  8
0
100
AcDbSpline
 62
7
  6
BYLAYER
 70
0
 71
3
 72
12
 73
8
 74
0
 42
0.0000001
 43
0.0000001
 44
0.0000000001
 40
0.0
 40
0.0
 40
0.0
 40
0.0
 40
0.0971750608
 40
0.192988909
 40
0.4053530686
 40
0.674076569
 40
1.0
 40
1.0
 40
1.0
 40
1.0
 10
39.3179944964
 20
52.6163363811
 30
0.0
 10
39.3179944964
 20
52.6186965595
 30
0.0
 10
39.3172860496
 20
52.6234244166
 30
0.0
 10
39.3126361367
 20
52.6323105616
 30
0.0
 10
39.3004619203
 20
52.6405831941
 30
0.0
 10
39.281102621
 20
52.6447170059
 30
0.0
 10
39.2665615467
 20
52.6446630929
 30
0.0
 10
39.2586715262
 20
52.6440223313
 30
0.0
  0
ELLIPSE
  5
27A
100
AcDbEntity
  8
0
100
AcDbEllipse
 62
7
  6
BYLAYER
 10
38.6179944964
 20
48.6402078771
 30
0.0
 11
20.4126526173
 21
-6.5022740143
 31
0.0
 40
0.1625559039
 41
-1.5016102927
 42
-1.4848084806
  0
ELLIPSE
  5
27B
100
AcDbEntity
  8
0
100
AcDbEllipse
 62
7
  6
BYLAYER
 10
38.6179944964
 20
48.6402078771
 30
0.0
 11
20.4126526173
 21
6.5022740143
 31
0.0
 40
0.1625559039
 41
1.4848084806
 42
1.501611617
  0
ENDSEC
  0
SECTION
  2
OBJECTS
  0
DICTIONARY
  5
C
100
AcDbDictionary
280
0
281
1
  3
ACAD_GROUP
350
D
  3
ACAD_MLINESTYLE
350
17
  3
ACAD_LAYOUT
350
1A
  3
ACAD_PLOTSETTINGS
350
19
  3
ACAD_PLOTSTYLENAME
350
E
  0
DICTIONARY
  5
D
102
{ACAD_REACTORS
330
C
102
}
100
AcDbDictionary
280
0
281
1
  0
ACDBDICTIONARYWDFLT
  5
E
102
{ACAD_REACTORS
330
C
102
}
100
AcDbDictionary
281
1
  3
Normal
350
F
100
AcDbDictionaryWithDefault
340
F
  0
DICTIONARY
  5
17
102
{ACAD_REACTORS
330
C
102
}
100
AcDbDictionary
280
0
281
1
  3
Standard
350
18
  0
DICTIONARY
  5
19
102
{ACAD_REACTORS
330
C
102
}
100
AcDbDictionary
281
1
  0
DICTIONARY
  5
1A
102
{ACAD_REACTORS
330
C
102
}
100
AcDbDictionary
281
1
  3
Model
350
27C
  3
Layout1
350
27D
  0
ACDBPLACEHOLDER
  5
F
102
{ACAD_REACTORS
330
E
102
}
  0
MLINESTYLE
  5
18
102
{ACAD_REACTORS
330
17
102
}
100
AcDbMlineStyle
  2
STANDARD
 70
0
  3

 62
256
 51
90.0
 52
90.0
 71
2
 49
0.5
 62
256
  6
BYLAYER
 49
-0.5
 62
256
  6
BYLAYER
  0
LAYOUT
  5
27C
102
{ACAD_REACTORS
330
1A
102
}
100
AcDbPlotSettings
  1

  2
none_device
  4

  6

 40
0.0
 41
0.0
 42
0.0
 43
0.0
 44
210.0
 45
297.0
 46
0.0
 47
0.0
 48
0.0
 49
0.0
140
0.0
141
0.0
142
1.0
143
1.0
 70
1024
 72
1
 73
0
 74
0
  7

 75
0
147
1.0
148
0.0
149
0.0
100
AcDbLayout
  1
Model
 70
0
 71
0
 10
0.0
 20
0.0
 11
210.0
 21
297.0
 12
0.0
 22
0.0
 32
0.0
 14
0.0
 24
0.0
 34
0.0
 15
0.0
 25
0.0
 35
0.0
146
0.0
 13
0.0
 23
0.0
 33
0.0
 16
1.0
 26
0.0
 36
0.0
 17
0.0
 27
1.0
 37
0.0
 76
0
330
210
345
0
346
0
  0
LAYOUT
  5
27D
102
{ACAD_REACTORS
330
1A
102
}
100
AcDbPlotSettings
  1

  2
none_device
  4

  6

 40
0.0
 41
0.0
 42
0.0
 43
0.0
 44
210.0
 45
297.0
 46
0.0
 47
0.0
 48
0.0
 49
0.0
140
0.0
141
0.0
142
1.0
143
1.0
 70
0
 72
1
 73
0
 74
0
  7

 75
0
147
1.0
148
0.0
149
0.0
100
AcDbLayout
  1
Layout1
 70
0
 71
1
 10
0.0
 20
0.0
 11
210.0
 21
297.0
 12
0.0
 22
0.0
 32
0.0
 14
0.0
 24
0.0
 34
0.0
 15
0.0
 25
0.0
 35
0.0
146
0.0
 13
0.0
 23
0.0
 33
0.0
 16
1.0
 26
0.0
 36
0.0
 17
0.0
 27
1.0
 37
0.0
 76
0
330
211
345
0
346
0
  0
ENDSEC
  0
EOF
