999
DXF file: C:\Users\sesa63760\Dev\_Creo\CAD\MCADID0004134_3D-CAD\drw0001_3.dxf
999
Pro/ENGINEER 2019471 by Parametric Technology Corporation
  0
SECTION
  2
HEADER
  9
$ACADVER
  1
AC1024
  9
$DWGCODEPAGE
  3
ANSI_1252
  9
$EXTMAX
 10
63.2945339202
 20
89.5165551157
 30
0.0
  9
$EXTMIN
 10
0.0
 20
0.0
 30
0.0
  9
$LIMMIN
 10
0.0
 20
0.0
  9
$LIMMAX
 10
63.2945339202
 20
89.5165551157
  9
$VIEWCTR
 10
31.6472669601
 20
44.7582775579
  9
$VIEWSIZE
 40
89.5165551157
  9
$CLAYER
  8
0
  9
$LTSCALE
 40
5.8351532224
  9
$CELTYPE
  6
BYLAYER
  9
$DIMSCALE
 40
1.0
  9
$DIMASZ
 40
0.7535063562
  9
$DIMEXO
 40
1.0
  9
$DIMDLI
 40
4.0315604082
  9
$DIMEXE
 40
1.0
  9
$DIMCEN
 40
0.9548432546
  9
$DIMLFAC
 40
1.0
  9
$DIMBLK
  1
_FILLED
  9
$DIMALT
 70
0
  9
$DIMALTF
 40
0.0393700787
  9
$DIMTXT
 40
1.0549088987
  9
$DIMTOL
 70
1
  9
$DIMLIM
 70
0
  9
$DIMTFAC
 40
1.0
  9
$DIMTP
 40
0.01
  9
$DIMTM
 40
0.01
  9
$DIMGAP
 40
0.625
  9
$DIMDSEP
 70
46
  9
$AUNITS
 70
0
  9
$PDMODE
 70
3
  9
$PDSIZE
 40
0.3125
  9
$HANDSEED
  5
27F
  9
$TILEMODE
 70
1
  9
$MEASUREMENT
 70
1
  9
$INSUNITS
 70
4
  0
ENDSEC
  0
SECTION
  2
CLASSES
  0
CLASS
  1
ACDBDICTIONARYWDFLT
  2
AcDbDictionaryWithDefault
  3
AutoCAD 2000
 90
0
 91
1
280
0
281
0
  0
CLASS
  1
ACDBPLACEHOLDER
  2
AcDbPlaceHolder
  3
AutoCAD 2000
 90
0
 91
1
280
0
281
0
  0
CLASS
  1
LAYOUT
  2
AcDbLayout
  3
AutoCAD 2000
 90
0
 91
0
280
0
281
0
  0
ENDSEC
  0
SECTION
  2
TABLES
  0
TABLE
  2
VPORT
  5
8
100
AcDbSymbolTable
 70
2
  0
VPORT
  5
1F4
100
AcDbSymbolTableRecord
100
AcDbViewportTableRecord
  2
*ACTIVE
 70
0
 10
0.0
 20
0.0
 11
1.0
 21
1.0
 12
31.6472669601
 22
44.7582775579
 13
0.0
 23
0.0
 14
1.0
 24
1.0
 15
0.0
 25
0.0
 16
0.0
 26
0.0
 36
1.0
 17
0.0
 27
0.0
 37
0.0
 40
89.5165551157
 41
0.7070707071
 42
50.0
 43
0.0
 44
0.0
 50
0.0
 51
0.0
 71
0
 72
100
 73
1
 74
1
 75
0
 76
0
 77
0
 78
0
  0
ENDTAB
  0
TABLE
  2
LTYPE
  5
5
100
AcDbSymbolTable
 70
6
  0
LTYPE
  5
14
100
AcDbSymbolTableRecord
100
AcDbLinetypeTableRecord
  2
BYBLOCK
 70
0
  3

 72
65
 73
0
 40
0.0
  0
LTYPE
  5
15
100
AcDbSymbolTableRecord
100
AcDbLinetypeTableRecord
  2
BYLAYER
 70
0
  3

 72
65
 73
0
 40
0.0
  0
LTYPE
  5
16
100
AcDbSymbolTableRecord
100
AcDbLinetypeTableRecord
  2
CONTINUOUS
 70
64
  3
Solid line
 72
65
 73
0
 40
0.0
  0
LTYPE
  5
1F5
100
AcDbSymbolTableRecord
100
AcDbLinetypeTableRecord
  2
CENTER
 70
64
  3
____ _ ____ _ ____ _ ____ _ ____ _ ____ _ ____
 72
65
 73
4
 40
0.6
 49
0.375
 74
0
 49
-0.075
 74
0
 49
0.075
 74
0
 49
-0.075
 74
0
  0
LTYPE
  5
1F6
100
AcDbSymbolTableRecord
100
AcDbLinetypeTableRecord
  2
HIDDEN
 70
64
  3
- - - - - - - - - - - - - - - - - - - -
 72
65
 73
2
 40
0.2
 49
0.1
 74
0
 49
-0.1
 74
0
  0
LTYPE
  5
1F7
100
AcDbSymbolTableRecord
100
AcDbLinetypeTableRecord
  2
PHANTOM
 70
64
  3
_____ _ _ _____ _ _ _____ _ _ _____
 72
65
 73
6
 40
0.8
 49
0.45
 74
0
 49
-0.05
 74
0
 49
0.1
 74
0
 49
-0.05
 74
0
 49
0.1
 74
0
 49
-0.05
 74
0
  0
LTYPE
  5
1F8
100
AcDbSymbolTableRecord
100
AcDbLinetypeTableRecord
  2
DOT
 70
64
  3
. . . . . . . . . . . . . . . . . . . .
 72
65
 73
2
 40
0.2
 49
0.1
 74
0
 49
-0.1
 74
0
  0
LTYPE
  5
1F9
100
AcDbSymbolTableRecord
100
AcDbLinetypeTableRecord
  2
DASHED
 70
64
  3
- - - - - - - - - - - - - - - - - - - -
 72
65
 73
2
 40
0.2
 49
0.1
 74
0
 49
-0.1
 74
0
  0
ENDTAB
  0
TABLE
  2
LAYER
  5
2
100
AcDbSymbolTable
 70
36
  0
LAYER
  5
10
100
AcDbSymbolTableRecord
100
AcDbLayerTableRecord
  2
0
 70
0
 62
7
  6
CONTINUOUS
370
-3
390
F
  0
LAYER
  5
1FA
100
AcDbSymbolTableRecord
100
AcDbLayerTableRecord
  2
DEFAULT_1
 70
0
 62
7
  6
CENTER
370
-3
390
F
  0
LAYER
  5
1FB
100
AcDbSymbolTableRecord
100
AcDbLayerTableRecord
  2
DEFAULT_2
 70
0
 62
7
  6
HIDDEN
370
-3
390
F
  0
LAYER
  5
1FC
100
AcDbSymbolTableRecord
100
AcDbLayerTableRecord
  2
DEFAULT_3
 70
0
 62
7
  6
PHANTOM
370
-3
390
F
  0
LAYER
  5
1FD
100
AcDbSymbolTableRecord
100
AcDbLayerTableRecord
  2
00_COMPONENTS
 70
0
 62
7
  6
CONTINUOUS
370
-3
390
F
  0
LAYER
  5
1FE
100
AcDbSymbolTableRecord
100
AcDbLayerTableRecord
  2
01_1_DEFAULT_DATUMS
 70
0
 62
7
  6
CONTINUOUS
370
-3
390
F
  0
LAYER
  5
1FF
100
AcDbSymbolTableRecord
100
AcDbLayerTableRecord
  2
01_PLANES
 70
0
 62
7
  6
CONTINUOUS
370
-3
390
F
  0
LAYER
  5
200
100
AcDbSymbolTableRecord
100
AcDbLayerTableRecord
  2
02_COORD_SYS
 70
0
 62
7
  6
CONTINUOUS
370
-3
390
F
  0
LAYER
  5
201
100
AcDbSymbolTableRecord
100
AcDbLayerTableRecord
  2
03_AXES
 70
0
 62
7
  6
CONTINUOUS
370
-3
390
F
  0
LAYER
  5
202
100
AcDbSymbolTableRecord
100
AcDbLayerTableRecord
  2
04_POINTS
 70
0
 62
7
  6
CONTINUOUS
370
-3
390
F
  0
LAYER
  5
203
100
AcDbSymbolTableRecord
100
AcDbLayerTableRecord
  2
05_CURVES
 70
0
 62
7
  6
CONTINUOUS
370
-3
390
F
  0
LAYER
  5
204
100
AcDbSymbolTableRecord
100
AcDbLayerTableRecord
  2
06_SURFS
 70
0
 62
7
  6
CONTINUOUS
370
-3
390
F
  0
LAYER
  5
205
100
AcDbSymbolTableRecord
100
AcDbLayerTableRecord
  2
07_COSMETICS
 70
0
 62
7
  6
CONTINUOUS
370
-3
390
F
  0
LAYER
  5
206
100
AcDbSymbolTableRecord
100
AcDbLayerTableRecord
  2
10_NOTES
 70
0
 62
7
  6
CONTINUOUS
370
-3
390
F
  0
LAYER
  5
207
100
AcDbSymbolTableRecord
100
AcDbLayerTableRecord
  2
11_NOTES_PUB
 70
0
 62
7
  6
CONTINUOUS
370
-3
390
F
  0
LAYER
  5
208
100
AcDbSymbolTableRecord
100
AcDbLayerTableRecord
  2
13_REF_GTOL
 70
0
 62
7
  6
CONTINUOUS
370
-3
390
F
  0
LAYER
  5
209
100
AcDbSymbolTableRecord
100
AcDbLayerTableRecord
  2
16_MISC
 70
0
 62
7
  6
CONTINUOUS
370
-3
390
F
  0
LAYER
  5
20A
100
AcDbSymbolTableRecord
100
AcDbLayerTableRecord
  2
17_NO_PRINT
 70
0
 62
7
  6
CONTINUOUS
370
-3
390
F
  0
LAYER
  5
20B
100
AcDbSymbolTableRecord
100
AcDbLayerTableRecord
  2
18_DATUM_CAMS_JOINTS
 70
0
 62
7
  6
CONTINUOUS
370
-3
390
F
  0
LAYER
  5
20C
100
AcDbSymbolTableRecord
100
AcDbLayerTableRecord
  2
19_DATUM_FUNCTIONAL
 70
0
 62
7
  6
CONTINUOUS
370
-3
390
F
  0
LAYER
  5
20D
100
AcDbSymbolTableRecord
100
AcDbLayerTableRecord
  2
20_DATUM_KINEMATIC_SCHEME
 70
0
 62
7
  6
CONTINUOUS
370
-3
390
F
  0
ENDTAB
  0
TABLE
  2
STYLE
  5
3
100
AcDbSymbolTable
 70
1
  0
STYLE
  5
11
100
AcDbSymbolTableRecord
100
AcDbTextStyleTableRecord
  2
STANDARD
 70
0
 40
0.0
 41
1.0
 50
0.0
 71
0
 42
0.2
  3
ARIAL.TTF
  4

  0
STYLE
  5
20E
100
AcDbSymbolTableRecord
100
AcDbTextStyleTableRecord
  2
TEXTSTYLE_1
 70
0
 40
0.0
 41
0.8
 50
0.0
 71
0
 42
0.2
  3
gdt
  4

  0
ENDTAB
  0
TABLE
  2
VIEW
  5
6
100
AcDbSymbolTable
 70
0
  0
ENDTAB
  0
TABLE
  2
UCS
  5
7
100
AcDbSymbolTable
 70
0
  0
ENDTAB
  0
TABLE
  2
APPID
  5
9
100
AcDbSymbolTable
 70
1
  0
APPID
  5
20F
100
AcDbSymbolTableRecord
100
AcDbRegAppTableRecord
  2
ACAD
 70
0
  0
ENDTAB
  0
TABLE
  2
BLOCK_RECORD
  5
1
100
AcDbSymbolTable
 70
0
  0
BLOCK_RECORD
  5
210
100
AcDbSymbolTableRecord
100
AcDbBlockTableRecord
  2
*Model_Space
  0
BLOCK_RECORD
  5
211
100
AcDbSymbolTableRecord
100
AcDbBlockTableRecord
  2
*Paper_Space
  0
BLOCK_RECORD
  5
212
100
AcDbSymbolTableRecord
100
AcDbBlockTableRecord
  2
_FILLED
  0
ENDTAB
  0
TABLE
  2
DIMSTYLE
  5
A
100
AcDbSymbolTable
 70
1
100
AcDbDimStyleTable
 71
0
  0
DIMSTYLE
105
213
100
AcDbSymbolTableRecord
100
AcDbDimStyleTableRecord
  2
STANDARD
 70
0
  3

  4

 40
1.0
 41
0.7535063562
 42
1.0
 43
0.38
 44
1.0
 45
0.0
 46
0.0
 47
0.01
 48
0.01
140
1.0549088987
141
0.09
142
0.0
143
25.4
144
1.0
145
0.0
146
1.0
147
0.625
 71
1
 72
0
 73
0
 74
0
 75
0
 76
0
 77
1
 78
8
 79
2
170
0
171
1
172
0
173
0
174
0
175
0
176
0
177
0
178
0
270
2
179
2
271
2
272
2
273
2
274
2
275
0
280
0
281
0
282
0
283
1
284
8
285
0
286
0
287
3
288
0
340
11
278
46
341
212
342
212
343
212
344
212
  0
ENDTAB
  0
ENDSEC
  0
SECTION
  2
BLOCKS
  0
BLOCK
  5
20
100
AcDbEntity
  8
0
100
AcDbBlockBegin
  2
*Model_Space
 70
0
 10
0.0
 20
0.0
 30
0.0
  3
*Model_Space
  1

  0
ENDBLK
  5
21
100
AcDbEntity
  8
0
100
AcDbBlockEnd
  0
BLOCK
  5
1C
100
AcDbEntity
  8
0
100
AcDbBlockBegin
  2
*Paper_Space
 70
0
 10
0.0
 20
0.0
 30
0.0
  3
*Paper_Space
  1

  0
ENDBLK
  5
1D
100
AcDbEntity
  8
0
100
AcDbBlockEnd
  0
BLOCK
  5
214
100
AcDbEntity
  8
0
100
AcDbBlockBegin
  2
_FILLED
 70
64
 10
0.0
 20
0.0
  3
_FILLED
  1

  0
SOLID
  5
215
100
AcDbEntity
  8
0
  6
BYBLOCK
 62
0
100
AcDbTrace
 10
0.0
 20
0.0
 11
-1.0
 21
0.25
 12
-1.0
 22
-0.25
 13
-1.0
 23
-0.25
  0
ENDBLK
  5
216
100
AcDbEntity
  8
0
  6
BYBLOCK
 62
0
100
AcDbBlockEnd
  0
ENDSEC
  0
SECTION
  2
ENTITIES
  0
LINE
  5
217
100
AcDbEntity
  8
0
100
AcDbLine
 62
7
  6
BYLAYER
 10
8.7648748404
 20
35.5274123317
 11
8.7648748404
 21
54.4274123317
  0
LINE
  5
218
100
AcDbEntity
  8
0
100
AcDbLine
 62
7
  6
BYLAYER
 10
8.7964920185
 20
35.3774123317
 11
8.7964920185
 21
54.5774123317
  0
LINE
  5
219
100
AcDbEntity
  8
0
100
AcDbLine
 62
7
  6
BYLAYER
 10
8.8216218889
 20
33.4774123317
 11
8.8216218889
 21
56.4774123317
  0
LINE
  5
21A
100
AcDbEntity
  8
0
100
AcDbLine
 62
7
  6
BYLAYER
 10
7.5887626732
 20
54.9272408776
 11
8.5877345312
 21
55.9268979662
  0
LINE
  5
21B
100
AcDbEntity
  8
0
100
AcDbLine
 62
7
  6
BYLAYER
 10
7.589105407
 20
54.9274123317
 11
8.588762732
 21
55.9274123317
  0
LINE
  5
21C
100
AcDbEntity
  8
0
100
AcDbLine
 62
7
  6
BYLAYER
 10
8.7950038946
 20
54.9706446747
 11
8.7517863663
 21
54.9274123317
  0
LINE
  5
21D
100
AcDbEntity
  8
0
100
AcDbLine
 62
7
  6
BYLAYER
 10
8.588762732
 20
34.0274123317
 11
7.589105407
 21
35.0274123317
  0
LINE
  5
21E
100
AcDbEntity
  8
0
100
AcDbLine
 62
7
  6
BYLAYER
 10
8.7517863663
 20
35.0274123317
 11
8.7950038946
 21
34.9841799887
  0
LINE
  5
21F
100
AcDbEntity
  8
0
100
AcDbLine
 62
7
  6
BYLAYER
 10
7.5887626732
 20
35.0275837858
 11
8.5877345312
 21
34.0279266972
  0
LINE
  5
220
100
AcDbEntity
  8
0
100
AcDbLine
 62
7
  6
BYLAYER
 10
7.589105407
 20
54.9274123317
 11
7.5887626845
 21
54.9272248758
  0
LINE
  5
221
100
AcDbEntity
  8
0
100
AcDbLine
 62
7
  6
BYLAYER
 10
8.588762732
 20
55.9274123317
 11
8.5877345307
 21
55.9268979666
  0
LINE
  5
222
100
AcDbEntity
  8
0
100
AcDbLine
 62
7
  6
BYLAYER
 10
8.5877345307
 20
34.0279266968
 11
8.588762732
 21
34.0274123317
  0
LINE
  5
223
100
AcDbEntity
  8
0
100
AcDbLine
 62
7
  6
BYLAYER
 10
7.5887626845
 20
35.0275997876
 11
7.589105407
 21
35.0274123317
  0
LINE
  5
224
100
AcDbEntity
  8
0
100
AcDbLine
 62
7
  6
BYLAYER
 10
7.595297046
 20
35.2132439795
 11
7.5498261306
 21
35.2188523436
  0
LINE
  5
225
100
AcDbEntity
  8
0
100
AcDbLine
 62
7
  6
BYLAYER
 10
7.5594794346
 20
33.4774123317
 11
57.5599539673
 21
33.4774123317
  0
LINE
  5
226
100
AcDbEntity
  8
0
100
AcDbLine
 62
7
  6
BYLAYER
 10
7.5894126861
 20
33.9274123317
 11
8.7585354434
 21
33.9274123317
  0
LINE
  5
227
100
AcDbEntity
  8
0
100
AcDbLine
 62
7
  6
BYLAYER
 10
8.7715560917
 20
34.0274123317
 11
8.588762732
 21
34.0274123317
  0
LINE
  5
228
100
AcDbEntity
  8
0
100
AcDbLine
 62
7
  6
BYLAYER
 10
7.589105407
 20
35.0274123317
 11
8.7517863663
 21
35.0274123317
  0
LINE
  5
229
100
AcDbEntity
  8
0
100
AcDbLine
 62
7
  6
BYLAYER
 10
8.7964920185
 20
35.5274123317
 11
8.7648748404
 21
35.5274123317
  0
LINE
  5
22A
100
AcDbEntity
  8
0
100
AcDbLine
 62
7
  6
BYLAYER
 10
47.3118534074
 20
43.2274123317
 11
47.6868989722
 21
43.2274123317
  0
LINE
  5
22B
100
AcDbEntity
  8
0
100
AcDbLine
 62
7
  6
BYLAYER
 10
54.4330089624
 20
43.2274123317
 11
54.8103465394
 21
43.2274123317
  0
LINE
  5
22C
100
AcDbEntity
  8
0
100
AcDbLine
 62
7
  6
BYLAYER
 10
54.8080545272
 20
46.7274123317
 11
54.4330089624
 21
46.7274123317
  0
LINE
  5
22D
100
AcDbEntity
  8
0
100
AcDbLine
 62
7
  6
BYLAYER
 10
47.6868989722
 20
46.7274123317
 11
47.3095613951
 21
46.7274123317
  0
LINE
  5
22E
100
AcDbEntity
  8
0
100
AcDbLine
 62
7
  6
BYLAYER
 10
8.7648748404
 20
54.4274123317
 11
8.7964920185
 21
54.4274123317
  0
LINE
  5
22F
100
AcDbEntity
  8
0
100
AcDbLine
 62
7
  6
BYLAYER
 10
8.7517863663
 20
54.9274123317
 11
7.589105407
 21
54.9274123317
  0
LINE
  5
230
100
AcDbEntity
  8
0
100
AcDbLine
 62
7
  6
BYLAYER
 10
8.588762732
 20
55.9274123317
 11
8.7715560917
 21
55.9274123317
  0
LINE
  5
231
100
AcDbEntity
  8
0
100
AcDbLine
 62
7
  6
BYLAYER
 10
8.7585354434
 20
56.0274123317
 11
7.5894126861
 21
56.0274123317
  0
LINE
  5
232
100
AcDbEntity
  8
0
100
AcDbLine
 62
7
  6
BYLAYER
 10
44.5599539673
 20
56.4774123317
 11
44.5599539673
 21
45.3682018487
  0
LINE
  5
233
100
AcDbEntity
  8
0
100
AcDbLine
 62
7
  6
BYLAYER
 10
44.5599539673
 20
44.5866228147
 11
44.5599539673
 21
33.4774123317
  0
LINE
  5
234
100
AcDbEntity
  8
0
100
AcDbLine
 62
7
  6
BYLAYER
 10
7.5952717365
 20
54.7417781901
 11
7.5498261306
 21
54.7359723198
  0
LINE
  5
235
100
AcDbEntity
  8
0
100
AcDbLine
 62
7
  6
BYLAYER
 10
7.5594794346
 20
56.4774123317
 11
57.5599539673
 21
56.4774123317
  0
LINE
  5
236
100
AcDbEntity
  8
0
100
AcDbLine
 62
7
  6
BYLAYER
 10
47.7320284169
 20
47.4568097446
 11
48.1254608253
 21
47.0633773362
  0
LINE
  5
237
100
AcDbEntity
  8
0
100
AcDbLine
 62
7
  6
BYLAYER
 10
48.9739889628
 20
47.9119054736
 11
48.5805565543
 21
48.3053378821
  0
LINE
  5
238
100
AcDbEntity
  8
0
100
AcDbLine
 62
7
  6
BYLAYER
 10
49.9099539673
 20
48.5261059938
 11
49.9099539673
 21
41.4204537727
  0
LWPOLYLINE
  5
239
100
AcDbEntity
  8
0
100
AcDbPolyline
 62
7
  6
BYLAYER
 90
6
 70
0
 10
56.3099539679
 20
44.9774123317
 10
56.0187174633
 20
42.8351835409
 10
54.8748839232
 20
40.9427882729
 10
53.0392908889
 20
39.6293767707
 10
50.7910246138
 20
39.1320028322
 10
48.47827511
 20
39.5612389336
  0
LINE
  5
23A
100
AcDbEntity
  8
0
100
AcDbLine
 62
7
  6
BYLAYER
 10
57.1473192636
 20
44.9840392351
 11
57.1478219329
 21
44.9774123317
  0
LINE
  5
23B
100
AcDbEntity
  8
0
100
AcDbLine
 62
7
  6
BYLAYER
 10
57.1478363846
 20
44.9707548165
 11
57.1478219329
 21
44.9774123317
  0
LINE
  5
23C
100
AcDbEntity
  8
0
100
AcDbLine
 62
7
  6
BYLAYER
 10
57.5599539673
 20
56.4774123317
 11
57.5599539673
 21
33.4774123317
  0
LINE
  5
23D
100
AcDbEntity
  8
0
100
AcDbLine
 62
7
  6
BYLAYER
 10
57.1478390751
 20
44.9840371451
 11
57.1478219329
 21
44.9774123317
  0
LINE
  5
23E
100
AcDbEntity
  8
0
100
AcDbLine
 62
7
  6
BYLAYER
 10
57.1473143269
 20
44.9707531538
 11
57.1478219329
 21
44.9774123317
  0
ARC
  5
23F
100
AcDbEntity
  8
0
100
AcDbCircle
 62
7
  6
BYLAYER
 10
60.0364820857
 20
35.507541958
 40
52.4874498813
100
AcDbArc
 50
180.3151378078
 51
180.4368900401
  0
ARC
  5
240
100
AcDbEntity
  8
0
100
AcDbCircle
 62
7
  6
BYLAYER
 10
60.0343612797
 20
54.4472941937
 40
52.4853290441
100
AcDbArc
 50
179.5631048967
 51
179.6848619994
  0
ARC
  5
241
100
AcDbEntity
  8
0
100
AcDbCircle
 62
7
  6
BYLAYER
 10
46.9465123835
 20
54.5744294229
 40
39.3968548132
100
AcDbArc
 50
178.8714897718
 51
179.4477277886
  0
ARC
  5
242
100
AcDbEntity
  8
0
100
AcDbCircle
 62
7
  6
BYLAYER
 10
46.9455734875
 20
35.3803827277
 40
39.3959158529
100
AcDbArc
 50
180.5522767588
 51
181.1285189504
  0
ARC
  5
243
100
AcDbEntity
  8
0
100
AcDbCircle
 62
7
  6
BYLAYER
 10
3.438805202
 20
58.1684191118
 40
23.9204080421
100
AcDbArc
 50
279.9142649542
 51
280.8472026769
  0
ARC
  5
244
100
AcDbEntity
  8
0
100
AcDbCircle
 62
7
  6
BYLAYER
 10
3.4439306538
 20
31.8146877855
 40
23.8916656905
100
AcDbArc
 50
79.1521062127
 51
80.0861653585
  0
ARC
  5
245
100
AcDbEntity
  8
0
100
AcDbCircle
 62
7
  6
BYLAYER
 10
-9.8026256298
 20
54.4277889965
 40
18.5675004741
100
AcDbArc
 50
359.998837684
 51
0.4628516978
  0
ARC
  5
246
100
AcDbEntity
  8
0
100
AcDbCircle
 62
7
  6
BYLAYER
 10
-9.6560545914
 20
35.5261957108
 40
18.420929472
100
AcDbArc
 50
359.6012977119
 51
0.0037841327
  0
ARC
  5
247
100
AcDbEntity
  8
0
100
AcDbCircle
 62
7
  6
BYLAYER
 10
-6.1602249647
 20
54.4556765087
 40
14.9249934558
100
AcDbArc
 50
0.4687537694
 51
0.8512824747
  0
ARC
  5
248
100
AcDbEntity
  8
0
100
AcDbCircle
 62
7
  6
BYLAYER
 10
-5.7820775865
 20
35.495427017
 40
14.5468326533
100
AcDbArc
 50
359.1412439781
 51
359.6163059677
  0
ARC
  5
249
100
AcDbEntity
  8
0
100
AcDbCircle
 62
7
  6
BYLAYER
 10
-1.2226199366
 20
54.5286379462
 40
9.9868494179
100
AcDbArc
 50
0.853607627
 51
1.4477894526
  0
ARC
  5
24A
100
AcDbEntity
  8
0
100
AcDbCircle
 62
7
  6
BYLAYER
 10
-0.2546065045
 20
35.4067430262
 40
9.0186551438
100
AcDbArc
 50
358.5203161325
 51
359.1782867879
  0
ARC
  5
24B
100
AcDbEntity
  8
0
100
AcDbCircle
 62
7
  6
BYLAYER
 10
51.0599539673
 20
44.9774123317
 40
6.0
100
AcDbArc
 50
304.0338643035
 51
295.4853188671
  0
CIRCLE
  5
24C
100
AcDbEntity
  8
0
100
AcDbCircle
 62
7
  6
BYLAYER
 10
51.0599539673
 20
44.9774123317
 40
5.25
  0
CIRCLE
  5
24D
100
AcDbEntity
  8
0
100
AcDbCircle
 62
7
  6
BYLAYER
 10
51.0599539673
 20
44.9774123317
 40
4.15
  0
ARC
  5
24E
100
AcDbEntity
  8
0
100
AcDbCircle
 62
7
  6
BYLAYER
 10
51.0599539673
 20
44.9774123317
 40
3.8
100
AcDbArc
 50
207.4210749137
 51
332.5789250863
  0
ARC
  5
24F
100
AcDbEntity
  8
0
100
AcDbCircle
 62
7
  6
BYLAYER
 10
51.0599539673
 20
44.9774123317
 40
3.8
100
AcDbArc
 50
27.4210749137
 51
125.9152797126
  0
ARC
  5
250
100
AcDbEntity
  8
0
100
AcDbCircle
 62
7
  6
BYLAYER
 10
51.0599539673
 20
44.9774123317
 40
3.8
100
AcDbArc
 50
144.0847202874
 51
152.5789250863
  0
ARC
  5
251
100
AcDbEntity
  8
0
100
AcDbCircle
 62
7
  6
BYLAYER
 10
48.5497248941
 20
47.4876414049
 40
0.6
100
AcDbArc
 50
224.9999999999
 51
44.9999999999
  0
SPLINE
  5
252
100
AcDbEntity
  8
0
100
AcDbSpline
 62
7
  6
BYLAYER
 70
0
 71
3
 72
14
 73
10
 74
0
 42
0.0000001
 43
0.0000001
 44
0.0000000001
 40
0.0
 40
0.0
 40
0.0
 40
0.0
 40
0.0279542908
 40
0.083724644
 40
0.1678803706
 40
0.2802283317
 40
0.4203280228
 40
0.5876453204
 40
1.0
 40
1.0
 40
1.0
 40
1.0
 10
7.5887626741
 20
54.9272399672
 30
0.0
 10
7.5882261215
 20
54.9267005939
 30
0.0
 10
7.5876593886
 20
54.924337674
 30
0.0
 10
7.5867659099
 20
54.9199673587
 30
0.0
 10
7.5859681711
 20
54.9130871199
 30
0.0
 10
7.5851080967
 20
54.9039907279
 30
0.0
 10
7.5842801876
 20
54.8925867315
 30
0.0
 10
7.5831055044
 20
54.8730368726
 30
0.0
 10
7.5823987988
 20
54.8572736422
 30
0.0
 10
7.5819492765
 20
54.8460601042
 30
0.0
  0
SPLINE
  5
253
100
AcDbEntity
  8
0
100
AcDbSpline
 62
7
  6
BYLAYER
 70
0
 71
3
 72
9
 73
5
 74
0
 42
0.0000001
 43
0.0000001
 44
0.0000000001
 40
0.0
 40
0.0
 40
0.0
 40
0.0
 40
0.4383537027
 40
1.0
 40
1.0
 40
1.0
 40
1.0
 10
7.5819492765
 20
54.8460601042
 30
0.0
 10
7.5806754612
 20
54.8142842007
 30
0.0
 10
7.5787220655
 20
54.7417583974
 30
0.0
 10
7.5775902407
 20
54.6692194524
 30
0.0
 10
7.5771218146
 20
54.6284761615
 30
0.0
  0
SPLINE
  5
254
100
AcDbEntity
  8
0
100
AcDbSpline
 62
7
  6
BYLAYER
 70
0
 71
3
 72
11
 73
7
 74
0
 42
0.0000001
 43
0.0000001
 44
0.0000000001
 40
0.0
 40
0.0
 40
0.0
 40
0.0
 40
0.2445566631
 40
0.5
 40
0.7554433369
 40
1.0
 40
1.0
 40
1.0
 40
1.0
 10
7.5771218146
 20
54.6284761615
 30
0.0
 10
7.5590322553
 20
53.0550620738
 30
0.0
 10
7.5326525996
 20
49.8380647416
 30
0.0
 10
7.5197122216
 20
44.9774123317
 30
0.0
 10
7.5326525996
 20
40.1167599218
 30
0.0
 10
7.5590322553
 20
36.8997625895
 30
0.0
 10
7.5771218146
 20
35.3263485019
 30
0.0
  0
SPLINE
  5
255
100
AcDbEntity
  8
0
100
AcDbSpline
 62
7
  6
BYLAYER
 70
0
 71
3
 72
9
 73
5
 74
0
 42
0.0000001
 43
0.0000001
 44
0.0000000001
 40
0.0
 40
0.0
 40
0.0
 40
0.0
 40
0.5616462973
 40
1.0
 40
1.0
 40
1.0
 40
1.0
 10
7.5771218146
 20
35.3263485019
 30
0.0
 10
7.5775902407
 20
35.285605211
 30
0.0
 10
7.5787220655
 20
35.213066266
 30
0.0
 10
7.5806754612
 20
35.1405404627
 30
0.0
 10
7.5819492765
 20
35.1087645592
 30
0.0
  0
SPLINE
  5
256
100
AcDbEntity
  8
0
100
AcDbSpline
 62
7
  6
BYLAYER
 70
0
 71
3
 72
14
 73
10
 74
0
 42
0.0000001
 43
0.0000001
 44
0.0000000001
 40
0.0
 40
0.0
 40
0.0
 40
0.0
 40
0.4123546796
 40
0.5796719772
 40
0.7197716683
 40
0.8321196294
 40
0.916275356
 40
0.9720457092
 40
1.0
 40
1.0
 40
1.0
 40
1.0
 10
7.5819492765
 20
35.1087645592
 30
0.0
 10
7.5823987988
 20
35.0975510212
 30
0.0
 10
7.5831055044
 20
35.0817877908
 30
0.0
 10
7.5842801876
 20
35.0622379319
 30
0.0
 10
7.5851080967
 20
35.0508339355
 30
0.0
 10
7.5859681711
 20
35.0417375434
 30
0.0
 10
7.5867659099
 20
35.0348573047
 30
0.0
 10
7.5876593886
 20
35.0304869894
 30
0.0
 10
7.5882261215
 20
35.0281240695
 30
0.0
 10
7.5887626741
 20
35.0275846962
 30
0.0
  0
SPLINE
  5
257
100
AcDbEntity
  8
0
100
AcDbSpline
 62
7
  6
BYLAYER
 70
0
 71
3
 72
17
 73
13
 74
0
 42
0.0000001
 43
0.0000001
 44
0.0000000001
 40
0.0
 40
0.0
 40
0.0
 40
0.0
 40
0.2237004073
 40
0.4226296124
 40
0.5944313712
 40
0.7372192131
 40
0.8498374865
 40
0.9312573773
 40
0.9600801632
 40
0.9809631457
 40
0.9940094534
 40
1.0
 40
1.0
 40
1.0
 40
1.0
 10
8.7610413151
 20
54.7809657223
 30
0.0
 10
8.7607541971
 20
54.7919340767
 30
0.0
 10
8.7601614928
 20
54.8126547732
 30
0.0
 10
8.7591464838
 20
54.8417938987
 30
0.0
 10
8.7580684642
 20
54.8669561439
 30
0.0
 10
8.7569374417
 20
54.8878863036
 30
0.0
 10
8.7557823154
 20
54.9043511006
 30
0.0
 10
8.7547131463
 20
54.9152669238
 30
0.0
 10
8.7538185227
 20
54.9215910834
 30
0.0
 10
8.7531693553
 20
54.9246834111
 30
0.0
 10
8.75269223
 20
54.9264264977
 30
0.0
 10
8.7520801921
 20
54.9274123317
 30
0.0
 10
8.7517863663
 20
54.9274123317
 30
0.0
  0
SPLINE
  5
258
100
AcDbEntity
  8
0
100
AcDbSpline
 62
7
  6
BYLAYER
 70
0
 71
3
 72
17
 73
13
 74
0
 42
0.0000001
 43
0.0000001
 44
0.0000000001
 40
0.0
 40
0.0
 40
0.0
 40
0.0
 40
0.0059905466
 40
0.0190368543
 40
0.0399198368
 40
0.0687426227
 40
0.1501625135
 40
0.2627807869
 40
0.4055686288
 40
0.5773703876
 40
0.7762995927
 40
1.0
 40
1.0
 40
1.0
 40
1.0
 10
8.7517863663
 20
35.0274123317
 30
0.0
 10
8.7520801921
 20
35.0274123317
 30
0.0
 10
8.75269223
 20
35.0283981657
 30
0.0
 10
8.7531693553
 20
35.0301412523
 30
0.0
 10
8.7538185227
 20
35.03323358
 30
0.0
 10
8.7547131463
 20
35.0395577396
 30
0.0
 10
8.7557823154
 20
35.0504735627
 30
0.0
 10
8.7569374417
 20
35.0669383597
 30
0.0
 10
8.7580684642
 20
35.0878685195
 30
0.0
 10
8.7591464838
 20
35.1130307647
 30
0.0
 10
8.7601614928
 20
35.1421698902
 30
0.0
 10
8.7607541971
 20
35.1628905867
 30
0.0
 10
8.7610413151
 20
35.1738589411
 30
0.0
  0
SPLINE
  5
259
100
AcDbEntity
  8
0
100
AcDbSpline
 62
7
  6
BYLAYER
 70
0
 71
3
 72
15
 73
11
 74
0
 42
0.0000001
 43
0.0000001
 44
0.0000000001
 40
0.0
 40
0.0
 40
0.0
 40
0.0
 40
0.1249809319
 40
0.2500122767
 40
0.3749992562
 40
0.5000024227
 40
0.6250072471
 40
0.7499905075
 40
0.8750218063
 40
1.0
 40
1.0
 40
1.0
 40
1.0
 10
53.6416328245
 20
39.5612389336
 30
0.0
 10
53.8910378022
 20
39.6853697738
 30
0.0
 10
54.3733269761
 20
39.9688326067
 30
0.0
 10
55.0299697294
 20
40.4902809946
 30
0.0
 10
55.6073260686
 20
41.0986556008
 30
0.0
 10
56.0938757273
 20
41.7816955759
 30
0.0
 10
56.4801189455
 20
42.526090501
 30
0.0
 10
56.7575878264
 20
43.3176430621
 30
0.0
 10
56.9204841879
 20
44.1401940018
 30
0.0
 10
56.950796693
 20
44.6988721144
 30
0.0
 10
56.9459743509
 20
44.9774123317
 30
0.0
  0
SPLINE
  5
25A
100
AcDbEntity
  8
0
100
AcDbSpline
 62
7
  6
BYLAYER
 70
0
 71
3
 72
28
 73
24
 74
0
 42
0.0000001
 43
0.0000001
 44
0.0000000001
 40
0.0
 40
0.0
 40
0.0
 40
0.0
 40
0.0624774798
 40
0.0937613717
 40
0.1250340587
 40
0.1875120007
 40
0.2499913237
 40
0.2812670343
 40
0.3125440455
 40
0.343820517
 40
0.3750969983
 40
0.4063737279
 40
0.4376509634
 40
0.4689271103
 40
0.5002027193
 40
0.5626809784
 40
0.6251550118
 40
0.6876314902
 40
0.7501043877
 40
0.8125790234
 40
0.8750518184
 40
0.9375285726
 40
1.0
 40
1.0
 40
1.0
 40
1.0
 10
56.9459743509
 20
44.9774123317
 30
0.0
 10
56.9394953531
 20
45.3516415755
 30
0.0
 10
56.8757920158
 20
45.9142569749
 30
0.0
 10
56.685414711
 20
46.6395605717
 30
0.0
 10
56.4264068473
 20
47.3435245375
 30
0.0
 10
55.9774013509
 20
48.17170527
 30
0.0
 10
55.3777072643
 20
48.8983963967
 30
0.0
 10
54.8216937764
 20
49.4017587424
 30
0.0
 10
54.3696452441
 20
49.737391518
 30
0.0
 10
53.8872306585
 20
50.0276209322
 30
0.0
 10
53.3788140597
 20
50.2694475747
 30
0.0
 10
52.849330426
 20
50.4608149815
 30
0.0
 10
52.3037070406
 20
50.5995821381
 30
0.0
 10
51.7471045009
 20
50.6845319377
 30
0.0
 10
50.9981482867
 20
50.7242862347
 30
0.0
 10
50.0598202194
 20
50.6359460307
 30
0.0
 10
48.9773006562
 20
50.3117848704
 30
0.0
 10
47.979543739
 20
49.7809339133
 30
0.0
 10
47.1056222247
 20
49.06420896
 30
0.0
 10
46.3913269432
 20
48.1883165777
 30
0.0
 10
45.8642206136
 20
47.1883237789
 30
0.0
 10
45.5476901805
 20
46.1035223218
 30
0.0
 10
45.4851902019
 20
45.3516004561
 30
0.0
 10
45.4919438107
 20
44.9774123317
 30
0.0
  0
SPLINE
  5
25B
100
AcDbEntity
  8
0
100
AcDbSpline
 62
7
  6
BYLAYER
 70
0
 71
3
 72
27
 73
23
 74
0
 42
0.0000001
 43
0.0000001
 44
0.0000000001
 40
0.0
 40
0.0
 40
0.0
 40
0.0
 40
0.0624824166
 40
0.0937686248
 40
0.1250436277
 40
0.187527061
 40
0.2500106701
 40
0.2812892671
 40
0.3125689241
 40
0.3438474906
 40
0.3751262233
 40
0.4376111328
 40
0.4688894369
 40
0.5001671159
 40
0.5626501327
 40
0.6251283738
 40
0.687609312
 40
0.7500865931
 40
0.8125653038
 40
0.8750427779
 40
0.9375241069
 40
1.0
 40
1.0
 40
1.0
 40
1.0
 10
45.4919438107
 20
44.9774123317
 30
0.0
 10
45.4983231813
 20
44.6239591255
 30
0.0
 10
45.5589788294
 20
44.0926263218
 30
0.0
 10
45.7392910619
 20
43.407718456
 30
0.0
 10
45.9843033847
 20
42.7429733869
 30
0.0
 10
46.4085105322
 20
41.9608423421
 30
0.0
 10
46.9750999469
 20
41.2746322146
 30
0.0
 10
47.5002975323
 20
40.799261896
 30
0.0
 10
47.9271988442
 20
40.4822066087
 30
0.0
 10
48.3828529792
 20
40.2080124191
 30
0.0
 10
49.0224323843
 20
39.9036450214
 30
0.0
 10
49.7037721826
 20
39.6942132232
 30
0.0
 10
50.4040112279
 20
39.5872283186
 30
0.0
 10
51.1114475354
 20
39.5494783509
 30
0.0
 10
51.9976730358
 20
39.6327365385
 30
0.0
 10
53.0201811457
 20
39.9386913795
 30
0.0
 10
53.9625690287
 20
40.440040211
 30
0.0
 10
54.7880425725
 20
41.1168919348
 30
0.0
 10
55.4626321283
 20
41.944246941
 30
0.0
 10
55.9599662202
 20
42.8890041139
 30
0.0
 10
56.2585130111
 20
43.9137203865
 30
0.0
 10
56.316794102
 20
44.6240046573
 30
0.0
 10
56.3099539679
 20
44.9774123317
 30
0.0
  0
SPLINE
  5
25C
100
AcDbEntity
  8
0
100
AcDbSpline
 62
7
  6
BYLAYER
 70
0
 71
3
 72
18
 73
14
 74
0
 42
0.0000001
 43
0.0000001
 44
0.0000000001
 40
0.0
 40
0.0
 40
0.0
 40
0.0
 40
0.2236993301
 40
0.4226275774
 40
0.5944285089
 40
0.7372156632
 40
0.8498333943
 40
0.8944968053
 40
0.9312577084
 40
0.9600803554
 40
0.9809632373
 40
0.9940094823
 40
1.0
 40
1.0
 40
1.0
 40
1.0
 10
8.7853747951
 20
34.352107499
 30
0.0
 10
8.7845421527
 20
34.3202992712
 30
0.0
 10
8.7828232335
 20
34.2602085231
 30
0.0
 10
8.7798800074
 20
34.1757079051
 30
0.0
 10
8.7767528702
 20
34.1027290397
 30
0.0
 10
8.7734753917
 20
34.0420551729
 30
0.0
 10
8.7704852902
 20
33.999462825
 30
0.0
 10
8.7679404036
 20
33.9719956604
 30
0.0
 10
8.7661385966
 20
33.9563791791
 30
0.0
 10
8.7644288515
 20
33.9442954145
 30
0.0
 10
8.7625460899
 20
33.9353259951
 30
0.0
 10
8.7611624503
 20
33.9302712704
 30
0.0
 10
8.7593875382
 20
33.9274123317
 30
0.0
 10
8.7585354435
 20
33.9274123317
 30
0.0
  0
SPLINE
  5
25D
100
AcDbEntity
  8
0
100
AcDbSpline
 62
7
  6
BYLAYER
 70
0
 71
3
 72
9
 73
5
 74
0
 42
0.0000001
 43
0.0000001
 44
0.0000000001
 40
0.0
 40
0.0
 40
0.0
 40
0.0
 40
0.5411655432
 40
1.0
 40
1.0
 40
1.0
 40
1.0
 10
8.7964920185
 20
35.3774123317
 30
0.0
 10
8.7964920185
 20
35.1924447793
 30
0.0
 10
8.7948104754
 20
34.8506499541
 30
0.0
 10
8.7894786472
 20
34.5088810127
 30
0.0
 10
8.7853747951
 20
34.352107499
 30
0.0
  0
SPLINE
  5
25E
100
AcDbEntity
  8
0
100
AcDbSpline
 62
7
  6
BYLAYER
 70
0
 71
3
 72
9
 73
5
 74
0
 42
0.0000001
 43
0.0000001
 44
0.0000000001
 40
0.0
 40
0.0
 40
0.0
 40
0.0
 40
0.4588344568
 40
1.0
 40
1.0
 40
1.0
 40
1.0
 10
8.7853747951
 20
55.6027171644
 30
0.0
 10
8.7894786472
 20
55.4459436507
 30
0.0
 10
8.7948104754
 20
55.1041747093
 30
0.0
 10
8.7964920185
 20
54.7623798841
 30
0.0
 10
8.7964920185
 20
54.5774123317
 30
0.0
  0
SPLINE
  5
25F
100
AcDbEntity
  8
0
100
AcDbSpline
 62
7
  6
BYLAYER
 70
0
 71
3
 72
18
 73
14
 74
0
 42
0.0000001
 43
0.0000001
 44
0.0000000001
 40
0.0
 40
0.0
 40
0.0
 40
0.0
 40
0.0059905177
 40
0.0190367627
 40
0.0399196446
 40
0.0687422916
 40
0.1055031947
 40
0.1501666057
 40
0.2627843368
 40
0.4055714911
 40
0.5773724226
 40
0.7763006699
 40
1.0
 40
1.0
 40
1.0
 40
1.0
 10
8.7585354435
 20
56.0274123317
 30
0.0
 10
8.7593875382
 20
56.0274123317
 30
0.0
 10
8.7611624503
 20
56.024553393
 30
0.0
 10
8.7625460899
 20
56.0194986683
 30
0.0
 10
8.7644288515
 20
56.0105292488
 30
0.0
 10
8.7661385966
 20
55.9984454843
 30
0.0
 10
8.7679404036
 20
55.982829003
 30
0.0
 10
8.7704852902
 20
55.9553618384
 30
0.0
 10
8.7734753917
 20
55.9127694905
 30
0.0
 10
8.7767528702
 20
55.8520956237
 30
0.0
 10
8.7798800074
 20
55.7791167583
 30
0.0
 10
8.7828232335
 20
55.6946161403
 30
0.0
 10
8.7845421527
 20
55.6345253922
 30
0.0
 10
8.7853747951
 20
55.6027171644
 30
0.0
  0
LINE
  5
260
100
AcDbEntity
  8
0
100
AcDbLine
 62
7
  6
BYLAYER
 10
7.5594794346
 20
33.4774123317
 11
7.5536960292
 21
33.914334384
  0
LINE
  5
261
100
AcDbEntity
  8
0
100
AcDbLine
 62
7
  6
BYLAYER
 10
7.5536960292
 20
33.914334384
 11
7.5453826645
 21
34.5827886156
  0
LINE
  5
262
100
AcDbEntity
  8
0
100
AcDbLine
 62
7
  6
BYLAYER
 10
7.5453826645
 20
34.5827886156
 11
7.5404671336
 21
35.0038305981
  0
LINE
  5
263
100
AcDbEntity
  8
0
100
AcDbLine
 62
7
  6
BYLAYER
 10
7.5404671336
 20
35.0038305981
 11
7.5395438611
 21
35.0853077328
  0
LINE
  5
264
100
AcDbEntity
  8
0
100
AcDbLine
 62
7
  6
BYLAYER
 10
7.5395438611
 20
35.0853077328
 11
7.5383010452
 21
35.1962546221
  0
LINE
  5
265
100
AcDbEntity
  8
0
100
AcDbLine
 62
7
  6
BYLAYER
 10
7.5383010452
 20
35.1962546221
 11
7.537108472
 21
35.304129502
  0
SPLINE
  5
266
100
AcDbEntity
  8
0
100
AcDbSpline
 62
7
  6
BYLAYER
 70
0
 71
3
 72
11
 73
7
 74
0
 42
0.0000001
 43
0.0000001
 44
0.0000000001
 40
0.0
 40
0.0
 40
0.0
 40
0.0
 40
0.2449964187
 40
0.5
 40
0.7550035813
 40
1.0
 40
1.0
 40
1.0
 40
1.0
 10
7.537108472
 20
35.304129502
 30
0.0
 10
7.5197565009
 20
36.8840084103
 30
0.0
 10
7.4943809403
 20
40.1084134425
 30
0.0
 10
7.4819276889
 20
44.9774123317
 30
0.0
 10
7.4943809403
 20
49.8464112209
 30
0.0
 10
7.5197565009
 20
53.0708162531
 30
0.0
 10
7.537108472
 20
54.6506951614
 30
0.0
  0
LINE
  5
267
100
AcDbEntity
  8
0
100
AcDbLine
 62
7
  6
BYLAYER
 10
7.537108472
 20
54.6506951614
 11
7.5383010452
 21
54.7585700413
  0
LINE
  5
268
100
AcDbEntity
  8
0
100
AcDbLine
 62
7
  6
BYLAYER
 10
7.5383010452
 20
54.7585700413
 11
7.5395438611
 21
54.8695169306
  0
LINE
  5
269
100
AcDbEntity
  8
0
100
AcDbLine
 62
7
  6
BYLAYER
 10
7.5395438611
 20
54.8695169306
 11
7.5404669511
 21
54.9509780328
  0
LINE
  5
26A
100
AcDbEntity
  8
0
100
AcDbLine
 62
7
  6
BYLAYER
 10
7.5404669511
 20
54.9509780328
 11
7.5453826645
 21
55.3720360478
  0
LINE
  5
26B
100
AcDbEntity
  8
0
100
AcDbLine
 62
7
  6
BYLAYER
 10
7.5453826645
 20
55.3720360478
 11
7.5536960292
 21
56.0404902794
  0
LINE
  5
26C
100
AcDbEntity
  8
0
100
AcDbLine
 62
7
  6
BYLAYER
 10
7.5536960292
 20
56.0404902794
 11
7.5594794346
 21
56.4774123317
  0
LINE
  5
26D
100
AcDbEntity
  8
0
100
AcDbLine
 62
7
  6
BYLAYER
 10
7.5505580963
 20
54.8475044925
 11
7.5512391692
 21
54.928126634
  0
LINE
  5
26E
100
AcDbEntity
  8
0
100
AcDbLine
 62
7
  6
BYLAYER
 10
7.5512391692
 20
54.928126634
 11
7.5514877313
 21
54.9541685834
  0
LINE
  5
26F
100
AcDbEntity
  8
0
100
AcDbLine
 62
7
  6
BYLAYER
 10
7.5498261306
 20
35.2188523436
 11
7.5487047785
 21
35.3205148263
  0
SPLINE
  5
270
100
AcDbEntity
  8
0
100
AcDbSpline
 62
7
  6
BYLAYER
 70
0
 71
3
 72
11
 73
7
 74
0
 42
0.0000001
 43
0.0000001
 44
0.0000000001
 40
0.0
 40
0.0
 40
0.0
 40
0.0
 40
0.2450138454
 40
0.5
 40
0.7549861546
 40
1.0
 40
1.0
 40
1.0
 40
1.0
 10
7.5487047785
 20
35.3205148263
 30
0.0
 10
7.5314142172
 20
36.8978300648
 30
0.0
 10
7.5061342577
 20
40.1167734696
 30
0.0
 10
7.4937170106
 20
44.9774123317
 30
0.0
 10
7.5061342577
 20
49.8380511938
 30
0.0
 10
7.5314142172
 20
53.0569945986
 30
0.0
 10
7.5487047785
 20
54.6343098371
 30
0.0
  0
LINE
  5
271
100
AcDbEntity
  8
0
100
AcDbLine
 62
7
  6
BYLAYER
 10
7.5487047785
 20
54.6343098371
 11
7.5498261306
 21
54.7359723198
  0
SPLINE
  5
272
100
AcDbEntity
  8
0
100
AcDbSpline
 62
7
  6
BYLAYER
 70
0
 71
3
 72
9
 73
5
 74
0
 42
0.0000001
 43
0.0000001
 44
0.0000000001
 40
0.0
 40
0.0
 40
0.0
 40
0.0
 40
0.2083813388
 40
1.0
 40
1.0
 40
1.0
 40
1.0
 10
7.5687558565
 20
34.1609481802
 30
0.0
 10
7.567513261
 20
34.1917414704
 30
0.0
 10
7.5623074118
 20
34.3395455768
 30
0.0
 10
7.5592271336
 20
34.4874165304
 30
0.0
 10
7.5572991521
 20
34.6044763099
 30
0.0
  0
SPLINE
  5
273
100
AcDbEntity
  8
0
100
AcDbSpline
 62
7
  6
BYLAYER
 70
0
 71
3
 72
16
 73
12
 74
0
 42
0.0000001
 43
0.0000001
 44
0.0000000001
 40
0.0
 40
0.0
 40
0.0
 40
0.0
 40
0.0070322007
 40
0.020314757
 40
0.0693711861
 40
0.1493621631
 40
0.2602228323
 40
0.4014873722
 40
0.572580789
 40
0.7725065981
 40
1.0
 40
1.0
 40
1.0
 40
1.0
 10
7.5894126861
 20
33.9274123317
 30
0.0
 10
7.5888606386
 20
33.9274123317
 30
0.0
 10
7.5875572372
 20
33.9287510792
 30
0.0
 10
7.585699888
 20
33.9337021245
 30
0.0
 10
7.5833408285
 20
33.9448310212
 30
0.0
 10
7.5808845669
 20
33.9634057587
 30
0.0
 10
7.5783197719
 20
33.9893991395
 30
0.0
 10
7.5758056939
 20
34.0225123343
 30
0.0
 10
7.5733299484
 20
34.0626587849
 30
0.0
 10
7.5709283236
 20
34.1095808173
 30
0.0
 10
7.5694759259
 20
34.1431038304
 30
0.0
 10
7.5687558565
 20
34.1609481802
 30
0.0
  0
LINE
  5
274
100
AcDbEntity
  8
0
100
AcDbLine
 62
7
  6
BYLAYER
 10
7.5505580915
 20
35.1073201256
 11
7.5512393042
 21
35.0266821821
  0
LINE
  5
275
100
AcDbEntity
  8
0
100
AcDbLine
 62
7
  6
BYLAYER
 10
7.5512393042
 20
35.0266821821
 11
7.5514877822
 21
35.0006494911
  0
SPLINE
  5
276
100
AcDbEntity
  8
0
100
AcDbSpline
 62
7
  6
BYLAYER
 70
0
 71
3
 72
16
 73
12
 74
0
 42
0.0000001
 43
0.0000001
 44
0.0000000001
 40
0.0
 40
0.0
 40
0.0
 40
0.0
 40
0.2274934019
 40
0.427419211
 40
0.5985126278
 40
0.7397771677
 40
0.8506378369
 40
0.9306288139
 40
0.979685243
 40
0.9929677993
 40
1.0
 40
1.0
 40
1.0
 40
1.0
 10
7.5687558565
 20
55.7938764832
 30
0.0
 10
7.5694759259
 20
55.811720833
 30
0.0
 10
7.5709283236
 20
55.8452438461
 30
0.0
 10
7.5733299484
 20
55.8921658785
 30
0.0
 10
7.5758056939
 20
55.9323123291
 30
0.0
 10
7.5783197719
 20
55.9654255239
 30
0.0
 10
7.5808845669
 20
55.9914189047
 30
0.0
 10
7.5833408285
 20
56.0099936422
 30
0.0
 10
7.585699888
 20
56.0211225389
 30
0.0
 10
7.5875572372
 20
56.0260735842
 30
0.0
 10
7.5888606386
 20
56.0274123317
 30
0.0
 10
7.5894126861
 20
56.0274123317
 30
0.0
  0
SPLINE
  5
277
100
AcDbEntity
  8
0
100
AcDbSpline
 62
7
  6
BYLAYER
 70
0
 71
3
 72
9
 73
5
 74
0
 42
0.0000001
 43
0.0000001
 44
0.0000000001
 40
0.0
 40
0.0
 40
0.0
 40
0.0
 40
0.2886628132
 40
1.0
 40
1.0
 40
1.0
 40
1.0
 10
7.5572991518
 20
55.3503483374
 30
0.0
 10
7.5580021862
 20
55.3930339379
 30
0.0
 10
7.5607494717
 20
55.5409005385
 30
0.0
 10
7.5645141038
 20
55.6887597973
 30
0.0
 10
7.5687558565
 20
55.7938764832
 30
0.0
  0
SPLINE
  5
278
100
AcDbEntity
  8
0
100
AcDbSpline
 62
7
  6
BYLAYER
 70
0
 71
3
 72
11
 73
7
 74
0
 42
0.0000001
 43
0.0000001
 44
0.0000000001
 40
0.0
 40
0.0
 40
0.0
 40
0.0
 40
0.2500002043
 40
0.4999999574
 40
0.7500004286
 40
1.0
 40
1.0
 40
1.0
 40
1.0
 10
44.5606920334
 20
44.9773931895
 30
0.0
 10
44.5606944967
 20
44.9448288938
 30
0.0
 10
44.5603135672
 20
44.8797009129
 30
0.0
 10
44.5603970206
 20
44.7820077929
 30
0.0
 10
44.5603303787
 20
44.6843152894
 30
0.0
 10
44.5598091707
 20
44.6191867061
 30
0.0
 10
44.5599539673
 20
44.5866228147
 30
0.0
  0
SPLINE
  5
279
100
AcDbEntity
  8
0
100
AcDbSpline
 62
7
  6
BYLAYER
 70
0
 71
3
 72
11
 73
7
 74
0
 42
0.0000001
 43
0.0000001
 44
0.0000000001
 40
0.0
 40
0.0
 40
0.0
 40
0.0
 40
0.2499993645
 40
0.5000001113
 40
0.7499997626
 40
1.0
 40
1.0
 40
1.0
 40
1.0
 10
44.5599539673
 20
45.3682018487
 30
0.0
 10
44.5597760181
 20
45.3356349577
 30
0.0
 10
44.5603213991
 20
45.270499688
 30
0.0
 10
44.560411123
 20
45.1727977887
 30
0.0
 10
44.5603068883
 20
45.0750950108
 30
0.0
 10
44.5606895663
 20
45.0099606804
 30
0.0
 10
44.5606920334
 20
44.9773931895
 30
0.0
  0
SPLINE
  5
27A
100
AcDbEntity
  8
0
100
AcDbSpline
 62
7
  6
BYLAYER
 70
0
 71
3
 72
34
 73
30
 74
0
 42
0.0000001
 43
0.0000001
 44
0.0000000001
 40
0.0
 40
0.0
 40
0.0
 40
0.0
 40
0.0190004329
 40
0.0378719844
 40
0.075000172
 40
0.1110936653
 40
0.1459818316
 40
0.1796295655
 40
0.2120971241
 40
0.2434817435
 40
0.2739052138
 40
0.3034982313
 40
0.3323881023
 40
0.3884811856
 40
0.4431234143
 40
0.4971119721
 40
0.5511973475
 40
0.6061382048
 40
0.6627456339
 40
0.6919856894
 40
0.7219971082
 40
0.7529038559
 40
0.7848361354
 40
0.8179082118
 40
0.8521997017
 40
0.8877244789
 40
0.9243886549
 40
0.9619423888
 40
1.0
 40
1.0
 40
1.0
 40
1.0
 10
44.5599539673
 20
45.3682018487
 30
0.0
 10
44.5672106057
 20
45.4907372075
 30
0.0
 10
44.5895558064
 20
45.7345741883
 30
0.0
 10
44.6620716883
 20
46.2138556108
 30
0.0
 10
44.8016275325
 20
46.7936640211
 30
0.0
 10
45.0402683121
 20
47.4515351085
 30
0.0
 10
45.3394195765
 20
48.0591634569
 30
0.0
 10
45.6886474469
 20
48.6117405152
 30
0.0
 10
46.0778011124
 20
49.1083550084
 30
0.0
 10
46.4993894536
 20
49.5492393737
 30
0.0
 10
46.9468808138
 20
49.9358073968
 30
0.0
 10
47.4149732978
 20
50.2700853359
 30
0.0
 10
48.0542033286
 20
50.6448810548
 30
0.0
 10
48.8896981862
 20
50.997759857
 30
0.0
 10
49.9309858364
 20
51.2399658391
 30
0.0
 10
50.9850375587
 20
51.3051364478
 30
0.0
 10
52.0372823478
 20
51.1943501731
 30
0.0
 10
53.0725269043
 20
50.9046074149
 30
0.0
 10
53.8982967184
 20
50.5114578789
 30
0.0
 10
54.5264141973
 20
50.1028275209
 30
0.0
 10
54.9842440771
 20
49.7413698339
 30
0.0
 10
55.419067202
 20
49.3268633761
 30
0.0
 10
55.8247559849
 20
48.8571880421
 30
0.0
 10
56.194149275
 20
48.3313766452
 30
0.0
 10
56.5185266073
 20
47.7497899142
 30
0.0
 10
56.7878364505
 20
47.1152971399
 30
0.0
 10
56.990793737
 20
46.4343883757
 30
0.0
 10
57.1184707199
 20
45.7188835355
 30
0.0
 10
57.1483333587
 20
45.2299033294
 30
0.0
 10
57.1478390751
 20
44.9840371451
 30
0.0
  0
SPLINE
  5
27B
100
AcDbEntity
  8
0
100
AcDbSpline
 62
7
  6
BYLAYER
 70
0
 71
3
 72
24
 73
20
 74
0
 42
0.0000001
 43
0.0000001
 44
0.0000000001
 40
0.0
 40
0.0
 40
0.0
 40
0.0
 40
0.0393096772
 40
0.0782082354
 40
0.1540526906
 40
0.2267056433
 40
0.2959624427
 40
0.3620419075
 40
0.4253588275
 40
0.4863832816
 40
0.5455761195
 40
0.603373723
 40
0.6601715117
 40
0.7163390247
 40
0.7722306552
 40
0.82818929
 40
0.8845612327
 40
0.9417046312
 40
1.0
 40
1.0
 40
1.0
 40
1.0
 10
44.5599539673
 20
44.5866228147
 30
0.0
 10
44.5696795447
 20
44.4234140225
 30
0.0
 10
44.6028599848
 20
44.0993846799
 30
0.0
 10
44.7167991314
 20
43.4683828047
 30
0.0
 10
44.9421360779
 20
42.718856079
 30
0.0
 10
45.3287579071
 20
41.8964558932
 30
0.0
 10
45.8043704883
 20
41.1705808199
 30
0.0
 10
46.3470750375
 20
40.5444335296
 30
0.0
 10
46.9396444863
 20
40.0158222964
 30
0.0
 10
47.5689204147
 20
39.5804042045
 30
0.0
 10
48.2251442118
 20
39.2338636295
 30
0.0
 10
48.9004316535
 20
38.9716860866
 30
0.0
 10
49.5888439979
 20
38.7908995594
 30
0.0
 10
50.2852870453
 20
38.6896176489
 30
0.0
 10
50.9851382086
 20
38.6660247181
 30
0.0
 10
51.6841646692
 20
38.7200164123
 30
0.0
 10
52.3780256703
 20
38.8523634317
 30
0.0
 10
53.0619030764
 20
39.0645900266
 30
0.0
 10
53.5023864246
 20
39.2588233278
 30
0.0
 10
53.7182216454
 20
39.3692955137
 30
0.0
  0
SPLINE
  5
27C
100
AcDbEntity
  8
0
100
AcDbSpline
 62
7
  6
BYLAYER
 70
0
 71
3
 72
16
 73
12
 74
0
 42
0.0000001
 43
0.0000001
 44
0.0000000001
 40
0.0
 40
0.0
 40
0.0
 40
0.0
 40
0.1081479766
 40
0.2199230426
 40
0.3361758513
 40
0.4577299458
 40
0.5852447953
 40
0.7188651896
 40
0.8577900584
 40
0.9286763417
 40
1.0
 40
1.0
 40
1.0
 40
1.0
 10
53.7182216454
 20
39.3692955137
 30
0.0
 10
53.9397801601
 20
39.4826970861
 30
0.0
 10
54.3770814181
 20
39.7402896248
 30
0.0
 10
54.9930908372
 20
40.2114500107
 30
0.0
 10
55.5677057811
 20
40.7776985494
 30
0.0
 10
56.0864508556
 20
41.4424999657
 30
0.0
 10
56.529861757
 20
42.2068199988
 30
0.0
 10
56.8749279824
 20
43.0638865109
 30
0.0
 10
57.0580927623
 20
43.8362121398
 30
0.0
 10
57.1346682516
 20
44.4791539217
 30
0.0
 10
57.1480977756
 20
44.8066094496
 30
0.0
 10
57.1478363846
 20
44.9707548165
 30
0.0
  0
ENDSEC
  0
SECTION
  2
OBJECTS
  0
DICTIONARY
  5
C
100
AcDbDictionary
280
0
281
1
  3
ACAD_GROUP
350
D
  3
ACAD_MLINESTYLE
350
17
  3
ACAD_LAYOUT
350
1A
  3
ACAD_PLOTSETTINGS
350
19
  3
ACAD_PLOTSTYLENAME
350
E
  0
DICTIONARY
  5
D
102
{ACAD_REACTORS
330
C
102
}
100
AcDbDictionary
280
0
281
1
  0
ACDBDICTIONARYWDFLT
  5
E
102
{ACAD_REACTORS
330
C
102
}
100
AcDbDictionary
281
1
  3
Normal
350
F
100
AcDbDictionaryWithDefault
340
F
  0
DICTIONARY
  5
17
102
{ACAD_REACTORS
330
C
102
}
100
AcDbDictionary
280
0
281
1
  3
Standard
350
18
  0
DICTIONARY
  5
19
102
{ACAD_REACTORS
330
C
102
}
100
AcDbDictionary
281
1
  0
DICTIONARY
  5
1A
102
{ACAD_REACTORS
330
C
102
}
100
AcDbDictionary
281
1
  3
Model
350
27D
  3
Layout1
350
27E
  0
ACDBPLACEHOLDER
  5
F
102
{ACAD_REACTORS
330
E
102
}
  0
MLINESTYLE
  5
18
102
{ACAD_REACTORS
330
17
102
}
100
AcDbMlineStyle
  2
STANDARD
 70
0
  3

 62
256
 51
90.0
 52
90.0
 71
2
 49
0.5
 62
256
  6
BYLAYER
 49
-0.5
 62
256
  6
BYLAYER
  0
LAYOUT
  5
27D
102
{ACAD_REACTORS
330
1A
102
}
100
AcDbPlotSettings
  1

  2
none_device
  4

  6

 40
0.0
 41
0.0
 42
0.0
 43
0.0
 44
210.0
 45
297.0
 46
0.0
 47
0.0
 48
0.0
 49
0.0
140
0.0
141
0.0
142
1.0
143
1.0
 70
1024
 72
1
 73
0
 74
0
  7

 75
0
147
1.0
148
0.0
149
0.0
100
AcDbLayout
  1
Model
 70
0
 71
0
 10
0.0
 20
0.0
 11
210.0
 21
297.0
 12
0.0
 22
0.0
 32
0.0
 14
0.0
 24
0.0
 34
0.0
 15
0.0
 25
0.0
 35
0.0
146
0.0
 13
0.0
 23
0.0
 33
0.0
 16
1.0
 26
0.0
 36
0.0
 17
0.0
 27
1.0
 37
0.0
 76
0
330
210
345
0
346
0
  0
LAYOUT
  5
27E
102
{ACAD_REACTORS
330
1A
102
}
100
AcDbPlotSettings
  1

  2
none_device
  4

  6

 40
0.0
 41
0.0
 42
0.0
 43
0.0
 44
210.0
 45
297.0
 46
0.0
 47
0.0
 48
0.0
 49
0.0
140
0.0
141
0.0
142
1.0
143
1.0
 70
0
 72
1
 73
0
 74
0
  7

 75
0
147
1.0
148
0.0
149
0.0
100
AcDbLayout
  1
Layout1
 70
0
 71
1
 10
0.0
 20
0.0
 11
210.0
 21
297.0
 12
0.0
 22
0.0
 32
0.0
 14
0.0
 24
0.0
 34
0.0
 15
0.0
 25
0.0
 35
0.0
146
0.0
 13
0.0
 23
0.0
 33
0.0
 16
1.0
 26
0.0
 36
0.0
 17
0.0
 27
1.0
 37
0.0
 76
0
330
211
345
0
346
0
  0
ENDSEC
  0
EOF
