999
DXF file: C:\Users\sesa63760\Dev\_Creo\CAD\MCADID0004425_3D-CAD\drw0001_1.dxf
999
Pro/ENGINEER 2019471 by Parametric Technology Corporation
  0
SECTION
  2
HEADER
  9
$ACADVER
  1
AC1024
  9
$DWGCODEPAGE
  3
ANSI_1252
  9
$EXTMAX
 10
103.4725393745
 20
146.3397342583
 30
0.0
  9
$EXTMIN
 10
0.0
 20
0.0
 30
0.0
  9
$LIMMIN
 10
0.0
 20
0.0
  9
$LIMMAX
 10
103.4725393745
 20
146.3397342583
  9
$VIEWCTR
 10
51.7362696873
 20
73.1698671291
  9
$VIEWSIZE
 40
146.3397342583
  9
$CLAYER
  8
0
  9
$LTSCALE
 40
9.5391826776
  9
$CELTYPE
  6
BYLAYER
  9
$DIMSCALE
 40
1.0
  9
$DIMASZ
 40
1.2318159449
  9
$DIMEXO
 40
1.0
  9
$DIMDLI
 40
6.5907080318
  9
$DIMEXE
 40
1.0
  9
$DIMCEN
 40
1.5609571654
  9
$DIMLFAC
 40
1.0
  9
$DIMBLK
  1
_FILLED
  9
$DIMALT
 70
0
  9
$DIMALTF
 40
0.0393700787
  9
$DIMTXT
 40
1.7245423229
  9
$DIMTOL
 70
1
  9
$DIMLIM
 70
0
  9
$DIMTFAC
 40
1.0
  9
$DIMTP
 40
0.01
  9
$DIMTM
 40
0.01
  9
$DIMGAP
 40
0.625
  9
$DIMDSEP
 70
46
  9
$AUNITS
 70
0
  9
$PDMODE
 70
3
  9
$PDSIZE
 40
0.3125
  9
$HANDSEED
  5
265
  9
$TILEMODE
 70
1
  9
$MEASUREMENT
 70
1
  9
$INSUNITS
 70
4
  0
ENDSEC
  0
SECTION
  2
CLASSES
  0
CLASS
  1
ACDBDICTIONARYWDFLT
  2
AcDbDictionaryWithDefault
  3
AutoCAD 2000
 90
0
 91
1
280
0
281
0
  0
CLASS
  1
ACDBPLACEHOLDER
  2
AcDbPlaceHolder
  3
AutoCAD 2000
 90
0
 91
1
280
0
281
0
  0
CLASS
  1
LAYOUT
  2
AcDbLayout
  3
AutoCAD 2000
 90
0
 91
0
280
0
281
0
  0
ENDSEC
  0
SECTION
  2
TABLES
  0
TABLE
  2
VPORT
  5
8
100
AcDbSymbolTable
 70
2
  0
VPORT
  5
1F4
100
AcDbSymbolTableRecord
100
AcDbViewportTableRecord
  2
*ACTIVE
 70
0
 10
0.0
 20
0.0
 11
1.0
 21
1.0
 12
51.7362696873
 22
73.1698671291
 13
0.0
 23
0.0
 14
1.0
 24
1.0
 15
0.0
 25
0.0
 16
0.0
 26
0.0
 36
1.0
 17
0.0
 27
0.0
 37
0.0
 40
146.3397342583
 41
0.7070707071
 42
50.0
 43
0.0
 44
0.0
 50
0.0
 51
0.0
 71
0
 72
100
 73
1
 74
1
 75
0
 76
0
 77
0
 78
0
  0
ENDTAB
  0
TABLE
  2
LTYPE
  5
5
100
AcDbSymbolTable
 70
6
  0
LTYPE
  5
14
100
AcDbSymbolTableRecord
100
AcDbLinetypeTableRecord
  2
BYBLOCK
 70
0
  3

 72
65
 73
0
 40
0.0
  0
LTYPE
  5
15
100
AcDbSymbolTableRecord
100
AcDbLinetypeTableRecord
  2
BYLAYER
 70
0
  3

 72
65
 73
0
 40
0.0
  0
LTYPE
  5
16
100
AcDbSymbolTableRecord
100
AcDbLinetypeTableRecord
  2
CONTINUOUS
 70
64
  3
Solid line
 72
65
 73
0
 40
0.0
  0
LTYPE
  5
1F5
100
AcDbSymbolTableRecord
100
AcDbLinetypeTableRecord
  2
CENTER
 70
64
  3
____ _ ____ _ ____ _ ____ _ ____ _ ____ _ ____
 72
65
 73
4
 40
0.6
 49
0.375
 74
0
 49
-0.075
 74
0
 49
0.075
 74
0
 49
-0.075
 74
0
  0
LTYPE
  5
1F6
100
AcDbSymbolTableRecord
100
AcDbLinetypeTableRecord
  2
HIDDEN
 70
64
  3
- - - - - - - - - - - - - - - - - - - -
 72
65
 73
2
 40
0.2
 49
0.1
 74
0
 49
-0.1
 74
0
  0
LTYPE
  5
1F7
100
AcDbSymbolTableRecord
100
AcDbLinetypeTableRecord
  2
PHANTOM
 70
64
  3
_____ _ _ _____ _ _ _____ _ _ _____
 72
65
 73
6
 40
0.8
 49
0.45
 74
0
 49
-0.05
 74
0
 49
0.1
 74
0
 49
-0.05
 74
0
 49
0.1
 74
0
 49
-0.05
 74
0
  0
LTYPE
  5
1F8
100
AcDbSymbolTableRecord
100
AcDbLinetypeTableRecord
  2
DOT
 70
64
  3
. . . . . . . . . . . . . . . . . . . .
 72
65
 73
2
 40
0.2
 49
0.1
 74
0
 49
-0.1
 74
0
  0
LTYPE
  5
1F9
100
AcDbSymbolTableRecord
100
AcDbLinetypeTableRecord
  2
DASHED
 70
64
  3
- - - - - - - - - - - - - - - - - - - -
 72
65
 73
2
 40
0.2
 49
0.1
 74
0
 49
-0.1
 74
0
  0
ENDTAB
  0
TABLE
  2
LAYER
  5
2
100
AcDbSymbolTable
 70
36
  0
LAYER
  5
10
100
AcDbSymbolTableRecord
100
AcDbLayerTableRecord
  2
0
 70
0
 62
7
  6
CONTINUOUS
370
-3
390
F
  0
LAYER
  5
1FA
100
AcDbSymbolTableRecord
100
AcDbLayerTableRecord
  2
DEFAULT_1
 70
0
 62
7
  6
CENTER
370
-3
390
F
  0
LAYER
  5
1FB
100
AcDbSymbolTableRecord
100
AcDbLayerTableRecord
  2
DEFAULT_2
 70
0
 62
7
  6
HIDDEN
370
-3
390
F
  0
LAYER
  5
1FC
100
AcDbSymbolTableRecord
100
AcDbLayerTableRecord
  2
DEFAULT_3
 70
0
 62
7
  6
PHANTOM
370
-3
390
F
  0
LAYER
  5
1FD
100
AcDbSymbolTableRecord
100
AcDbLayerTableRecord
  2
00_COMPONENTS
 70
0
 62
7
  6
CONTINUOUS
370
-3
390
F
  0
LAYER
  5
1FE
100
AcDbSymbolTableRecord
100
AcDbLayerTableRecord
  2
01_1_DEFAULT_DATUMS
 70
0
 62
7
  6
CONTINUOUS
370
-3
390
F
  0
LAYER
  5
1FF
100
AcDbSymbolTableRecord
100
AcDbLayerTableRecord
  2
01_PLANES
 70
0
 62
7
  6
CONTINUOUS
370
-3
390
F
  0
LAYER
  5
200
100
AcDbSymbolTableRecord
100
AcDbLayerTableRecord
  2
02_COORD_SYS
 70
0
 62
7
  6
CONTINUOUS
370
-3
390
F
  0
LAYER
  5
201
100
AcDbSymbolTableRecord
100
AcDbLayerTableRecord
  2
03_AXES
 70
0
 62
7
  6
CONTINUOUS
370
-3
390
F
  0
LAYER
  5
202
100
AcDbSymbolTableRecord
100
AcDbLayerTableRecord
  2
04_POINTS
 70
0
 62
7
  6
CONTINUOUS
370
-3
390
F
  0
LAYER
  5
203
100
AcDbSymbolTableRecord
100
AcDbLayerTableRecord
  2
05_CURVES
 70
0
 62
7
  6
CONTINUOUS
370
-3
390
F
  0
LAYER
  5
204
100
AcDbSymbolTableRecord
100
AcDbLayerTableRecord
  2
06_SURFS
 70
0
 62
7
  6
CONTINUOUS
370
-3
390
F
  0
LAYER
  5
205
100
AcDbSymbolTableRecord
100
AcDbLayerTableRecord
  2
07_COSMETICS
 70
0
 62
7
  6
CONTINUOUS
370
-3
390
F
  0
LAYER
  5
206
100
AcDbSymbolTableRecord
100
AcDbLayerTableRecord
  2
10_NOTES
 70
0
 62
7
  6
CONTINUOUS
370
-3
390
F
  0
LAYER
  5
207
100
AcDbSymbolTableRecord
100
AcDbLayerTableRecord
  2
11_NOTES_PUB
 70
0
 62
7
  6
CONTINUOUS
370
-3
390
F
  0
LAYER
  5
208
100
AcDbSymbolTableRecord
100
AcDbLayerTableRecord
  2
13_REF_GTOL
 70
0
 62
7
  6
CONTINUOUS
370
-3
390
F
  0
LAYER
  5
209
100
AcDbSymbolTableRecord
100
AcDbLayerTableRecord
  2
16_MISC
 70
0
 62
7
  6
CONTINUOUS
370
-3
390
F
  0
LAYER
  5
20A
100
AcDbSymbolTableRecord
100
AcDbLayerTableRecord
  2
17_NO_PRINT
 70
0
 62
7
  6
CONTINUOUS
370
-3
390
F
  0
LAYER
  5
20B
100
AcDbSymbolTableRecord
100
AcDbLayerTableRecord
  2
18_DATUM_CAMS_JOINTS
 70
0
 62
7
  6
CONTINUOUS
370
-3
390
F
  0
LAYER
  5
20C
100
AcDbSymbolTableRecord
100
AcDbLayerTableRecord
  2
19_DATUM_FUNCTIONAL
 70
0
 62
7
  6
CONTINUOUS
370
-3
390
F
  0
LAYER
  5
20D
100
AcDbSymbolTableRecord
100
AcDbLayerTableRecord
  2
20_DATUM_KINEMATIC_SCHEME
 70
0
 62
7
  6
CONTINUOUS
370
-3
390
F
  0
ENDTAB
  0
TABLE
  2
STYLE
  5
3
100
AcDbSymbolTable
 70
1
  0
STYLE
  5
11
100
AcDbSymbolTableRecord
100
AcDbTextStyleTableRecord
  2
STANDARD
 70
0
 40
0.0
 41
1.0
 50
0.0
 71
0
 42
0.2
  3
ARIAL.TTF
  4

  0
STYLE
  5
20E
100
AcDbSymbolTableRecord
100
AcDbTextStyleTableRecord
  2
TEXTSTYLE_1
 70
0
 40
0.0
 41
0.8
 50
0.0
 71
0
 42
0.2
  3
gdt
  4

  0
ENDTAB
  0
TABLE
  2
VIEW
  5
6
100
AcDbSymbolTable
 70
0
  0
ENDTAB
  0
TABLE
  2
UCS
  5
7
100
AcDbSymbolTable
 70
0
  0
ENDTAB
  0
TABLE
  2
APPID
  5
9
100
AcDbSymbolTable
 70
1
  0
APPID
  5
20F
100
AcDbSymbolTableRecord
100
AcDbRegAppTableRecord
  2
ACAD
 70
0
  0
ENDTAB
  0
TABLE
  2
BLOCK_RECORD
  5
1
100
AcDbSymbolTable
 70
0
  0
BLOCK_RECORD
  5
210
100
AcDbSymbolTableRecord
100
AcDbBlockTableRecord
  2
*Model_Space
  0
BLOCK_RECORD
  5
211
100
AcDbSymbolTableRecord
100
AcDbBlockTableRecord
  2
*Paper_Space
  0
BLOCK_RECORD
  5
212
100
AcDbSymbolTableRecord
100
AcDbBlockTableRecord
  2
_FILLED
  0
ENDTAB
  0
TABLE
  2
DIMSTYLE
  5
A
100
AcDbSymbolTable
 70
1
100
AcDbDimStyleTable
 71
0
  0
DIMSTYLE
105
213
100
AcDbSymbolTableRecord
100
AcDbDimStyleTableRecord
  2
STANDARD
 70
0
  3

  4

 40
1.0
 41
1.2318159449
 42
1.0
 43
0.38
 44
1.0
 45
0.0
 46
0.0
 47
0.01
 48
0.01
140
1.7245423229
141
0.09
142
0.0
143
25.4
144
1.0
145
0.0
146
1.0
147
0.625
 71
1
 72
0
 73
0
 74
0
 75
0
 76
0
 77
1
 78
8
 79
2
170
0
171
1
172
0
173
0
174
0
175
0
176
0
177
0
178
0
270
2
179
2
271
2
272
2
273
2
274
2
275
0
280
0
281
0
282
0
283
1
284
8
285
0
286
0
287
3
288
0
340
11
278
46
341
212
342
212
343
212
344
212
  0
ENDTAB
  0
ENDSEC
  0
SECTION
  2
BLOCKS
  0
BLOCK
  5
20
100
AcDbEntity
  8
0
100
AcDbBlockBegin
  2
*Model_Space
 70
0
 10
0.0
 20
0.0
 30
0.0
  3
*Model_Space
  1

  0
ENDBLK
  5
21
100
AcDbEntity
  8
0
100
AcDbBlockEnd
  0
BLOCK
  5
1C
100
AcDbEntity
  8
0
100
AcDbBlockBegin
  2
*Paper_Space
 70
0
 10
0.0
 20
0.0
 30
0.0
  3
*Paper_Space
  1

  0
ENDBLK
  5
1D
100
AcDbEntity
  8
0
100
AcDbBlockEnd
  0
BLOCK
  5
214
100
AcDbEntity
  8
0
100
AcDbBlockBegin
  2
_FILLED
 70
64
 10
0.0
 20
0.0
  3
_FILLED
  1

  0
SOLID
  5
215
100
AcDbEntity
  8
0
  6
BYBLOCK
 62
0
100
AcDbTrace
 10
0.0
 20
0.0
 11
-1.0
 21
0.25
 12
-1.0
 22
-0.25
 13
-1.0
 23
-0.25
  0
ENDBLK
  5
216
100
AcDbEntity
  8
0
  6
BYBLOCK
 62
0
100
AcDbBlockEnd
  0
ENDSEC
  0
SECTION
  2
ENTITIES
  0
LINE
  5
217
100
AcDbEntity
  8
0
100
AcDbLine
 62
7
  6
BYLAYER
 10
24.6311333787
 20
131.3197591951
 11
31.7021717508
 21
135.4022007338
  0
LINE
  5
218
100
AcDbEntity
  8
0
100
AcDbLine
 62
7
  6
BYLAYER
 10
24.6311333787
 20
41.5044933108
 11
76.9572530395
 21
11.2946774763
  0
LINE
  5
219
100
AcDbEntity
  8
0
100
AcDbLine
 62
7
  6
BYLAYER
 10
35.2377792559
 20
109.6826019518
 11
40.8947059331
 21
112.9486105963
  0
LINE
  5
21A
100
AcDbEntity
  8
0
100
AcDbLine
 62
7
  6
BYLAYER
 10
24.638204417
 20
44.0552648824
 11
23.9310946919
 21
44.4635056369
  0
LINE
  5
21B
100
AcDbEntity
  8
0
100
AcDbLine
 62
7
  6
BYLAYER
 10
21.8866786122
 20
47.45161518
 11
23.9310946919
 21
46.2712977084
  0
LINE
  5
21C
100
AcDbEntity
  8
0
100
AcDbLine
 62
7
  6
BYLAYER
 10
24.638204417
 20
48.7599156278
 11
23.9310946919
 21
49.1681563824
  0
LINE
  5
21D
100
AcDbEntity
  8
0
100
AcDbLine
 62
7
  6
BYLAYER
 10
21.0514911219
 20
50.0267840763
 11
21.0583757909
 21
49.2496076837
  0
LINE
  5
21E
100
AcDbEntity
  8
0
100
AcDbLine
 62
7
  6
BYLAYER
 10
23.9310946919
 20
44.4635056369
 11
23.9310946919
 21
49.1681563824
  0
LINE
  5
21F
100
AcDbEntity
  8
0
100
AcDbLine
 62
7
  6
BYLAYER
 10
24.6311333787
 20
131.3197591951
 11
24.6311333787
 21
122.3382326066
  0
LINE
  5
220
100
AcDbEntity
  8
0
100
AcDbLine
 62
7
  6
BYLAYER
 10
24.6311333787
 20
57.0180392363
 11
24.6311333787
 21
41.5044933108
  0
LINE
  5
221
100
AcDbEntity
  8
0
100
AcDbLine
 62
7
  6
BYLAYER
 10
24.9846882412
 20
122.1341122294
 11
24.9846882412
 21
56.813918859
  0
LINE
  5
222
100
AcDbEntity
  8
0
100
AcDbLine
 62
7
  6
BYLAYER
 10
76.2501433144
 20
27.2164641563
 11
40.894657057
 21
47.6285018823
  0
LINE
  5
223
100
AcDbEntity
  8
0
100
AcDbLine
 62
7
  6
BYLAYER
 10
24.9846882412
 20
56.813918859
 11
24.6311333787
 21
57.0180392363
  0
LINE
  5
224
100
AcDbEntity
  8
0
100
AcDbLine
 62
7
  6
BYLAYER
 10
83.3211816865
 20
31.298905695
 11
47.9656954292
 21
51.710943421
  0
LINE
  5
225
100
AcDbEntity
  8
0
100
AcDbLine
 62
7
  6
BYLAYER
 10
35.2377792559
 20
57.4264472555
 11
35.2377792559
 21
109.6826019518
  0
LINE
  5
226
100
AcDbEntity
  8
0
100
AcDbLine
 62
7
  6
BYLAYER
 10
42.308817628
 20
112.1322477369
 11
42.308817628
 21
61.5088887942
  0
LINE
  5
227
100
AcDbEntity
  8
0
100
AcDbLine
 62
7
  6
BYLAYER
 10
76.9572530395
 20
101.1099433606
 11
84.0282914117
 21
105.1923848993
  0
LINE
  5
228
100
AcDbEntity
  8
0
100
AcDbLine
 62
7
  6
BYLAYER
 10
23.9310946919
 20
49.1681563824
 11
24.6311333787
 21
50.0390192308
  0
LINE
  5
229
100
AcDbEntity
  8
0
100
AcDbLine
 62
7
  6
BYLAYER
 10
76.2501433144
 20
92.5366575267
 11
84.0282914117
 21
97.027360728
  0
LINE
  5
22A
100
AcDbEntity
  8
0
100
AcDbLine
 62
7
  6
BYLAYER
 10
24.6311333787
 20
57.0180392363
 11
24.9846882412
 21
57.2221630129
  0
LINE
  5
22B
100
AcDbEntity
  8
0
100
AcDbLine
 62
7
  6
BYLAYER
 10
76.9572530395
 20
25.9917209846
 11
76.2501433144
 21
27.2164641563
  0
LINE
  5
22C
100
AcDbEntity
  8
0
100
AcDbLine
 62
7
  6
BYLAYER
 10
42.308817628
 20
61.5088887942
 11
35.2377792559
 21
57.4264472555
  0
LINE
  5
22D
100
AcDbEntity
  8
0
100
AcDbLine
 62
7
  6
BYLAYER
 10
23.8866446782
 20
54.1817460552
 11
23.915355709
 21
54.1981540064
  0
LINE
  5
22E
100
AcDbEntity
  8
0
100
AcDbLine
 62
7
  6
BYLAYER
 10
23.2168844887
 20
53.802952517
 11
23.915355709
 21
54.1981540064
  0
LINE
  5
22F
100
AcDbEntity
  8
0
100
AcDbLine
 62
7
  6
BYLAYER
 10
83.3211816865
 20
31.298905695
 11
84.0282914117
 21
30.0741625234
  0
LINE
  5
230
100
AcDbEntity
  8
0
100
AcDbLine
 62
7
  6
BYLAYER
 10
40.894657057
 20
47.6285018823
 11
47.9656954292
 21
51.710943421
  0
LINE
  5
231
100
AcDbEntity
  8
0
100
AcDbLine
 62
7
  6
BYLAYER
 10
76.9572530395
 20
11.2946774763
 11
76.9572530395
 21
25.9917209846
  0
LINE
  5
232
100
AcDbEntity
  8
0
100
AcDbLine
 62
7
  6
BYLAYER
 10
76.9572530395
 20
92.9449191893
 11
76.9572530395
 21
101.1099433606
  0
LINE
  5
233
100
AcDbEntity
  8
0
100
AcDbLine
 62
7
  6
BYLAYER
 10
84.0282914117
 20
15.377119015
 11
84.0282914117
 21
30.0741625234
  0
LINE
  5
234
100
AcDbEntity
  8
0
100
AcDbLine
 62
7
  6
BYLAYER
 10
84.0282914117
 20
97.027360728
 11
84.0282914117
 21
105.1923848993
  0
LINE
  5
235
100
AcDbEntity
  8
0
100
AcDbLine
 62
7
  6
BYLAYER
 10
24.6311333787
 20
122.3382326066
 11
24.9846882412
 21
122.1341122294
  0
LINE
  5
236
100
AcDbEntity
  8
0
100
AcDbLine
 62
7
  6
BYLAYER
 10
40.894657057
 20
112.9486952527
 11
76.2501433144
 21
92.5366575267
  0
LINE
  5
237
100
AcDbEntity
  8
0
100
AcDbLine
 62
7
  6
BYLAYER
 10
76.9572530395
 20
101.1099433606
 11
24.6311333787
 21
131.3197591951
  0
LINE
  5
238
100
AcDbEntity
  8
0
100
AcDbLine
 62
7
  6
BYLAYER
 10
84.0282914117
 20
105.1923848993
 11
31.7021717508
 21
135.4022007338
  0
LINE
  5
239
100
AcDbEntity
  8
0
100
AcDbLine
 62
7
  6
BYLAYER
 10
76.2501433144
 20
27.2164641563
 11
83.3211816865
 21
31.298905695
  0
LINE
  5
23A
100
AcDbEntity
  8
0
100
AcDbLine
 62
7
  6
BYLAYER
 10
76.9572530395
 20
25.9917209846
 11
84.0282914117
 21
30.0741625234
  0
LINE
  5
23B
100
AcDbEntity
  8
0
100
AcDbLine
 62
7
  6
BYLAYER
 10
76.9572530395
 20
11.2946774763
 11
84.0282914117
 21
15.377119015
  0
ARC
  5
23C
100
AcDbEntity
  8
0
100
AcDbCircle
 62
7
  6
BYLAYER
 10
77.4168985449
 20
29.8608646101
 40
0.5464741754
100
AcDbArc
 50
161.2711092522
 51
163.8499380705
  0
SPLINE
  5
23D
100
AcDbEntity
  8
0
100
AcDbSpline
 62
7
  6
BYLAYER
 70
0
 71
3
 72
17
 73
13
 74
0
 42
0.0000001
 43
0.0000001
 44
0.0000000001
 40
0.0
 40
0.0
 40
0.0
 40
0.0
 40
0.042857965
 40
0.0874854797
 40
0.1353180708
 40
0.1872814984
 40
0.3045423159
 40
0.4382097446
 40
0.5825520305
 40
0.7297107839
 40
0.8713099826
 40
1.0
 40
1.0
 40
1.0
 40
1.0
 10
27.1667044213
 20
51.809843408
 30
0.0
 10
27.2159979612
 20
51.8383292869
 30
0.0
 10
27.3246950561
 20
51.8834834174
 30
0.0
 10
27.5040966043
 20
51.9097960558
 30
0.0
 10
27.6967658857
 20
51.8955984254
 30
0.0
 10
27.9767159253
 20
51.8211582562
 30
0.0
 10
28.3345893524
 20
51.6254722652
 30
0.0
 10
28.7299805398
 20
51.2753161162
 30
0.0
 10
29.0794904275
 20
50.8279601607
 30
0.0
 10
29.3545689418
 20
50.3195414408
 30
0.0
 10
29.5330722242
 20
49.7917514258
 30
0.0
 10
29.5809014547
 20
49.432290914
 30
0.0
 10
29.5809014547
 20
49.2613394519
 30
0.0
  0
SPLINE
  5
23E
100
AcDbEntity
  8
0
100
AcDbSpline
 62
7
  6
BYLAYER
 70
0
 71
3
 72
17
 73
13
 74
0
 42
0.0000001
 43
0.0000001
 44
0.0000000001
 40
0.0
 40
0.0
 40
0.0
 40
0.0
 40
0.042857965
 40
0.0874854797
 40
0.1353180708
 40
0.1872814984
 40
0.3045423159
 40
0.4382097446
 40
0.5825520305
 40
0.7297107839
 40
0.8713099826
 40
1.0
 40
1.0
 40
1.0
 40
1.0
 10
27.1667044213
 20
60.7913699964
 30
0.0
 10
27.2159979612
 20
60.8198558754
 30
0.0
 10
27.3246950561
 20
60.8650100058
 30
0.0
 10
27.5040966043
 20
60.8913226443
 30
0.0
 10
27.6967658857
 20
60.8771250138
 30
0.0
 10
27.9767159253
 20
60.8026848447
 30
0.0
 10
28.3345893524
 20
60.6069988536
 30
0.0
 10
28.7299805398
 20
60.2568427046
 30
0.0
 10
29.0794904275
 20
59.8094867491
 30
0.0
 10
29.3545689418
 20
59.3010680292
 30
0.0
 10
29.5330722242
 20
58.7732780142
 30
0.0
 10
29.5809014547
 20
58.4138175024
 30
0.0
 10
29.5809014547
 20
58.2428660403
 30
0.0
  0
SPLINE
  5
23F
100
AcDbEntity
  8
0
100
AcDbSpline
 62
7
  6
BYLAYER
 70
0
 71
3
 72
17
 73
13
 74
0
 42
0.0000001
 43
0.0000001
 44
0.0000000001
 40
0.0
 40
0.0
 40
0.0
 40
0.0
 40
0.042857965
 40
0.0874854797
 40
0.1353180708
 40
0.1872814984
 40
0.3045423159
 40
0.4382097446
 40
0.5825520305
 40
0.7297107839
 40
0.8713099826
 40
1.0
 40
1.0
 40
1.0
 40
1.0
 10
27.1667044213
 20
111.4145198584
 30
0.0
 10
27.2159979612
 20
111.4430057374
 30
0.0
 10
27.3246950561
 20
111.4881598678
 30
0.0
 10
27.5040966043
 20
111.5144725063
 30
0.0
 10
27.6967658857
 20
111.5002748759
 30
0.0
 10
27.9767159253
 20
111.4258347067
 30
0.0
 10
28.3345893524
 20
111.2301487157
 30
0.0
 10
28.7299805398
 20
110.8799925667
 30
0.0
 10
29.0794904275
 20
110.4326366111
 30
0.0
 10
29.3545689418
 20
109.9242178912
 30
0.0
 10
29.5330722242
 20
109.3964278762
 30
0.0
 10
29.5809014547
 20
109.0369673645
 30
0.0
 10
29.5809014547
 20
108.8660159023
 30
0.0
  0
SPLINE
  5
240
100
AcDbEntity
  8
0
100
AcDbSpline
 62
7
  6
BYLAYER
 70
0
 71
3
 72
17
 73
13
 74
0
 42
0.0000001
 43
0.0000001
 44
0.0000000001
 40
0.0
 40
0.0
 40
0.0
 40
0.0
 40
0.042857965
 40
0.0874854797
 40
0.1353180708
 40
0.1872814984
 40
0.3045423159
 40
0.4382097446
 40
0.5825520305
 40
0.7297107839
 40
0.8713099826
 40
1.0
 40
1.0
 40
1.0
 40
1.0
 10
27.1667044213
 20
117.9465391955
 30
0.0
 10
27.2159979612
 20
117.9750250744
 30
0.0
 10
27.3246950561
 20
118.0201792049
 30
0.0
 10
27.5040966043
 20
118.0464918433
 30
0.0
 10
27.6967658857
 20
118.0322942129
 30
0.0
 10
27.9767159253
 20
117.9578540437
 30
0.0
 10
28.3345893524
 20
117.7621680527
 30
0.0
 10
28.7299805398
 20
117.4120119037
 30
0.0
 10
29.0794904275
 20
116.9646559482
 30
0.0
 10
29.3545689418
 20
116.4562372283
 30
0.0
 10
29.5330722242
 20
115.9284472133
 30
0.0
 10
29.5809014547
 20
115.5689867015
 30
0.0
 10
29.5809014547
 20
115.3980352394
 30
0.0
  0
SPLINE
  5
241
100
AcDbEntity
  8
0
100
AcDbSpline
 62
7
  6
BYLAYER
 70
0
 71
3
 72
17
 73
13
 74
0
 42
0.0000001
 43
0.0000001
 44
0.0000000001
 40
0.0
 40
0.0
 40
0.0
 40
0.0
 40
0.042857965
 40
0.0874854797
 40
0.1353180708
 40
0.1872814984
 40
0.3045423159
 40
0.4382097446
 40
0.5825520305
 40
0.7297107839
 40
0.8713099826
 40
1.0
 40
1.0
 40
1.0
 40
1.0
 10
69.5932879302
 20
27.3153981368
 30
0.0
 10
69.64258147
 20
27.3438840157
 30
0.0
 10
69.7512785649
 20
27.3890381462
 30
0.0
 10
69.9306801132
 20
27.4153507846
 30
0.0
 10
70.1233493945
 20
27.4011531542
 30
0.0
 10
70.4032994341
 20
27.326712985
 30
0.0
 10
70.7611728612
 20
27.131026994
 30
0.0
 10
71.1565640486
 20
26.780870845
 30
0.0
 10
71.5060739363
 20
26.3335148894
 30
0.0
 10
71.7811524506
 20
25.8250961696
 30
0.0
 10
71.959655733
 20
25.2973061546
 30
0.0
 10
72.0074849635
 20
24.9378456428
 30
0.0
 10
72.0074849635
 20
24.7668941806
 30
0.0
  0
SPLINE
  5
242
100
AcDbEntity
  8
0
100
AcDbSpline
 62
7
  6
BYLAYER
 70
0
 71
3
 72
11
 73
7
 74
0
 42
0.0000001
 43
0.0000001
 44
0.0000000001
 40
0.0
 40
0.0
 40
0.0
 40
0.0
 40
0.2896413964
 40
0.5491107671
 40
0.7822355978
 40
1.0
 40
1.0
 40
1.0
 40
1.0
 10
72.0074849635
 20
24.7668941806
 30
0.0
 10
72.0074849635
 20
24.6655797488
 30
0.0
 10
71.9920851324
 20
24.4728557186
 30
0.0
 10
71.9140823831
 20
24.2080590952
 30
0.0
 10
71.7826870423
 20
23.9931389791
 30
0.0
 10
71.6591951113
 20
23.8894657645
 30
0.0
 10
71.5932430963
 20
23.8513532426
 30
0.0
  0
SPLINE
  5
243
100
AcDbEntity
  8
0
100
AcDbSpline
 62
7
  6
BYLAYER
 70
0
 71
3
 72
11
 73
7
 74
0
 42
0.0000001
 43
0.0000001
 44
0.0000000001
 40
0.0
 40
0.0
 40
0.0
 40
0.0
 40
0.2896413964
 40
0.5491107671
 40
0.7822355978
 40
1.0
 40
1.0
 40
1.0
 40
1.0
 10
29.5809014547
 20
115.3980352394
 30
0.0
 10
29.5809014547
 20
115.2967208076
 30
0.0
 10
29.5655016236
 20
115.1039967773
 30
0.0
 10
29.4874988742
 20
114.8392001539
 30
0.0
 10
29.3561035335
 20
114.6242800378
 30
0.0
 10
29.2326116024
 20
114.5206068232
 30
0.0
 10
29.1666595874
 20
114.4824943013
 30
0.0
  0
SPLINE
  5
244
100
AcDbEntity
  8
0
100
AcDbSpline
 62
7
  6
BYLAYER
 70
0
 71
3
 72
11
 73
7
 74
0
 42
0.0000001
 43
0.0000001
 44
0.0000000001
 40
0.0
 40
0.0
 40
0.0
 40
0.0
 40
0.2896413964
 40
0.5491107671
 40
0.7822355978
 40
1.0
 40
1.0
 40
1.0
 40
1.0
 10
29.5809014547
 20
108.8660159023
 30
0.0
 10
29.5809014547
 20
108.7647014705
 30
0.0
 10
29.5655016236
 20
108.5719774403
 30
0.0
 10
29.4874988742
 20
108.3071808169
 30
0.0
 10
29.3561035335
 20
108.0922607007
 30
0.0
 10
29.2326116024
 20
107.9885874862
 30
0.0
 10
29.1666595874
 20
107.9504749643
 30
0.0
  0
SPLINE
  5
245
100
AcDbEntity
  8
0
100
AcDbSpline
 62
7
  6
BYLAYER
 70
0
 71
3
 72
11
 73
7
 74
0
 42
0.0000001
 43
0.0000001
 44
0.0000000001
 40
0.0
 40
0.0
 40
0.0
 40
0.0
 40
0.2896413964
 40
0.5491107671
 40
0.7822355978
 40
1.0
 40
1.0
 40
1.0
 40
1.0
 10
29.5809014547
 20
58.2428660403
 30
0.0
 10
29.5809014547
 20
58.1415516085
 30
0.0
 10
29.5655016236
 20
57.9488275782
 30
0.0
 10
29.4874988742
 20
57.6840309548
 30
0.0
 10
29.3561035335
 20
57.4691108387
 30
0.0
 10
29.2326116024
 20
57.3654376241
 30
0.0
 10
29.1666595874
 20
57.3273251022
 30
0.0
  0
SPLINE
  5
246
100
AcDbEntity
  8
0
100
AcDbSpline
 62
7
  6
BYLAYER
 70
0
 71
3
 72
11
 73
7
 74
0
 42
0.0000001
 43
0.0000001
 44
0.0000000001
 40
0.0
 40
0.0
 40
0.0
 40
0.0
 40
0.2896413964
 40
0.5491107671
 40
0.7822355978
 40
1.0
 40
1.0
 40
1.0
 40
1.0
 10
29.5809014547
 20
49.2613394519
 30
0.0
 10
29.5809014547
 20
49.1600250201
 30
0.0
 10
29.5655016236
 20
48.9673009898
 30
0.0
 10
29.4874988742
 20
48.7025043664
 30
0.0
 10
29.3561035335
 20
48.4875842503
 30
0.0
 10
29.2326116024
 20
48.3839110357
 30
0.0
 10
29.1666595874
 20
48.3457985138
 30
0.0
  0
SPLINE
  5
247
100
AcDbEntity
  8
0
100
AcDbSpline
 62
7
  6
BYLAYER
 70
0
 71
3
 72
15
 73
11
 74
0
 42
0.0000001
 43
0.0000001
 44
0.0000000001
 40
0.0
 40
0.0
 40
0.0
 40
0.0
 40
0.1141555516
 40
0.2373276756
 40
0.3669773296
 40
0.5000011
 40
0.6330247168
 40
0.7626739247
 40
0.885845342
 40
1.0
 40
1.0
 40
1.0
 40
1.0
 10
42.308817628
 20
61.5088887942
 30
0.0
 10
42.308817628
 20
61.0617201948
 30
0.0
 10
42.3907229189
 20
60.1311950685
 30
0.0
 10
42.717236717
 20
58.7273968747
 30
0.0
 10
43.2402929835
 20
57.3054618842
 30
0.0
 10
43.940344063
 20
55.9188594051
 30
0.0
 10
44.7911567394
 20
54.6193016573
 30
0.0
 10
45.7610633321
 20
53.4553631773
 30
0.0
 10
46.81353178
 20
52.4707069691
 30
0.0
 10
47.5784369039
 20
51.9345221768
 30
0.0
 10
47.9656954292
 20
51.710943421
 30
0.0
  0
SPLINE
  5
248
100
AcDbEntity
  8
0
100
AcDbSpline
 62
7
  6
BYLAYER
 70
0
 71
3
 72
9
 73
5
 74
0
 42
0.0000001
 43
0.0000001
 44
0.0000000001
 40
0.0
 40
0.0
 40
0.0
 40
0.0
 40
0.2476483489
 40
1.0
 40
1.0
 40
1.0
 40
1.0
 10
79.8713775101
 20
30.0741663262
 30
0.0
 10
79.8713780461
 20
30.0602855227
 30
0.0
 10
79.8690750278
 20
30.004249369
 30
0.0
 10
79.8572812963
 20
29.9486786113
 30
0.0
 10
79.8438085728
 20
29.9087190625
 30
0.0
  0
SPLINE
  5
249
100
AcDbEntity
  8
0
100
AcDbSpline
 62
7
  6
BYLAYER
 70
0
 71
3
 72
10
 73
6
 74
0
 42
0.0000001
 43
0.0000001
 44
0.0000000001
 40
0.0
 40
0.0
 40
0.0
 40
0.0
 40
0.4577331607
 40
0.7180771425
 40
1.0
 40
1.0
 40
1.0
 40
1.0
 10
79.8438085728
 20
29.9087190625
 30
0.0
 10
79.8136651978
 20
29.8193150411
 30
0.0
 10
79.7294578294
 20
29.6907992011
 30
0.0
 10
79.5759757504
 20
29.5530106448
 30
0.0
 10
79.4824328623
 20
29.4908604114
 30
0.0
 10
79.4321076379
 20
29.4618053029
 30
0.0
  0
SPLINE
  5
24A
100
AcDbEntity
  8
0
100
AcDbSpline
 62
7
  6
BYLAYER
 70
0
 71
3
 72
12
 73
8
 74
0
 42
0.0000001
 43
0.0000001
 44
0.0000000001
 40
0.0
 40
0.0
 40
0.0
 40
0.0
 40
0.108162245
 40
0.2183640921
 40
0.4513666551
 40
0.7104197903
 40
1.0
 40
1.0
 40
1.0
 40
1.0
 10
36.8946817933
 20
113.3448776569
 30
0.0
 10
37.0258420892
 20
113.420602637
 30
0.0
 10
37.3043737619
 20
113.5509409228
 30
0.0
 10
37.915876532
 20
113.7203258672
 30
0.0
 10
38.7724392437
 20
113.7430298563
 30
0.0
 10
39.8451116827
 20
113.483698929
 30
0.0
 10
40.54350325
 20
113.1514294112
 30
0.0
 10
40.894657057
 20
112.9486952527
 30
0.0
  0
SPLINE
  5
24B
100
AcDbEntity
  8
0
100
AcDbSpline
 62
7
  6
BYLAYER
 70
0
 71
3
 72
11
 73
7
 74
0
 42
0.0000001
 43
0.0000001
 44
0.0000000001
 40
0.0
 40
0.0
 40
0.0
 40
0.0
 40
0.2183333288
 40
0.4517519409
 40
0.7107887242
 40
1.0
 40
1.0
 40
1.0
 40
1.0
 10
21.8866863062
 20
47.4516285048
 30
0.0
 10
21.756494019
 20
47.5268239745
 30
0.0
 10
21.5125985832
 20
47.7306859574
 30
0.0
 10
21.251333285
 20
48.1523634838
 30
0.0
 10
21.0935470846
 20
48.6719287823
 30
0.0
 10
21.0601608965
 20
49.0504752041
 30
0.0
 10
21.0584011101
 20
49.2496225985
 30
0.0
  0
SPLINE
  5
24C
100
AcDbEntity
  8
0
100
AcDbSpline
 62
7
  6
BYLAYER
 70
0
 71
3
 72
9
 73
5
 74
0
 42
0.0000001
 43
0.0000001
 44
0.0000000001
 40
0.0
 40
0.0
 40
0.0
 40
0.0
 40
0.2636791446
 40
1.0
 40
1.0
 40
1.0
 40
1.0
 10
23.9153556955
 20
54.1981524796
 30
0.0
 10
23.9764247526
 20
54.2326884547
 30
0.0
 10
24.2116275791
 20
54.3569755778
 30
0.0
 10
24.4622364506
 20
54.4538295856
 30
0.0
 10
24.6521806576
 20
54.5018314144
 30
0.0
  0
SPLINE
  5
24D
100
AcDbEntity
  8
0
100
AcDbSpline
 62
7
  6
BYLAYER
 70
0
 71
3
 72
15
 73
11
 74
0
 42
0.0000001
 43
0.0000001
 44
0.0000000001
 40
0.0
 40
0.0
 40
0.0
 40
0.0
 40
0.1243567019
 40
0.2607197609
 40
0.403195478
 40
0.5451720922
 40
0.6799999777
 40
0.8021796403
 40
0.9085552966
 40
1.0
 40
1.0
 40
1.0
 40
1.0
 10
79.4321076379
 20
29.4618053029
 30
0.0
 10
79.3313636533
 20
29.4036410835
 30
0.0
 10
79.1051025702
 20
29.3072172826
 30
0.0
 10
78.7357157009
 20
29.223623028
 30
0.0
 10
78.3412775966
 20
29.198228064
 30
0.0
 10
77.949023746
 20
29.2326727677
 30
0.0
 10
77.5854509271
 20
29.3246656483
 30
0.0
 10
77.2747931492
 20
29.4686029558
 30
0.0
 10
77.0369672074
 20
29.6558153564
 30
0.0
 10
76.9330161011
 20
29.8153159956
 30
0.0
 10
76.9036724192
 20
29.8956671506
 30
0.0
  0
SPLINE
  5
24E
100
AcDbEntity
  8
0
100
AcDbSpline
 62
7
  6
BYLAYER
 70
0
 71
3
 72
9
 73
5
 74
0
 42
0.0000001
 43
0.0000001
 44
0.0000000001
 40
0.0
 40
0.0
 40
0.0
 40
0.0
 40
0.254997018
 40
1.0
 40
1.0
 40
1.0
 40
1.0
 10
76.9036724192
 20
29.8956671506
 30
0.0
 10
76.8983687263
 20
29.9101901355
 30
0.0
 10
76.8799013713
 20
29.9679634628
 30
0.0
 10
76.8715103344
 20
30.0289951094
 30
0.0
 10
76.8715085902
 20
30.0741665432
 30
0.0
  0
SPLINE
  5
24F
100
AcDbEntity
  8
0
100
AcDbSpline
 62
7
  6
BYLAYER
 70
0
 71
3
 72
15
 73
11
 74
0
 42
0.0000001
 43
0.0000001
 44
0.0000000001
 40
0.0
 40
0.0
 40
0.0
 40
0.0
 40
0.1137565461
 40
0.2366908076
 40
0.3662602942
 40
0.499341655
 40
0.6325223697
 40
0.7623436528
 40
0.8857498883
 40
1.0
 40
1.0
 40
1.0
 40
1.0
 10
21.0515038843
 20
50.0267916015
 30
0.0
 10
21.0499794656
 20
50.1983268093
 30
0.0
 10
21.0788305223
 20
50.5558570651
 30
0.0
 10
21.2013387924
 20
51.0959187791
 30
0.0
 10
21.4002446904
 20
51.6438153955
 30
0.0
 10
21.6680566123
 20
52.1787037142
 30
0.0
 10
21.9946668894
 20
52.6803004229
 30
0.0
 10
22.3676646079
 20
53.1298223519
 30
0.0
 10
22.7729534918
 20
53.5098753354
 30
0.0
 10
23.0676799833
 20
53.7168097699
 30
0.0
 10
23.2168844887
 20
53.802952517
 30
0.0
  0
SPLINE
  5
250
100
AcDbEntity
  8
0
100
AcDbSpline
 62
7
  6
BYLAYER
 70
0
 71
3
 72
12
 73
8
 74
0
 42
0.0000001
 43
0.0000001
 44
0.0000000001
 40
0.0
 40
0.0
 40
0.0
 40
0.0
 40
0.1118547963
 40
0.231865183
 40
0.4883380008
 40
0.7511580022
 40
1.0
 40
1.0
 40
1.0
 40
1.0
 10
21.0584011101
 20
49.2496225985
 30
0.0
 10
21.0566841627
 20
49.4439220912
 30
0.0
 10
21.0844480701
 20
49.8473318056
 30
0.0
 10
21.2502330813
 20
50.6809520263
 30
0.0
 10
21.6516424452
 20
51.7263114098
 30
0.0
 10
22.3643837353
 20
52.8627002906
 30
0.0
 10
22.982571569
 20
53.5136451952
 30
0.0
 10
23.3177981786
 20
53.7865603935
 30
0.0
  0
SPLINE
  5
251
100
AcDbEntity
  8
0
100
AcDbSpline
 62
7
  6
BYLAYER
 70
0
 71
3
 72
9
 73
5
 74
0
 42
0.0000001
 43
0.0000001
 44
0.0000000001
 40
0.0
 40
0.0
 40
0.0
 40
0.0
 40
0.2586413368
 40
1.0
 40
1.0
 40
1.0
 40
1.0
 10
23.3177981786
 20
53.7865603935
 30
0.0
 10
23.3641343667
 20
53.8242836815
 30
0.0
 10
23.5459064152
 20
53.9668541742
 30
0.0
 10
23.7383241653
 20
54.0961136784
 30
0.0
 10
23.8866446782
 20
54.1817460552
 30
0.0
  0
SPLINE
  5
252
100
AcDbEntity
  8
0
100
AcDbSpline
 62
7
  6
BYLAYER
 70
0
 71
3
 72
17
 73
13
 74
0
 42
0.0000001
 43
0.0000001
 44
0.0000000001
 40
0.0
 40
0.0
 40
0.0
 40
0.0
 40
0.042857965
 40
0.0874854797
 40
0.1353180708
 40
0.1872814984
 40
0.3045423159
 40
0.4382097446
 40
0.5825520305
 40
0.7297107839
 40
0.8713099826
 40
1.0
 40
1.0
 40
1.0
 40
1.0
 10
71.5932430963
 20
23.8513532426
 30
0.0
 10
71.5439495564
 20
23.8228673636
 30
0.0
 10
71.4352524615
 20
23.7777132332
 30
0.0
 10
71.2558509132
 20
23.7514005947
 30
0.0
 10
71.0631816319
 20
23.7655982252
 30
0.0
 10
70.7832315923
 20
23.8400383943
 30
0.0
 10
70.4253581652
 20
24.0357243854
 30
0.0
 10
70.0299669778
 20
24.3858805344
 30
0.0
 10
69.6804570901
 20
24.8332364899
 30
0.0
 10
69.4053785758
 20
25.3416552098
 30
0.0
 10
69.2268752934
 20
25.8694452248
 30
0.0
 10
69.1790460629
 20
26.2289057366
 30
0.0
 10
69.1790460629
 20
26.3998571987
 30
0.0
  0
SPLINE
  5
253
100
AcDbEntity
  8
0
100
AcDbSpline
 62
7
  6
BYLAYER
 70
0
 71
3
 72
11
 73
7
 74
0
 42
0.0000001
 43
0.0000001
 44
0.0000000001
 40
0.0
 40
0.0
 40
0.0
 40
0.0
 40
0.2896413964
 40
0.5491107671
 40
0.7822355978
 40
1.0
 40
1.0
 40
1.0
 40
1.0
 10
26.7524625541
 20
59.8758290584
 30
0.0
 10
26.7524625541
 20
59.9771434902
 30
0.0
 10
26.7678623852
 20
60.1698675204
 30
0.0
 10
26.8458651345
 20
60.4346641438
 30
0.0
 10
26.9772604753
 20
60.6495842599
 30
0.0
 10
27.1007524063
 20
60.7532574745
 30
0.0
 10
27.1667044213
 20
60.7913699964
 30
0.0
  0
SPLINE
  5
254
100
AcDbEntity
  8
0
100
AcDbSpline
 62
7
  6
BYLAYER
 70
0
 71
3
 72
17
 73
13
 74
0
 42
0.0000001
 43
0.0000001
 44
0.0000000001
 40
0.0
 40
0.0
 40
0.0
 40
0.0
 40
0.042857965
 40
0.0874854797
 40
0.1353180708
 40
0.1872814984
 40
0.3045423159
 40
0.4382097446
 40
0.5825520305
 40
0.7297107839
 40
0.8713099826
 40
1.0
 40
1.0
 40
1.0
 40
1.0
 10
29.1666595874
 20
48.3457985138
 30
0.0
 10
29.1173660476
 20
48.3173126348
 30
0.0
 10
29.0086689527
 20
48.2721585044
 30
0.0
 10
28.8292674044
 20
48.245845866
 30
0.0
 10
28.6365981231
 20
48.2600434964
 30
0.0
 10
28.3566480835
 20
48.3344836656
 30
0.0
 10
27.9987746564
 20
48.5301696566
 30
0.0
 10
27.603383469
 20
48.8803258056
 30
0.0
 10
27.2538735813
 20
49.3276817611
 30
0.0
 10
26.978795067
 20
49.836100481
 30
0.0
 10
26.8002917846
 20
50.363890496
 30
0.0
 10
26.7524625541
 20
50.7233510078
 30
0.0
 10
26.7524625541
 20
50.8943024699
 30
0.0
  0
SPLINE
  5
255
100
AcDbEntity
  8
0
100
AcDbSpline
 62
7
  6
BYLAYER
 70
0
 71
3
 72
11
 73
7
 74
0
 42
0.0000001
 43
0.0000001
 44
0.0000000001
 40
0.0
 40
0.0
 40
0.0
 40
0.0
 40
0.2896413964
 40
0.5491107671
 40
0.7822355978
 40
1.0
 40
1.0
 40
1.0
 40
1.0
 10
26.7524625541
 20
50.8943024699
 30
0.0
 10
26.7524625541
 20
50.9956169017
 30
0.0
 10
26.7678623852
 20
51.188340932
 30
0.0
 10
26.8458651345
 20
51.4531375554
 30
0.0
 10
26.9772604753
 20
51.6680576715
 30
0.0
 10
27.1007524063
 20
51.7717308861
 30
0.0
 10
27.1667044213
 20
51.809843408
 30
0.0
  0
SPLINE
  5
256
100
AcDbEntity
  8
0
100
AcDbSpline
 62
7
  6
BYLAYER
 70
0
 71
3
 72
11
 73
7
 74
0
 42
0.0000001
 43
0.0000001
 44
0.0000000001
 40
0.0
 40
0.0
 40
0.0
 40
0.0
 40
0.2177227832
 40
0.4508712161
 40
0.7104668615
 40
1.0
 40
1.0
 40
1.0
 40
1.0
 10
76.8715085902
 20
30.0741665432
 30
0.0
 10
76.8715063848
 20
30.1312820595
 30
0.0
 10
76.8925103112
 20
30.2503664223
 30
0.0
 10
76.9828336386
 20
30.4163334284
 30
0.0
 10
77.1256313942
 20
30.5662402568
 30
0.0
 10
77.2450005952
 20
30.6485509238
 30
0.0
 10
77.3107784624
 20
30.6865275665
 30
0.0
  0
SPLINE
  5
257
100
AcDbEntity
  8
0
100
AcDbSpline
 62
7
  6
BYLAYER
 70
0
 71
3
 72
9
 73
5
 74
0
 42
0.0000001
 43
0.0000001
 44
0.0000000001
 40
0.0
 40
0.0
 40
0.0
 40
0.0
 40
0.247084756
 40
1.0
 40
1.0
 40
1.0
 40
1.0
 10
79.8671650761
 20
29.935077153
 30
0.0
 10
79.865914341
 20
29.9447031049
 30
0.0
 10
79.8597438577
 20
29.9835119664
 30
0.0
 10
79.8491049702
 20
30.0215873805
 30
0.0
 10
79.8389148633
 20
30.0493553826
 30
0.0
  0
SPLINE
  5
258
100
AcDbEntity
  8
0
100
AcDbSpline
 62
7
  6
BYLAYER
 70
0
 71
3
 72
15
 73
11
 74
0
 42
0.0000001
 43
0.0000001
 44
0.0000000001
 40
0.0
 40
0.0
 40
0.0
 40
0.0
 40
0.091469792
 40
0.1978740719
 40
0.320067935
 40
0.4548934915
 40
0.5968586444
 40
0.7393177786
 40
0.8756643501
 40
1.0
 40
1.0
 40
1.0
 40
1.0
 10
79.8389148633
 20
30.0493553826
 30
0.0
 10
79.8094460105
 20
30.1296578934
 30
0.0
 10
79.7053126416
 20
30.2890126214
 30
0.0
 10
79.4673765263
 20
30.4760253993
 30
0.0
 10
79.1567144416
 20
30.6197840066
 30
0.0
 10
78.7932251617
 20
30.7116319153
 30
0.0
 10
78.401113172
 20
30.7459725888
 30
0.0
 10
78.0068422633
 20
30.7205285238
 30
0.0
 10
77.6376279008
 20
30.6369292882
 30
0.0
 10
77.4114746458
 20
30.5405385837
 30
0.0
 10
77.3107784624
 20
30.4824019622
 30
0.0
  0
SPLINE
  5
259
100
AcDbEntity
  8
0
100
AcDbSpline
 62
7
  6
BYLAYER
 70
0
 71
3
 72
17
 73
13
 74
0
 42
0.0000001
 43
0.0000001
 44
0.0000000001
 40
0.0
 40
0.0
 40
0.0
 40
0.0
 40
0.042857965
 40
0.0874854797
 40
0.1353180708
 40
0.1872814984
 40
0.3045423159
 40
0.4382097446
 40
0.5825520305
 40
0.7297107839
 40
0.8713099826
 40
1.0
 40
1.0
 40
1.0
 40
1.0
 10
29.1666595874
 20
57.3273251022
 30
0.0
 10
29.1173660476
 20
57.2988392233
 30
0.0
 10
29.0086689527
 20
57.2536850928
 30
0.0
 10
28.8292674044
 20
57.2273724544
 30
0.0
 10
28.6365981231
 20
57.2415700848
 30
0.0
 10
28.3566480835
 20
57.316010254
 30
0.0
 10
27.9987746564
 20
57.511696245
 30
0.0
 10
27.603383469
 20
57.861852394
 30
0.0
 10
27.2538735813
 20
58.3092083496
 30
0.0
 10
26.978795067
 20
58.8176270694
 30
0.0
 10
26.8002917846
 20
59.3454170844
 30
0.0
 10
26.7524625541
 20
59.7048775962
 30
0.0
 10
26.7524625541
 20
59.8758290584
 30
0.0
  0
SPLINE
  5
25A
100
AcDbEntity
  8
0
100
AcDbSpline
 62
7
  6
BYLAYER
 70
0
 71
3
 72
10
 73
6
 74
0
 42
0.0000001
 43
0.0000001
 44
0.0000000001
 40
0.0
 40
0.0
 40
0.0
 40
0.0
 40
0.2818829202
 40
0.5422179254
 40
1.0
 40
1.0
 40
1.0
 40
1.0
 10
77.3107784624
 20
30.4824019622
 30
0.0
 10
77.2605315662
 20
30.4533920763
 30
0.0
 10
77.1671242922
 20
30.3913464865
 30
0.0
 10
77.0138107283
 20
30.2538079745
 30
0.0
 10
76.9296060653
 20
30.1255716655
 30
0.0
 10
76.8993610012
 20
30.0363323145
 30
0.0
  0
SPLINE
  5
25B
100
AcDbEntity
  8
0
100
AcDbSpline
 62
7
  6
BYLAYER
 70
0
 71
3
 72
17
 73
13
 74
0
 42
0.0000001
 43
0.0000001
 44
0.0000000001
 40
0.0
 40
0.0
 40
0.0
 40
0.0
 40
0.042857965
 40
0.0874854797
 40
0.1353180708
 40
0.1872814984
 40
0.3045423159
 40
0.4382097446
 40
0.5825520305
 40
0.7297107839
 40
0.8713099826
 40
1.0
 40
1.0
 40
1.0
 40
1.0
 10
29.1666595874
 20
107.9504749643
 30
0.0
 10
29.1173660476
 20
107.9219890853
 30
0.0
 10
29.0086689527
 20
107.8768349549
 30
0.0
 10
28.8292674044
 20
107.8505223164
 30
0.0
 10
28.6365981231
 20
107.8647199468
 30
0.0
 10
28.3566480835
 20
107.939160116
 30
0.0
 10
27.9987746564
 20
108.134846107
 30
0.0
 10
27.603383469
 20
108.485002256
 30
0.0
 10
27.2538735813
 20
108.9323582116
 30
0.0
 10
26.978795067
 20
109.4407769315
 30
0.0
 10
26.8002917846
 20
109.9685669465
 30
0.0
 10
26.7524625541
 20
110.3280274582
 30
0.0
 10
26.7524625541
 20
110.4989789204
 30
0.0
  0
SPLINE
  5
25C
100
AcDbEntity
  8
0
100
AcDbSpline
 62
7
  6
BYLAYER
 70
0
 71
3
 72
12
 73
8
 74
0
 42
0.0000001
 43
0.0000001
 44
0.0000000001
 40
0.0
 40
0.0
 40
0.0
 40
0.0
 40
0.289581202
 40
0.5486347013
 40
0.7816368512
 40
0.8918382666
 40
1.0
 40
1.0
 40
1.0
 40
1.0
 10
35.2377792559
 20
109.6826019518
 30
0.0
 10
35.2377792559
 20
110.0880893889
 30
0.0
 10
35.2992156838
 20
110.859072159
 30
0.0
 10
35.6109647614
 20
111.9177315178
 30
0.0
 10
36.0589164876
 20
112.6482062084
 30
0.0
 10
36.5113702114
 20
113.0931014741
 30
0.0
 10
36.7635186079
 20
113.2691510085
 30
0.0
 10
36.8946817933
 20
113.3448776569
 30
0.0
  0
SPLINE
  5
25D
100
AcDbEntity
  8
0
100
AcDbSpline
 62
7
  6
BYLAYER
 70
0
 71
3
 72
15
 73
11
 74
0
 42
0.0000001
 43
0.0000001
 44
0.0000000001
 40
0.0
 40
0.0
 40
0.0
 40
0.0
 40
0.1141546703
 40
0.2373261017
 40
0.3669753162
 40
0.4999989361
 40
0.6330227034
 40
0.7626723508
 40
0.8858444607
 40
1.0
 40
1.0
 40
1.0
 40
1.0
 10
40.894657057
 20
47.6285018823
 30
0.0
 10
40.50739849
 20
47.8520806622
 30
0.0
 10
39.7424932909
 20
48.3882655289
 30
0.0
 10
38.6900247608
 20
49.3729218395
 30
0.0
 10
37.7201181469
 20
50.5368604238
 30
0.0
 10
36.8693054898
 20
51.8364182146
 30
0.0
 10
36.1692544572
 20
53.223020689
 30
0.0
 10
35.6461982705
 20
54.6449556088
 30
0.0
 10
35.3196845199
 20
56.0487536804
 30
0.0
 10
35.2377792559
 20
56.9792787043
 30
0.0
 10
35.2377792559
 20
57.4264472555
 30
0.0
  0
SPLINE
  5
25E
100
AcDbEntity
  8
0
100
AcDbSpline
 62
7
  6
BYLAYER
 70
0
 71
3
 72
17
 73
13
 74
0
 42
0.0000001
 43
0.0000001
 44
0.0000000001
 40
0.0
 40
0.0
 40
0.0
 40
0.0
 40
0.042857965
 40
0.0874854797
 40
0.1353180708
 40
0.1872814984
 40
0.3045423159
 40
0.4382097446
 40
0.5825520305
 40
0.7297107839
 40
0.8713099826
 40
1.0
 40
1.0
 40
1.0
 40
1.0
 10
29.1666595874
 20
114.4824943013
 30
0.0
 10
29.1173660476
 20
114.4540084223
 30
0.0
 10
29.0086689527
 20
114.4088542919
 30
0.0
 10
28.8292674044
 20
114.3825416535
 30
0.0
 10
28.6365981231
 20
114.3967392839
 30
0.0
 10
28.3566480835
 20
114.4711794531
 30
0.0
 10
27.9987746564
 20
114.6668654441
 30
0.0
 10
27.603383469
 20
115.0170215931
 30
0.0
 10
27.2538735813
 20
115.4643775486
 30
0.0
 10
26.978795067
 20
115.9727962685
 30
0.0
 10
26.8002917846
 20
116.5005862835
 30
0.0
 10
26.7524625541
 20
116.8600467953
 30
0.0
 10
26.7524625541
 20
117.0309982574
 30
0.0
  0
SPLINE
  5
25F
100
AcDbEntity
  8
0
100
AcDbSpline
 62
7
  6
BYLAYER
 70
0
 71
3
 72
11
 73
7
 74
0
 42
0.0000001
 43
0.0000001
 44
0.0000000001
 40
0.0
 40
0.0
 40
0.0
 40
0.0
 40
0.2896413964
 40
0.5491107671
 40
0.7822355978
 40
1.0
 40
1.0
 40
1.0
 40
1.0
 10
69.1790460629
 20
26.3998571987
 30
0.0
 10
69.1790460629
 20
26.5011716305
 30
0.0
 10
69.194445894
 20
26.6938956608
 30
0.0
 10
69.2724486433
 20
26.9586922842
 30
0.0
 10
69.4038439841
 20
27.1736124003
 30
0.0
 10
69.5273359151
 20
27.2772856149
 30
0.0
 10
69.5932879302
 20
27.3153981368
 30
0.0
  0
SPLINE
  5
260
100
AcDbEntity
  8
0
100
AcDbSpline
 62
7
  6
BYLAYER
 70
0
 71
3
 72
11
 73
7
 74
0
 42
0.0000001
 43
0.0000001
 44
0.0000000001
 40
0.0
 40
0.0
 40
0.0
 40
0.0
 40
0.2896413964
 40
0.5491107671
 40
0.7822355978
 40
1.0
 40
1.0
 40
1.0
 40
1.0
 10
26.7524625541
 20
117.0309982574
 30
0.0
 10
26.7524625541
 20
117.1323126892
 30
0.0
 10
26.7678623852
 20
117.3250367195
 30
0.0
 10
26.8458651345
 20
117.5898333429
 30
0.0
 10
26.9772604753
 20
117.804753459
 30
0.0
 10
27.1007524063
 20
117.9084266736
 30
0.0
 10
27.1667044213
 20
117.9465391955
 30
0.0
  0
SPLINE
  5
261
100
AcDbEntity
  8
0
100
AcDbSpline
 62
7
  6
BYLAYER
 70
0
 71
3
 72
17
 73
13
 74
0
 42
0.0000001
 43
0.0000001
 44
0.0000000001
 40
0.0
 40
0.0
 40
0.0
 40
0.0
 40
0.1286842356
 40
0.2703031337
 40
0.4174437425
 40
0.5617827569
 40
0.69545054
 40
0.8127145007
 40
0.8646808868
 40
0.9125101646
 40
0.957139951
 40
1.0
 40
1.0
 40
1.0
 40
1.0
 10
77.3107784624
 20
30.6865275665
 30
0.0
 10
77.421808962
 20
30.7506306726
 30
0.0
 10
77.6732394673
 20
30.85434559
 30
0.0
 10
78.0829734478
 20
30.9363587719
 30
0.0
 10
78.516353317
 20
30.9483106065
 30
0.0
 10
78.9379580429
 20
30.8890797151
 30
0.0
 10
79.3136767569
 20
30.7635840394
 30
0.0
 10
79.5749413282
 20
30.6044874827
 30
0.0
 10
79.7283594357
 20
30.4506403491
 30
0.0
 10
79.8097542502
 20
30.3307769006
 30
0.0
 10
79.86004246
 20
30.2044184017
 30
0.0
 10
79.8713758613
 20
30.1168673542
 30
0.0
 10
79.8713775101
 20
30.0741663262
 30
0.0
  0
SPLINE
  5
262
100
AcDbEntity
  8
0
100
AcDbSpline
 62
7
  6
BYLAYER
 70
0
 71
3
 72
11
 73
7
 74
0
 42
0.0000001
 43
0.0000001
 44
0.0000000001
 40
0.0
 40
0.0
 40
0.0
 40
0.0
 40
0.2896413964
 40
0.5491107671
 40
0.7822355978
 40
1.0
 40
1.0
 40
1.0
 40
1.0
 10
26.7524625541
 20
110.4989789204
 30
0.0
 10
26.7524625541
 20
110.6002933522
 30
0.0
 10
26.7678623852
 20
110.7930173824
 30
0.0
 10
26.8458651345
 20
111.0578140058
 30
0.0
 10
26.9772604753
 20
111.272734122
 30
0.0
 10
27.1007524063
 20
111.3764073365
 30
0.0
 10
27.1667044213
 20
111.4145198584
 30
0.0
  0
ENDSEC
  0
SECTION
  2
OBJECTS
  0
DICTIONARY
  5
C
100
AcDbDictionary
280
0
281
1
  3
ACAD_GROUP
350
D
  3
ACAD_MLINESTYLE
350
17
  3
ACAD_LAYOUT
350
1A
  3
ACAD_PLOTSETTINGS
350
19
  3
ACAD_PLOTSTYLENAME
350
E
  0
DICTIONARY
  5
D
102
{ACAD_REACTORS
330
C
102
}
100
AcDbDictionary
280
0
281
1
  0
ACDBDICTIONARYWDFLT
  5
E
102
{ACAD_REACTORS
330
C
102
}
100
AcDbDictionary
281
1
  3
Normal
350
F
100
AcDbDictionaryWithDefault
340
F
  0
DICTIONARY
  5
17
102
{ACAD_REACTORS
330
C
102
}
100
AcDbDictionary
280
0
281
1
  3
Standard
350
18
  0
DICTIONARY
  5
19
102
{ACAD_REACTORS
330
C
102
}
100
AcDbDictionary
281
1
  0
DICTIONARY
  5
1A
102
{ACAD_REACTORS
330
C
102
}
100
AcDbDictionary
281
1
  3
Model
350
263
  3
Layout1
350
264
  0
ACDBPLACEHOLDER
  5
F
102
{ACAD_REACTORS
330
E
102
}
  0
MLINESTYLE
  5
18
102
{ACAD_REACTORS
330
17
102
}
100
AcDbMlineStyle
  2
STANDARD
 70
0
  3

 62
256
 51
90.0
 52
90.0
 71
2
 49
0.5
 62
256
  6
BYLAYER
 49
-0.5
 62
256
  6
BYLAYER
  0
LAYOUT
  5
263
102
{ACAD_REACTORS
330
1A
102
}
100
AcDbPlotSettings
  1

  2
none_device
  4

  6

 40
0.0
 41
0.0
 42
0.0
 43
0.0
 44
210.0
 45
297.0
 46
0.0
 47
0.0
 48
0.0
 49
0.0
140
0.0
141
0.0
142
1.0
143
1.0
 70
1024
 72
1
 73
0
 74
0
  7

 75
0
147
1.0
148
0.0
149
0.0
100
AcDbLayout
  1
Model
 70
0
 71
0
 10
0.0
 20
0.0
 11
210.0
 21
297.0
 12
0.0
 22
0.0
 32
0.0
 14
0.0
 24
0.0
 34
0.0
 15
0.0
 25
0.0
 35
0.0
146
0.0
 13
0.0
 23
0.0
 33
0.0
 16
1.0
 26
0.0
 36
0.0
 17
0.0
 27
1.0
 37
0.0
 76
0
330
210
345
0
346
0
  0
LAYOUT
  5
264
102
{ACAD_REACTORS
330
1A
102
}
100
AcDbPlotSettings
  1

  2
none_device
  4

  6

 40
0.0
 41
0.0
 42
0.0
 43
0.0
 44
210.0
 45
297.0
 46
0.0
 47
0.0
 48
0.0
 49
0.0
140
0.0
141
0.0
142
1.0
143
1.0
 70
0
 72
1
 73
0
 74
0
  7

 75
0
147
1.0
148
0.0
149
0.0
100
AcDbLayout
  1
Layout1
 70
0
 71
1
 10
0.0
 20
0.0
 11
210.0
 21
297.0
 12
0.0
 22
0.0
 32
0.0
 14
0.0
 24
0.0
 34
0.0
 15
0.0
 25
0.0
 35
0.0
146
0.0
 13
0.0
 23
0.0
 33
0.0
 16
1.0
 26
0.0
 36
0.0
 17
0.0
 27
1.0
 37
0.0
 76
0
330
211
345
0
346
0
  0
ENDSEC
  0
EOF
