999
DXF file: C:\Users\sesa63760\Dev\_Creo\CAD\MCADID0004516_3D-CAD\drw0001_1.dxf
999
Pro/ENGINEER 2019471 by Parametric Technology Corporation
  0
SECTION
  2
HEADER
  9
$ACADVER
  1
AC1024
  9
$DWGCODEPAGE
  3
ANSI_1252
  9
$EXTMAX
 10
35.1155954645
 20
49.6634850141
 30
0.0
  9
$EXTMIN
 10
0.0
 20
0.0
 30
0.0
  9
$LIMMIN
 10
0.0
 20
0.0
  9
$LIMMAX
 10
35.1155954645
 20
49.6634850141
  9
$VIEWCTR
 10
17.5577977322
 20
24.831742507
  9
$VIEWSIZE
 40
49.6634850141
  9
$CLAYER
  8
0
  9
$LTSCALE
 40
3.2373234676
  9
$CELTYPE
  6
BYLAYER
  9
$DIMSCALE
 40
1.0
  9
$DIMASZ
 40
0.4180428031
  9
$DIMEXO
 40
1.0
  9
$DIMDLI
 40
2.236696214
  9
$DIMEXE
 40
1.0
  9
$DIMCEN
 40
0.5297438401
  9
$DIMLFAC
 40
1.0
  9
$DIMBLK
  1
_FILLED
  9
$DIMALT
 70
0
  9
$DIMALTF
 40
0.0393700787
  9
$DIMTXT
 40
0.5852599244
  9
$DIMTOL
 70
1
  9
$DIMLIM
 70
0
  9
$DIMTFAC
 40
1.0
  9
$DIMTP
 40
0.01
  9
$DIMTM
 40
0.01
  9
$DIMGAP
 40
0.625
  9
$DIMDSEP
 70
46
  9
$AUNITS
 70
0
  9
$PDMODE
 70
3
  9
$PDSIZE
 40
0.3125
  9
$HANDSEED
  5
271
  9
$TILEMODE
 70
1
  9
$MEASUREMENT
 70
1
  9
$INSUNITS
 70
4
  0
ENDSEC
  0
SECTION
  2
CLASSES
  0
CLASS
  1
ACDBDICTIONARYWDFLT
  2
AcDbDictionaryWithDefault
  3
AutoCAD 2000
 90
0
 91
1
280
0
281
0
  0
CLASS
  1
ACDBPLACEHOLDER
  2
AcDbPlaceHolder
  3
AutoCAD 2000
 90
0
 91
1
280
0
281
0
  0
CLASS
  1
LAYOUT
  2
AcDbLayout
  3
AutoCAD 2000
 90
0
 91
0
280
0
281
0
  0
ENDSEC
  0
SECTION
  2
TABLES
  0
TABLE
  2
VPORT
  5
8
100
AcDbSymbolTable
 70
2
  0
VPORT
  5
1F4
100
AcDbSymbolTableRecord
100
AcDbViewportTableRecord
  2
*ACTIVE
 70
0
 10
0.0
 20
0.0
 11
1.0
 21
1.0
 12
17.5577977322
 22
24.831742507
 13
0.0
 23
0.0
 14
1.0
 24
1.0
 15
0.0
 25
0.0
 16
0.0
 26
0.0
 36
1.0
 17
0.0
 27
0.0
 37
0.0
 40
49.6634850141
 41
0.7070707071
 42
50.0
 43
0.0
 44
0.0
 50
0.0
 51
0.0
 71
0
 72
100
 73
1
 74
1
 75
0
 76
0
 77
0
 78
0
  0
ENDTAB
  0
TABLE
  2
LTYPE
  5
5
100
AcDbSymbolTable
 70
6
  0
LTYPE
  5
14
100
AcDbSymbolTableRecord
100
AcDbLinetypeTableRecord
  2
BYBLOCK
 70
0
  3

 72
65
 73
0
 40
0.0
  0
LTYPE
  5
15
100
AcDbSymbolTableRecord
100
AcDbLinetypeTableRecord
  2
BYLAYER
 70
0
  3

 72
65
 73
0
 40
0.0
  0
LTYPE
  5
16
100
AcDbSymbolTableRecord
100
AcDbLinetypeTableRecord
  2
CONTINUOUS
 70
64
  3
Solid line
 72
65
 73
0
 40
0.0
  0
LTYPE
  5
1F5
100
AcDbSymbolTableRecord
100
AcDbLinetypeTableRecord
  2
CENTER
 70
64
  3
____ _ ____ _ ____ _ ____ _ ____ _ ____ _ ____
 72
65
 73
4
 40
0.6
 49
0.375
 74
0
 49
-0.075
 74
0
 49
0.075
 74
0
 49
-0.075
 74
0
  0
LTYPE
  5
1F6
100
AcDbSymbolTableRecord
100
AcDbLinetypeTableRecord
  2
HIDDEN
 70
64
  3
- - - - - - - - - - - - - - - - - - - -
 72
65
 73
2
 40
0.2
 49
0.1
 74
0
 49
-0.1
 74
0
  0
LTYPE
  5
1F7
100
AcDbSymbolTableRecord
100
AcDbLinetypeTableRecord
  2
PHANTOM
 70
64
  3
_____ _ _ _____ _ _ _____ _ _ _____
 72
65
 73
6
 40
0.8
 49
0.45
 74
0
 49
-0.05
 74
0
 49
0.1
 74
0
 49
-0.05
 74
0
 49
0.1
 74
0
 49
-0.05
 74
0
  0
LTYPE
  5
1F8
100
AcDbSymbolTableRecord
100
AcDbLinetypeTableRecord
  2
DOT
 70
64
  3
. . . . . . . . . . . . . . . . . . . .
 72
65
 73
2
 40
0.2
 49
0.1
 74
0
 49
-0.1
 74
0
  0
LTYPE
  5
1F9
100
AcDbSymbolTableRecord
100
AcDbLinetypeTableRecord
  2
DASHED
 70
64
  3
- - - - - - - - - - - - - - - - - - - -
 72
65
 73
2
 40
0.2
 49
0.1
 74
0
 49
-0.1
 74
0
  0
ENDTAB
  0
TABLE
  2
LAYER
  5
2
100
AcDbSymbolTable
 70
36
  0
LAYER
  5
10
100
AcDbSymbolTableRecord
100
AcDbLayerTableRecord
  2
0
 70
0
 62
7
  6
CONTINUOUS
370
-3
390
F
  0
LAYER
  5
1FA
100
AcDbSymbolTableRecord
100
AcDbLayerTableRecord
  2
DEFAULT_1
 70
0
 62
7
  6
CENTER
370
-3
390
F
  0
LAYER
  5
1FB
100
AcDbSymbolTableRecord
100
AcDbLayerTableRecord
  2
DEFAULT_2
 70
0
 62
7
  6
HIDDEN
370
-3
390
F
  0
LAYER
  5
1FC
100
AcDbSymbolTableRecord
100
AcDbLayerTableRecord
  2
DEFAULT_3
 70
0
 62
7
  6
PHANTOM
370
-3
390
F
  0
LAYER
  5
1FD
100
AcDbSymbolTableRecord
100
AcDbLayerTableRecord
  2
00_COMPONENTS
 70
0
 62
7
  6
CONTINUOUS
370
-3
390
F
  0
LAYER
  5
1FE
100
AcDbSymbolTableRecord
100
AcDbLayerTableRecord
  2
01_1_DEFAULT_DATUMS
 70
0
 62
7
  6
CONTINUOUS
370
-3
390
F
  0
LAYER
  5
1FF
100
AcDbSymbolTableRecord
100
AcDbLayerTableRecord
  2
01_PLANES
 70
0
 62
7
  6
CONTINUOUS
370
-3
390
F
  0
LAYER
  5
200
100
AcDbSymbolTableRecord
100
AcDbLayerTableRecord
  2
02_COORD_SYS
 70
0
 62
7
  6
CONTINUOUS
370
-3
390
F
  0
LAYER
  5
201
100
AcDbSymbolTableRecord
100
AcDbLayerTableRecord
  2
03_AXES
 70
0
 62
7
  6
CONTINUOUS
370
-3
390
F
  0
LAYER
  5
202
100
AcDbSymbolTableRecord
100
AcDbLayerTableRecord
  2
04_POINTS
 70
0
 62
7
  6
CONTINUOUS
370
-3
390
F
  0
LAYER
  5
203
100
AcDbSymbolTableRecord
100
AcDbLayerTableRecord
  2
05_CURVES
 70
0
 62
7
  6
CONTINUOUS
370
-3
390
F
  0
LAYER
  5
204
100
AcDbSymbolTableRecord
100
AcDbLayerTableRecord
  2
06_SURFS
 70
0
 62
7
  6
CONTINUOUS
370
-3
390
F
  0
LAYER
  5
205
100
AcDbSymbolTableRecord
100
AcDbLayerTableRecord
  2
07_COSMETICS
 70
0
 62
7
  6
CONTINUOUS
370
-3
390
F
  0
LAYER
  5
206
100
AcDbSymbolTableRecord
100
AcDbLayerTableRecord
  2
10_NOTES
 70
0
 62
7
  6
CONTINUOUS
370
-3
390
F
  0
LAYER
  5
207
100
AcDbSymbolTableRecord
100
AcDbLayerTableRecord
  2
11_NOTES_PUB
 70
0
 62
7
  6
CONTINUOUS
370
-3
390
F
  0
LAYER
  5
208
100
AcDbSymbolTableRecord
100
AcDbLayerTableRecord
  2
13_REF_GTOL
 70
0
 62
7
  6
CONTINUOUS
370
-3
390
F
  0
LAYER
  5
209
100
AcDbSymbolTableRecord
100
AcDbLayerTableRecord
  2
16_MISC
 70
0
 62
7
  6
CONTINUOUS
370
-3
390
F
  0
LAYER
  5
20A
100
AcDbSymbolTableRecord
100
AcDbLayerTableRecord
  2
17_NO_PRINT
 70
0
 62
7
  6
CONTINUOUS
370
-3
390
F
  0
LAYER
  5
20B
100
AcDbSymbolTableRecord
100
AcDbLayerTableRecord
  2
18_DATUM_CAMS_JOINTS
 70
0
 62
7
  6
CONTINUOUS
370
-3
390
F
  0
LAYER
  5
20C
100
AcDbSymbolTableRecord
100
AcDbLayerTableRecord
  2
19_DATUM_FUNCTIONAL
 70
0
 62
7
  6
CONTINUOUS
370
-3
390
F
  0
LAYER
  5
20D
100
AcDbSymbolTableRecord
100
AcDbLayerTableRecord
  2
20_DATUM_KINEMATIC_SCHEME
 70
0
 62
7
  6
CONTINUOUS
370
-3
390
F
  0
ENDTAB
  0
TABLE
  2
STYLE
  5
3
100
AcDbSymbolTable
 70
1
  0
STYLE
  5
11
100
AcDbSymbolTableRecord
100
AcDbTextStyleTableRecord
  2
STANDARD
 70
0
 40
0.0
 41
1.0
 50
0.0
 71
0
 42
0.2
  3
ARIAL.TTF
  4

  0
STYLE
  5
20E
100
AcDbSymbolTableRecord
100
AcDbTextStyleTableRecord
  2
TEXTSTYLE_1
 70
0
 40
0.0
 41
0.8
 50
0.0
 71
0
 42
0.2
  3
gdt
  4

  0
ENDTAB
  0
TABLE
  2
VIEW
  5
6
100
AcDbSymbolTable
 70
0
  0
ENDTAB
  0
TABLE
  2
UCS
  5
7
100
AcDbSymbolTable
 70
0
  0
ENDTAB
  0
TABLE
  2
APPID
  5
9
100
AcDbSymbolTable
 70
1
  0
APPID
  5
20F
100
AcDbSymbolTableRecord
100
AcDbRegAppTableRecord
  2
ACAD
 70
0
  0
ENDTAB
  0
TABLE
  2
BLOCK_RECORD
  5
1
100
AcDbSymbolTable
 70
0
  0
BLOCK_RECORD
  5
210
100
AcDbSymbolTableRecord
100
AcDbBlockTableRecord
  2
*Model_Space
  0
BLOCK_RECORD
  5
211
100
AcDbSymbolTableRecord
100
AcDbBlockTableRecord
  2
*Paper_Space
  0
BLOCK_RECORD
  5
212
100
AcDbSymbolTableRecord
100
AcDbBlockTableRecord
  2
_FILLED
  0
ENDTAB
  0
TABLE
  2
DIMSTYLE
  5
A
100
AcDbSymbolTable
 70
1
100
AcDbDimStyleTable
 71
0
  0
DIMSTYLE
105
213
100
AcDbSymbolTableRecord
100
AcDbDimStyleTableRecord
  2
STANDARD
 70
0
  3

  4

 40
1.0
 41
0.4180428031
 42
1.0
 43
0.38
 44
1.0
 45
0.0
 46
0.0
 47
0.01
 48
0.01
140
0.5852599244
141
0.09
142
0.0
143
25.4
144
1.0
145
0.0
146
1.0
147
0.625
 71
1
 72
0
 73
0
 74
0
 75
0
 76
0
 77
1
 78
8
 79
2
170
0
171
1
172
0
173
0
174
0
175
0
176
0
177
0
178
0
270
2
179
2
271
2
272
2
273
2
274
2
275
0
280
0
281
0
282
0
283
1
284
8
285
0
286
0
287
3
288
0
340
11
278
46
341
212
342
212
343
212
344
212
  0
ENDTAB
  0
ENDSEC
  0
SECTION
  2
BLOCKS
  0
BLOCK
  5
20
100
AcDbEntity
  8
0
100
AcDbBlockBegin
  2
*Model_Space
 70
0
 10
0.0
 20
0.0
 30
0.0
  3
*Model_Space
  1

  0
ENDBLK
  5
21
100
AcDbEntity
  8
0
100
AcDbBlockEnd
  0
BLOCK
  5
1C
100
AcDbEntity
  8
0
100
AcDbBlockBegin
  2
*Paper_Space
 70
0
 10
0.0
 20
0.0
 30
0.0
  3
*Paper_Space
  1

  0
ENDBLK
  5
1D
100
AcDbEntity
  8
0
100
AcDbBlockEnd
  0
BLOCK
  5
214
100
AcDbEntity
  8
0
100
AcDbBlockBegin
  2
_FILLED
 70
64
 10
0.0
 20
0.0
  3
_FILLED
  1

  0
SOLID
  5
215
100
AcDbEntity
  8
0
  6
BYBLOCK
 62
0
100
AcDbTrace
 10
0.0
 20
0.0
 11
-1.0
 21
0.25
 12
-1.0
 22
-0.25
 13
-1.0
 23
-0.25
  0
ENDBLK
  5
216
100
AcDbEntity
  8
0
  6
BYBLOCK
 62
0
100
AcDbBlockEnd
  0
ENDSEC
  0
SECTION
  2
ENTITIES
  0
LINE
  5
217
100
AcDbEntity
  8
0
100
AcDbLine
 62
7
  6
BYLAYER
 10
8.5048014657
 20
39.7773567134
 11
7.1262124039
 21
38.6837141732
  0
LINE
  5
218
100
AcDbEntity
  8
0
100
AcDbLine
 62
7
  6
BYLAYER
 10
8.5047486966
 20
39.7774481369
 11
10.1900632737
 21
40.7504591536
  0
LINE
  5
219
100
AcDbEntity
  8
0
100
AcDbLine
 62
7
  6
BYLAYER
 10
7.1262124039
 20
38.6837141732
 11
5.5541662804
 21
36.0887471108
  0
LINE
  5
21A
100
AcDbEntity
  8
0
100
AcDbLine
 62
7
  6
BYLAYER
 10
7.5429385728
 20
38.0674513025
 11
9.0047464581
 21
38.9114214407
  0
LINE
  5
21B
100
AcDbEntity
  8
0
100
AcDbLine
 62
7
  6
BYLAYER
 10
9.9897344364
 20
38.824093942
 11
10.0256000151
 21
38.8448008199
  0
LINE
  5
21C
100
AcDbEntity
  8
0
100
AcDbLine
 62
7
  6
BYLAYER
 10
10.0378475148
 20
38.8458949068
 11
10.0019819361
 21
38.8251880289
  0
LINE
  5
21D
100
AcDbEntity
  8
0
100
AcDbLine
 62
7
  6
BYLAYER
 10
21.8753729914
 20
8.301623974
 11
21.8877904188
 21
8.3028112984
  0
LINE
  5
21E
100
AcDbEntity
  8
0
100
AcDbLine
 62
7
  6
BYLAYER
 10
4.0768383067
 20
30.4324233396
 11
4.0738152935
 21
30.4077005858
  0
LINE
  5
21F
100
AcDbEntity
  8
0
100
AcDbLine
 62
7
  6
BYLAYER
 10
9.9897344364
 20
38.824093942
 11
7.5429385728
 21
38.0674513025
  0
LINE
  5
220
100
AcDbEntity
  8
0
100
AcDbLine
 62
7
  6
BYLAYER
 10
21.8496951406
 20
8.3604068972
 11
21.8897043988
 21
8.3502586658
  0
LWPOLYLINE
  5
221
100
AcDbEntity
  8
0
100
AcDbPolyline
 62
7
  6
BYLAYER
 90
4
 70
0
 10
21.956947588
 20
8.3332026275
 10
22.3822641534
 20
8.2253223241
 10
25.2996878642
 20
8.5897855847
 10
26.2546164628
 20
9.0335918473
  0
LINE
  5
222
100
AcDbEntity
  8
0
100
AcDbLine
 62
7
  6
BYLAYER
 10
4.0738512302
 20
30.4341566344
 11
4.0738152935
 21
30.4077005858
  0
LINE
  5
223
100
AcDbEntity
  8
0
100
AcDbLine
 62
7
  6
BYLAYER
 10
4.0738152935
 20
30.3913705375
 11
4.0864774445
 21
30.3986809901
  0
LINE
  5
224
100
AcDbEntity
  8
0
100
AcDbLine
 62
7
  6
BYLAYER
 10
10.0019819361
 20
15.1287807375
 11
10.0086173981
 21
15.1217805305
  0
LINE
  5
225
100
AcDbEntity
  8
0
100
AcDbLine
 62
7
  6
BYLAYER
 10
10.0019819361
 20
15.1287807375
 11
10.0081511887
 21
15.1211146799
  0
LINE
  5
226
100
AcDbEntity
  8
0
100
AcDbLine
 62
7
  6
BYLAYER
 10
21.8338202218
 20
31.9942275466
 11
21.8696858005
 21
32.0149344245
  0
LINE
  5
227
100
AcDbEntity
  8
0
100
AcDbLine
 62
7
  6
BYLAYER
 10
21.8819333002
 20
31.9996984631
 11
21.8460677215
 21
31.9789915851
  0
LINE
  5
228
100
AcDbEntity
  8
0
100
AcDbLine
 62
7
  6
BYLAYER
 10
27.7556151982
 20
16.7181644739
 11
27.7619868644
 21
16.7153076983
  0
LINE
  5
229
100
AcDbEntity
  8
0
100
AcDbLine
 62
7
  6
BYLAYER
 10
27.7557181503
 20
16.7182410073
 11
27.7619868644
 21
16.7153076983
  0
LINE
  5
22A
100
AcDbEntity
  8
0
100
AcDbLine
 62
7
  6
BYLAYER
 10
15.202639916
 20
23.1262433656
 11
15.1882009901
 21
23.1342371459
  0
LINE
  5
22B
100
AcDbEntity
  8
0
100
AcDbLine
 62
7
  6
BYLAYER
 10
15.2023463912
 20
23.1260738057
 11
15.1882009901
 21
23.1342371459
  0
LINE
  5
22C
100
AcDbEntity
  8
0
100
AcDbLine
 62
7
  6
BYLAYER
 10
15.156336633
 20
23.1363050063
 11
15.1637059907
 21
23.1320489722
  0
LINE
  5
22D
100
AcDbEntity
  8
0
100
AcDbLine
 62
7
  6
BYLAYER
 10
15.1564899456
 20
23.1363934842
 11
15.1637059907
 21
23.1320489722
  0
LINE
  5
22E
100
AcDbEntity
  8
0
100
AcDbLine
 62
7
  6
BYLAYER
 10
4.0738152935
 20
30.3913705375
 11
4.0878230965
 21
30.3813923972
  0
LINE
  5
22F
100
AcDbEntity
  8
0
100
AcDbLine
 62
7
  6
BYLAYER
 10
4.0955398675
 20
30.392225579
 11
4.0738152935
 21
30.4077005858
  0
LINE
  5
230
100
AcDbEntity
  8
0
100
AcDbLine
 62
7
  6
BYLAYER
 10
4.0738152935
 20
30.3913705375
 11
4.0874585805
 21
30.3812289156
  0
LINE
  5
231
100
AcDbEntity
  8
0
100
AcDbLine
 62
7
  6
BYLAYER
 10
4.0949758269
 20
30.391972565
 11
4.0738152935
 21
30.4077005858
  0
LINE
  5
232
100
AcDbEntity
  8
0
100
AcDbLine
 62
7
  6
BYLAYER
 10
21.8460677215
 20
8.2989143421
 11
21.842801578
 21
8.305261684
  0
LINE
  5
233
100
AcDbEntity
  8
0
100
AcDbLine
 62
7
  6
BYLAYER
 10
21.8460677215
 20
8.2989143421
 11
21.842903357
 21
8.3053419837
  0
LINE
  5
234
100
AcDbEntity
  8
0
100
AcDbLine
 62
7
  6
BYLAYER
 10
10.0075464009
 20
15.1744042026
 11
9.9897344364
 21
15.144016699
  0
LINE
  5
235
100
AcDbEntity
  8
0
100
AcDbLine
 62
7
  6
BYLAYER
 10
10.0019819361
 20
15.1287807375
 11
10.0230653969
 21
15.1647464755
  0
LINE
  5
236
100
AcDbEntity
  8
0
100
AcDbLine
 62
7
  6
BYLAYER
 10
10.0085867523
 20
15.175056682
 11
9.9897344364
 21
15.144016699
  0
LINE
  5
237
100
AcDbEntity
  8
0
100
AcDbLine
 62
7
  6
BYLAYER
 10
10.0019819361
 20
15.1287807375
 11
10.0242938502
 21
15.1655168838
  0
LINE
  5
238
100
AcDbEntity
  8
0
100
AcDbLine
 62
7
  6
BYLAYER
 10
21.8338202218
 20
31.9942275466
 11
21.8309939618
 21
31.990686841
  0
LINE
  5
239
100
AcDbEntity
  8
0
100
AcDbLine
 62
7
  6
BYLAYER
 10
27.7837100042
 20
16.7441795324
 11
27.7978524431
 21
16.7360145762
  0
LINE
  5
23A
100
AcDbEntity
  8
0
100
AcDbLine
 62
7
  6
BYLAYER
 10
10.0256000151
 20
38.8448008199
 11
10.0291237465
 21
38.8357189549
  0
LINE
  5
23B
100
AcDbEntity
  8
0
100
AcDbLine
 62
7
  6
BYLAYER
 10
15.1637059907
 20
23.1320489722
 11
15.1605143281
 21
23.1273902199
  0
LINE
  5
23C
100
AcDbEntity
  8
0
100
AcDbLine
 62
7
  6
BYLAYER
 10
15.1637059907
 20
23.1320489722
 11
15.1603757306
 21
23.1273101894
  0
LINE
  5
23D
100
AcDbEntity
  8
0
100
AcDbLine
 62
7
  6
BYLAYER
 10
15.1830270512
 20
23.1595340079
 11
15.1759534904
 21
23.1494731074
  0
LINE
  5
23E
100
AcDbEntity
  8
0
100
AcDbLine
 62
7
  6
BYLAYER
 10
21.8696858005
 20
32.0149344245
 11
21.8449658369
 21
31.9797661045
  0
LINE
  5
23F
100
AcDbEntity
  8
0
100
AcDbLine
 62
7
  6
BYLAYER
 10
15.1882009901
 20
23.1342371459
 11
15.2216932352
 21
23.1818582554
  0
LINE
  5
240
100
AcDbEntity
  8
0
100
AcDbLine
 62
7
  6
BYLAYER
 10
15.1833205944
 20
23.1597034497
 11
15.1759534904
 21
23.1494731074
  0
LINE
  5
241
100
AcDbEntity
  8
0
100
AcDbLine
 62
7
  6
BYLAYER
 10
15.1882009901
 20
23.1342371459
 11
15.2230633237
 21
23.1826487881
  0
LINE
  5
242
100
AcDbEntity
  8
0
100
AcDbLine
 62
7
  6
BYLAYER
 10
21.8338202218
 20
31.9942275466
 11
21.8310820481
 21
31.9907327022
  0
LINE
  5
243
100
AcDbEntity
  8
0
100
AcDbLine
 62
7
  6
BYLAYER
 10
15.173365395
 20
23.1539558469
 11
15.1637059907
 21
23.1483790205
  0
LINE
  5
244
100
AcDbEntity
  8
0
100
AcDbLine
 62
7
  6
BYLAYER
 10
15.2156962197
 20
23.1724184459
 11
15.1759534904
 21
23.1494731074
  0
LINE
  5
245
100
AcDbEntity
  8
0
100
AcDbLine
 62
7
  6
BYLAYER
 10
15.2029351982
 20
23.1546978305
 11
15.1637059907
 21
23.1320489722
  0
LINE
  5
246
100
AcDbEntity
  8
0
100
AcDbLine
 62
7
  6
BYLAYER
 10
15.1973551184
 20
23.1291691727
 11
15.1759534904
 21
23.1168130107
  0
LINE
  5
247
100
AcDbEntity
  8
0
100
AcDbLine
 62
7
  6
BYLAYER
 10
15.1882009901
 20
23.1179070976
 11
15.202639916
 21
23.1262433656
  0
LINE
  5
248
100
AcDbEntity
  8
0
100
AcDbLine
 62
7
  6
BYLAYER
 10
10.0256000151
 20
15.1647235769
 11
9.9897344364
 21
15.144016699
  0
LINE
  5
249
100
AcDbEntity
  8
0
100
AcDbLine
 62
7
  6
BYLAYER
 10
21.8819333002
 20
31.9996984631
 11
21.8779664824
 21
32.0046336601
  0
LINE
  5
24A
100
AcDbEntity
  8
0
100
AcDbLine
 62
7
  6
BYLAYER
 10
27.7978524431
 20
16.7523446246
 11
27.7978524431
 21
16.7360145762
  0
LINE
  5
24B
100
AcDbEntity
  8
0
100
AcDbLine
 62
7
  6
BYLAYER
 10
27.7619868644
 20
16.7316377466
 11
27.7978524431
 21
16.7523446246
  0
LINE
  5
24C
100
AcDbEntity
  8
0
100
AcDbLine
 62
7
  6
BYLAYER
 10
27.7978524431
 20
16.7360145762
 11
27.7619868644
 21
16.7153076983
  0
LINE
  5
24D
100
AcDbEntity
  8
0
100
AcDbLine
 62
7
  6
BYLAYER
 10
10.0378475148
 20
38.8458949068
 11
10.0256000151
 21
38.8448008199
  0
LINE
  5
24E
100
AcDbEntity
  8
0
100
AcDbLine
 62
7
  6
BYLAYER
 10
21.8434796261
 20
8.3033970816
 11
21.8338202218
 21
8.2978202552
  0
LINE
  5
24F
100
AcDbEntity
  8
0
100
AcDbLine
 62
7
  6
BYLAYER
 10
24.2928635851
 20
9.0555569816
 11
25.7546714704
 21
9.8995271199
  0
LINE
  5
250
100
AcDbEntity
  8
0
100
AcDbLine
 62
7
  6
BYLAYER
 10
21.8731600338
 20
8.3072923188
 11
21.8846473547
 21
8.3108446367
  0
LINE
  5
251
100
AcDbEntity
  8
0
100
AcDbLine
 62
7
  6
BYLAYER
 10
26.254669232
 20
9.0335004238
 11
27.9399838091
 21
10.0065114405
  0
ARC
  5
252
100
AcDbEntity
  8
0
100
AcDbCircle
 62
7
  6
BYLAYER
 10
21.243293428
 20
14.9778782865
 40
6.7061088732
100
AcDbArc
 50
275.1569543522
 51
275.408401473
  0
SPLINE
  5
253
100
AcDbEntity
  8
0
100
AcDbSpline
 62
7
  6
BYLAYER
 70
0
 71
3
 72
18
 73
14
 74
0
 42
0.0000001
 43
0.0000001
 44
0.0000000001
 40
0.0
 40
0.0
 40
0.0
 40
0.0
 40
0.0539475643
 40
0.108153777
 40
0.1628677233
 40
0.2183283351
 40
0.2747576414
 40
0.3323590922
 40
0.451700873
 40
0.5775758699
 40
0.7107153493
 40
0.8515249491
 40
1.0
 40
1.0
 40
1.0
 40
1.0
 10
7.5429384943
 20
38.0674514385
 30
0.0
 10
7.4062782428
 20
37.9885472253
 30
0.0
 10
7.1388917759
 20
37.8186243648
 30
0.0
 10
6.7593642595
 20
37.5297810779
 30
0.0
 10
6.4018793537
 20
37.2073850318
 30
0.0
 10
6.0673876219
 20
36.8522560095
 30
0.0
 10
5.756604413
 20
36.4653185718
 30
0.0
 10
5.3704280753
 20
35.9017336838
 30
0.0
 10
4.9516674484
 20
35.117619554
 30
0.0
 10
4.5617185895
 20
34.0789425552
 30
0.0
 10
4.2809183966
 20
32.9411102751
 30
0.0
 10
4.1116464991
 20
31.7151635329
 30
0.0
 10
4.0748069812
 20
30.8684636305
 30
0.0
 10
4.0738512302
 20
30.4341566344
 30
0.0
  0
SPLINE
  5
254
100
AcDbEntity
  8
0
100
AcDbSpline
 62
7
  6
BYLAYER
 70
0
 71
3
 72
9
 73
5
 74
0
 42
0.0000001
 43
0.0000001
 44
0.0000000001
 40
0.0
 40
0.0
 40
0.0
 40
0.0
 40
0.4983402422
 40
1.0
 40
1.0
 40
1.0
 40
1.0
 10
15.1759534904
 20
23.1494731074
 30
0.0
 10
14.1840163521
 20
25.7068433716
 30
0.0
 10
12.3260758432
 20
30.89096406
 30
0.0
 10
10.733908541
 20
36.162682213
 30
0.0
 10
10.0019819361
 20
38.8251880289
 30
0.0
  0
SPLINE
  5
255
100
AcDbEntity
  8
0
100
AcDbSpline
 62
7
  6
BYLAYER
 70
0
 71
3
 72
19
 73
15
 74
0
 42
0.0000001
 43
0.0000001
 44
0.0000000001
 40
0.0
 40
0.0
 40
0.0
 40
0.0
 40
0.0539078453
 40
0.1080738621
 40
0.162750796
 40
0.2181785187
 40
0.2745803029
 40
0.3321605285
 40
0.4514792947
 40
0.5135765386
 40
0.5774194186
 40
0.7105902196
 40
0.8514605355
 40
1.0
 40
1.0
 40
1.0
 40
1.0
 10
10.190070262
 20
40.7504470322
 30
0.0
 10
10.3353625771
 20
40.8343247042
 30
0.0
 10
10.6339594661
 20
40.9901548071
 30
0.0
 10
11.1017288211
 20
41.1858739153
 30
0.0
 10
11.5887406781
 20
41.3432764883
 30
0.0
 10
12.0936903222
 20
41.4620554837
 30
0.0
 10
12.6153780979
 20
41.5419430631
 30
0.0
 10
13.3399044877
 20
41.5969635916
 30
0.0
 10
14.0860879878
 20
41.5711053619
 30
0.0
 10
14.8430397128
 20
41.4704981824
 30
0.0
 10
15.63472687
 20
41.314765238
 30
0.0
 10
16.6465481767
 20
41.0198048306
 30
0.0
 10
17.8654905347
 20
40.5209013786
 30
0.0
 10
18.664686229
 20
40.1025328273
 30
0.0
 10
19.0650235414
 20
39.8714032011
 30
0.0
  0
SPLINE
  5
256
100
AcDbEntity
  8
0
100
AcDbSpline
 62
7
  6
BYLAYER
 70
0
 71
3
 72
11
 73
7
 74
0
 42
0.0000001
 43
0.0000001
 44
0.0000000001
 40
0.0
 40
0.0
 40
0.0
 40
0.0
 40
0.2342486871
 40
0.4790877863
 40
0.7343896085
 40
1.0
 40
1.0
 40
1.0
 40
1.0
 10
10.0230653969
 20
15.1647464755
 30
0.0
 10
10.3974877652
 20
15.8031216931
 30
0.0
 10
11.179488963
 20
17.0992676167
 30
0.0
 10
12.4218730954
 20
19.0590124957
 30
0.0
 10
13.7585775379
 20
21.0756715519
 30
0.0
 10
14.6934385989
 20
22.4302488495
 30
0.0
 10
15.1759534904
 20
23.1168130107
 30
0.0
  0
SPLINE
  5
257
100
AcDbEntity
  8
0
100
AcDbSpline
 62
7
  6
BYLAYER
 70
0
 71
3
 72
15
 73
11
 74
0
 42
0.0000001
 43
0.0000001
 44
0.0000000001
 40
0.0
 40
0.0
 40
0.0
 40
0.0
 40
0.1413568479
 40
0.2779649757
 40
0.4096878326
 40
0.5365681857
 40
0.65875292
 40
0.776489277
 40
0.8901096901
 40
1.0
 40
1.0
 40
1.0
 40
1.0
 10
15.9179010789
 20
9.8850886551
 30
0.0
 10
16.1716484838
 20
9.7385908368
 30
0.0
 10
16.6787852582
 20
9.4643409
 30
0.0
 10
17.4492300239
 20
9.1059518636
 30
0.0
 10
18.2134426812
 20
8.8091970523
 30
0.0
 10
18.9680104717
 20
8.5753299349
 30
0.0
 10
19.7098705986
 20
8.4054290948
 30
0.0
 10
20.4359848107
 20
8.3002150436
 30
0.0
 10
21.1431027617
 20
8.2603917031
 30
0.0
 10
21.6069276523
 20
8.2777600938
 30
0.0
 10
21.8338202218
 20
8.2978202552
 30
0.0
  0
SPLINE
  5
258
100
AcDbEntity
  8
0
100
AcDbSpline
 62
7
  6
BYLAYER
 70
0
 71
3
 72
15
 73
11
 74
0
 42
0.0000001
 43
0.0000001
 44
0.0000000001
 40
0.0
 40
0.0
 40
0.0
 40
0.0
 40
0.133765561
 40
0.2656957208
 40
0.3953683888
 40
0.5224691174
 40
0.6467240505
 40
0.7678890418
 40
0.8857325851
 40
1.0
 40
1.0
 40
1.0
 40
1.0
 10
10.0081511887
 20
15.1211146799
 30
0.0
 10
10.2301298912
 20
14.845381629
 30
0.0
 10
10.6818527995
 20
14.3062943024
 30
0.0
 10
11.3858384203
 20
13.5319250547
 30
0.0
 10
12.1091946345
 20
12.8001728122
 30
0.0
 10
12.848654639
 20
12.114206526
 30
0.0
 10
13.6011988868
 20
11.4768991134
 30
0.0
 10
14.3636855908
 20
10.8908497873
 30
0.0
 10
15.1328160459
 20
10.3587378839
 30
0.0
 10
15.6560270924
 20
10.0362782514
 30
0.0
 10
15.9179010789
 20
9.8850886551
 30
0.0
  0
SPLINE
  5
259
100
AcDbEntity
  8
0
100
AcDbSpline
 62
7
  6
BYLAYER
 70
0
 71
3
 72
19
 73
15
 74
0
 42
0.0000001
 43
0.0000001
 44
0.0000000001
 40
0.0
 40
0.0
 40
0.0
 40
0.0
 40
0.0545886275
 40
0.1108857159
 40
0.1687688629
 40
0.2281299411
 40
0.2888526656
 40
0.3507952847
 40
0.4138040589
 40
0.4777158105
 40
0.6075377727
 40
0.7388510926
 40
0.8701679378
 40
1.0
 40
1.0
 40
1.0
 40
1.0
 10
4.0738152935
 20
30.3913705375
 30
0.0
 10
4.0739717114
 20
30.0885419562
 30
0.0
 10
4.0919853207
 20
29.47330445
 30
0.0
 10
4.1688850636
 20
28.5398389758
 30
0.0
 10
4.2959216156
 20
27.5851515262
 30
0.0
 10
4.472438563
 20
26.6134380862
 30
0.0
 10
4.6977461377
 20
25.6287701679
 30
0.0
 10
4.970803435
 20
24.6352835452
 30
0.0
 10
5.2905475498
 20
23.6372319001
 30
0.0
 10
5.7796963965
 20
22.2992516756
 30
0.0
 10
6.4990591376
 20
20.6436210682
 30
0.0
 10
7.5166605572
 20
18.7166638063
 30
0.0
 10
8.6760148235
 20
16.8715244281
 30
0.0
 10
9.5386889826
 20
15.7055346178
 30
0.0
 10
9.9897344364
 20
15.144016699
 30
0.0
  0
SPLINE
  5
25A
100
AcDbEntity
  8
0
100
AcDbSpline
 62
7
  6
BYLAYER
 70
0
 71
3
 72
9
 73
5
 74
0
 42
0.0000001
 43
0.0000001
 44
0.0000000001
 40
0.0
 40
0.0
 40
0.0
 40
0.0
 40
0.5082454433
 40
1.0
 40
1.0
 40
1.0
 40
1.0
 10
15.1637059907
 20
23.1483790205
 30
0.0
 10
13.2221957291
 20
24.2695747075
 30
0.0
 10
9.4599148847
 20
26.5774831992
 30
0.0
 10
5.8361466956
 20
29.0981532654
 30
0.0
 10
4.0949758269
 20
30.391972565
 30
0.0
  0
SPLINE
  5
25B
100
AcDbEntity
  8
0
100
AcDbSpline
 62
7
  6
BYLAYER
 70
0
 71
3
 72
37
 73
33
 74
0
 42
0.0000001
 43
0.0000001
 44
0.0000000001
 40
0.0
 40
0.0
 40
0.0
 40
0.0
 40
0.0306597862
 40
0.0623909624
 40
0.0951068196
 40
0.1287291332
 40
0.1631686391
 40
0.1983187604
 40
0.2340655087
 40
0.2702889019
 40
0.3436417722
 40
0.4173489043
 40
0.4903490139
 40
0.5616120164
 40
0.596300506
 40
0.6302076431
 40
0.6632356103
 40
0.6952984003
 40
0.7263236923
 40
0.7562558514
 40
0.7850571001
 40
0.8127121843
 40
0.8392289187
 40
0.8646439317
 40
0.8890227148
 40
0.9124646931
 40
0.9351019602
 40
0.9571001828
 40
0.9679245162
 40
0.9786640838
 40
0.9893464491
 40
1.0
 40
1.0
 40
1.0
 40
1.0
 10
19.0650235414
 20
39.8714032011
 30
0.0
 10
19.3785561235
 20
39.6903891755
 30
0.0
 10
20.0047590927
 20
39.3012352952
 30
0.0
 10
20.9223593308
 20
38.6527710927
 30
0.0
 10
21.8298737378
 20
37.9325341036
 30
0.0
 10
22.7223389045
 20
37.1446170016
 30
0.0
 10
23.5950165968
 20
36.2931861186
 30
0.0
 10
24.443240832
 20
35.3828415999
 30
0.0
 10
25.2624179593
 20
34.4184632279
 30
0.0
 10
26.3142588885
 20
33.0620529091
 30
0.0
 10
27.527463687
 20
31.2663379744
 30
0.0
 10
28.7963975008
 20
28.9952587893
 30
0.0
 10
29.8576942223
 20
26.6470324779
 30
0.0
 10
30.5565689323
 20
24.6494723024
 30
0.0
 10
30.9901966612
 20
23.055385078
 30
0.0
 10
31.2481047805
 20
21.8829118868
 30
0.0
 10
31.4402430778
 20
20.7292840455
 30
0.0
 10
31.5655509602
 20
19.600672552
 30
0.0
 10
31.623326413
 20
18.5031420007
 30
0.0
 10
31.6132709544
 20
17.4425759595
 30
0.0
 10
31.535325159
 20
16.4246495578
 30
0.0
 10
31.3899390693
 20
15.4548010702
 30
0.0
 10
31.1776759434
 20
14.5382344539
 30
0.0
 10
30.8996815291
 20
13.6798424647
 30
0.0
 10
30.5571398925
 20
12.8843211335
 30
0.0
 10
30.1518233058
 20
12.1559769254
 30
0.0
 10
29.6856621351
 20
11.4990382625
 30
0.0
 10
29.2459636894
 20
11.0114025397
 30
0.0
 10
28.8674892774
 20
10.6626384939
 30
0.0
 10
28.5717766729
 20
10.4223519546
 30
0.0
 10
28.2631545543
 20
10.2023833128
 30
0.0
 10
28.0489236009
 20
10.069418852
 30
0.0
 10
27.9399768208
 20
10.0065235619
 30
0.0
  0
SPLINE
  5
25C
100
AcDbEntity
  8
0
100
AcDbSpline
 62
7
  6
BYLAYER
 70
0
 71
3
 72
11
 73
7
 74
0
 42
0.0000001
 43
0.0000001
 44
0.0000000001
 40
0.0
 40
0.0
 40
0.0
 40
0.0
 40
0.2373612006
 40
0.4832708031
 40
0.7375491981
 40
1.0
 40
1.0
 40
1.0
 40
1.0
 10
15.2216932352
 20
23.1818582554
 30
0.0
 10
15.7231438251
 20
23.8945499973
 30
0.0
 10
16.7569108925
 20
25.3366258277
 30
0.0
 10
18.3697820785
 20
27.5117610441
 30
0.0
 10
20.0711169233
 20
29.735570027
 30
0.0
 10
21.2449611848
 20
31.2259481401
 30
0.0
 10
21.8460677215
 20
31.9789915851
 30
0.0
  0
SPLINE
  5
25D
100
AcDbEntity
  8
0
100
AcDbSpline
 62
7
  6
BYLAYER
 70
0
 71
3
 72
9
 73
5
 74
0
 42
0.0000001
 43
0.0000001
 44
0.0000000001
 40
0.0
 40
0.0
 40
0.0
 40
0.0
 40
0.50728367
 40
1.0
 40
1.0
 40
1.0
 40
1.0
 10
27.7619868644
 20
16.7316377466
 30
0.0
 10
25.5866568516
 20
17.70689977
 30
0.0
 10
21.3432976275
 20
19.7313429986
 30
0.0
 10
17.2079074618
 20
21.9688328767
 30
0.0
 10
15.2023463912
 20
23.1260738057
 30
0.0
  0
SPLINE
  5
25E
100
AcDbEntity
  8
0
100
AcDbSpline
 62
7
  6
BYLAYER
 70
0
 71
3
 72
9
 73
5
 74
0
 42
0.0000001
 43
0.0000001
 44
0.0000000001
 40
0.0
 40
0.0
 40
0.0
 40
0.0
 40
0.4976877254
 40
1.0
 40
1.0
 40
1.0
 40
1.0
 10
21.842801578
 20
8.305261684
 30
0.0
 10
20.6098261719
 20
10.7015351982
 30
0.0
 10
18.2614618715
 20
15.5837687248
 30
0.0
 10
16.1723291948
 20
20.5822733588
 30
0.0
 10
15.1882009901
 20
23.1179070976
 30
0.0
  0
SPLINE
  5
25F
100
AcDbEntity
  8
0
100
AcDbSpline
 62
7
  6
BYLAYER
 70
0
 71
3
 72
11
 73
7
 74
0
 42
0.0000001
 43
0.0000001
 44
0.0000000001
 40
0.0
 40
0.0
 40
0.0
 40
0.0
 40
0.2566956079
 40
0.5077936783
 40
0.7549140475
 40
1.0
 40
1.0
 40
1.0
 40
1.0
 10
21.8877904188
 20
8.3028112984
 30
0.0
 10
22.1039828932
 20
8.3236865725
 30
0.0
 10
22.5299828784
 20
8.3858939328
 30
0.0
 10
23.1502081589
 20
8.5434426272
 30
0.0
 10
23.7406305782
 20
8.7636355702
 30
0.0
 10
24.1132738307
 20
8.9518661653
 30
0.0
 10
24.2928636636
 20
9.0555568456
 30
0.0
  0
SPLINE
  5
260
100
AcDbEntity
  8
0
100
AcDbSpline
 62
7
  6
BYLAYER
 70
0
 71
3
 72
18
 73
14
 74
0
 42
0.0000001
 43
0.0000001
 44
0.0000000001
 40
0.0
 40
0.0
 40
0.0
 40
0.0
 40
0.0539110912
 40
0.1080803697
 40
0.1627605972
 40
0.2181916627
 40
0.2745968649
 40
0.3321805988
 40
0.4515066965
 40
0.5773936872
 40
0.7105726963
 40
0.8514515522
 40
1.0
 40
1.0
 40
1.0
 40
1.0
 10
9.0047530627
 20
38.9114099865
 30
0.0
 10
9.1418597949
 20
38.9905621034
 30
0.0
 10
9.4236340789
 20
39.1376129806
 30
0.0
 10
9.8650500286
 20
39.3223055306
 30
0.0
 10
10.3246238811
 20
39.4708402737
 30
0.0
 10
10.8011268445
 20
39.5829276879
 30
0.0
 10
11.2934178943
 20
39.6583143392
 30
0.0
 10
11.977155734
 20
39.7102361071
 30
0.0
 10
12.8689782259
 20
39.6793161941
 30
0.0
 10
13.967538863
 20
39.4949669173
 30
0.0
 10
15.0974343855
 20
39.1656139012
 30
0.0
 10
16.2477718553
 20
38.6947897355
 30
0.0
 10
17.0019260364
 20
38.2999979081
 30
0.0
 10
17.3797089643
 20
38.0818897672
 30
0.0
  0
LINE
  5
261
100
AcDbEntity
  8
0
100
AcDbLine
 62
7
  6
BYLAYER
 10
21.8779664824
 20
32.0046336601
 11
21.8696858005
 21
32.0149344245
  0
SPLINE
  5
262
100
AcDbEntity
  8
0
100
AcDbSpline
 62
7
  6
BYLAYER
 70
0
 71
3
 72
37
 73
33
 74
0
 42
0.0000001
 43
0.0000001
 44
0.0000000001
 40
0.0
 40
0.0
 40
0.0
 40
0.0
 40
0.0106535729
 40
0.0213359613
 40
0.0320755509
 40
0.0428999062
 40
0.0648981789
 40
0.0875355001
 40
0.1109775503
 40
0.1353564162
 40
0.1607715262
 40
0.1872883549
 40
0.2149435274
 40
0.24374483
 40
0.2736770112
 40
0.3047022706
 40
0.3367649917
 40
0.3697928503
 40
0.4036998632
 40
0.4383882207
 40
0.5096509784
 40
0.5826508654
 40
0.6563577756
 40
0.7297105017
 40
0.7659338798
 40
0.8016806746
 40
0.8368308735
 40
0.871270468
 40
0.9048928722
 40
0.9376088765
 40
0.9693401809
 40
1.0
 40
1.0
 40
1.0
 40
1.0
 10
26.254662469
 20
9.0335121597
 30
0.0
 10
26.3636094977
 20
9.0964075384
 30
0.0
 10
26.5778407301
 20
9.22937258
 30
0.0
 10
26.8864632477
 20
9.4493420049
 30
0.0
 10
27.1821765921
 20
9.6896288795
 30
0.0
 10
27.5606518587
 20
10.0383936646
 30
0.0
 10
28.0003504582
 20
10.5260312546
 30
0.0
 10
28.4665127868
 20
11.1829716418
 30
0.0
 10
28.8718293158
 20
11.9113187327
 30
0.0
 10
29.2143715341
 20
12.706843049
 30
0.0
 10
29.4923652916
 20
13.5652386642
 30
0.0
 10
29.7046283208
 20
14.4818086983
 30
0.0
 10
29.8500126206
 20
15.4516602804
 30
0.0
 10
29.9279578121
 20
16.4695886733
 30
0.0
 10
29.9380108653
 20
17.5301552527
 30
0.0
 10
29.8802348931
 20
18.6276848234
 30
0.0
 10
29.7549253084
 20
19.7562936368
 30
0.0
 10
29.5627871681
 20
20.9099178747
 30
0.0
 10
29.3048788294
 20
22.0823866092
 30
0.0
 10
28.8712522384
 20
23.6764679936
 30
0.0
 10
28.1723793657
 20
25.6740212877
 30
0.0
 10
27.1110864342
 20
28.022240351
 30
0.0
 10
25.8421567805
 20
30.293313836
 30
0.0
 10
24.6289560611
 20
32.0890261263
 30
0.0
 10
23.5771160592
 20
33.445435453
 30
0.0
 10
22.7579396219
 20
34.4098161121
 30
0.0
 10
21.9097134659
 20
35.3201622712
 30
0.0
 10
21.0370349503
 20
36.171596645
 30
0.0
 10
20.1445669183
 20
36.959516347
 30
0.0
 10
19.2370496052
 20
37.67975663
 30
0.0
 10
18.3194462563
 20
38.3282227436
 30
0.0
 10
17.6932418833
 20
38.7173779643
 30
0.0
 10
17.3797089643
 20
38.8983921844
 30
0.0
  0
SPLINE
  5
263
100
AcDbEntity
  8
0
100
AcDbSpline
 62
7
  6
BYLAYER
 70
0
 71
3
 72
9
 73
5
 74
0
 42
0.0000001
 43
0.0000001
 44
0.0000000001
 40
0.0
 40
0.0
 40
0.0
 40
0.0
 40
0.5023134508
 40
1.0
 40
1.0
 40
1.0
 40
1.0
 10
15.1759534904
 20
23.1168130107
 30
0.0
 10
16.1605158722
 20
20.5800593024
 30
0.0
 10
18.2506245762
 20
15.5793806295
 30
0.0
 10
20.6001922366
 20
10.6950821504
 30
0.0
 10
21.8338202218
 20
8.2978202552
 30
0.0
  0
SPLINE
  5
264
100
AcDbEntity
  8
0
100
AcDbSpline
 62
7
  6
BYLAYER
 70
0
 71
3
 72
18
 73
14
 74
0
 42
0.0000001
 43
0.0000001
 44
0.0000000001
 40
0.0
 40
0.0
 40
0.0
 40
0.0
 40
0.0539187808
 40
0.1080973359
 40
0.1627858215
 40
0.2182241339
 40
0.2746351243
 40
0.3322229151
 40
0.4515527245
 40
0.5774375265
 40
0.7106076591
 40
0.8514663211
 40
1.0
 40
1.0
 40
1.0
 40
1.0
 10
24.2928636636
 20
9.0555568456
 30
0.0
 10
24.4298624399
 20
9.1346565146
 30
0.0
 10
24.6978982837
 20
9.3050317662
 30
0.0
 10
25.0782890582
 20
9.5947200625
 30
0.0
 10
25.4365222825
 20
9.9181245556
 30
0.0
 10
25.7716416406
 20
10.2744175739
 30
0.0
 10
26.0829265743
 20
10.6626674909
 30
0.0
 10
26.4696199422
 20
11.2282387079
 30
0.0
 10
26.8886688371
 20
12.0151925442
 30
0.0
 10
27.2783671171
 20
13.057628561
 30
0.0
 10
27.5583404896
 20
14.1995755061
 30
0.0
 10
27.7262028816
 20
15.4298914283
 30
0.0
 10
27.761761329
 20
16.2795194403
 30
0.0
 10
27.7619868644
 20
16.7153076983
 30
0.0
  0
SPLINE
  5
265
100
AcDbEntity
  8
0
100
AcDbSpline
 62
7
  6
BYLAYER
 70
0
 71
3
 72
15
 73
11
 74
0
 42
0.0000001
 43
0.0000001
 44
0.0000000001
 40
0.0
 40
0.0
 40
0.0
 40
0.0
 40
0.1413568479
 40
0.2779649757
 40
0.4096878326
 40
0.5365681857
 40
0.65875292
 40
0.776489277
 40
0.8901096901
 40
1.0
 40
1.0
 40
1.0
 40
1.0
 10
15.9179010789
 20
37.237919629
 30
0.0
 10
15.664153674
 20
37.3844174473
 30
0.0
 10
15.1570168997
 20
37.6586673841
 30
0.0
 10
14.386572134
 20
38.0170564205
 30
0.0
 10
13.6223594767
 20
38.3138112318
 30
0.0
 10
12.8677916861
 20
38.5476783492
 30
0.0
 10
12.1259315592
 20
38.7175791893
 30
0.0
 10
11.3998173472
 20
38.8227932405
 30
0.0
 10
10.6926993961
 20
38.862616581
 30
0.0
 10
10.2288745056
 20
38.8452481903
 30
0.0
 10
10.0019819361
 20
38.8251880289
 30
0.0
  0
SPLINE
  5
266
100
AcDbEntity
  8
0
100
AcDbSpline
 62
7
  6
BYLAYER
 70
0
 71
3
 72
11
 73
7
 74
0
 42
0.0000001
 43
0.0000001
 44
0.0000000001
 40
0.0
 40
0.0
 40
0.0
 40
0.0
 40
0.2656155325
 40
0.5209190463
 40
0.7657564639
 40
1.0
 40
1.0
 40
1.0
 40
1.0
 10
15.1603757306
 20
23.1273101894
 30
0.0
 10
14.6778442004
 20
22.440664857
 30
0.0
 10
13.7429613657
 20
21.0859339155
 30
0.0
 10
12.4062518373
 20
19.0690519399
 30
0.0
 10
11.1639002183
 20
17.1091099611
 30
0.0
 10
10.3819408871
 20
15.8128379786
 30
0.0
 10
10.0075464009
 20
15.1744042026
 30
0.0
  0
SPLINE
  5
267
100
AcDbEntity
  8
0
100
AcDbSpline
 62
7
  6
BYLAYER
 70
0
 71
3
 72
15
 73
11
 74
0
 42
0.0000001
 43
0.0000001
 44
0.0000000001
 40
0.0
 40
0.0
 40
0.0
 40
0.0
 40
0.1337676589
 40
0.2657016133
 40
0.3953782504
 40
0.5224818545
 40
0.6467378368
 40
0.7679013923
 40
0.8857405152
 40
1.0
 40
1.0
 40
1.0
 40
1.0
 10
21.8338202218
 20
31.9942275466
 30
0.0
 10
21.6116635751
 20
32.2703875891
 30
0.0
 10
21.1595565653
 20
32.8103110285
 30
0.0
 10
20.4549194185
 20
33.585876589
 30
0.0
 10
19.7308445464
 20
34.3187517178
 30
0.0
 10
18.9906103891
 20
35.0057529583
 30
0.0
 10
18.2372477671
 20
35.6439961612
 30
0.0
 10
17.4739087625
 20
36.2308725108
 30
0.0
 10
16.7039028293
 20
36.7636932021
 30
0.0
 10
16.1800813841
 20
37.0865531836
 30
0.0
 10
15.9179010789
 20
37.237919629
 30
0.0
  0
SPLINE
  5
268
100
AcDbEntity
  8
0
100
AcDbSpline
 62
7
  6
BYLAYER
 70
0
 71
3
 72
9
 73
5
 74
0
 42
0.0000001
 43
0.0000001
 44
0.0000000001
 40
0.0
 40
0.0
 40
0.0
 40
0.0
 40
0.4917530523
 40
1.0
 40
1.0
 40
1.0
 40
1.0
 10
4.0874585805
 20
30.3812289156
 30
0.0
 10
5.828619821
 20
29.0871728738
 30
0.0
 10
9.4524124889
 20
26.5660365356
 30
0.0
 10
13.2147706683
 20
24.2577070814
 30
0.0
 10
15.156336633
 20
23.1363050063
 30
0.0
  0
SPLINE
  5
269
100
AcDbEntity
  8
0
100
AcDbSpline
 62
7
  6
BYLAYER
 70
0
 71
3
 72
9
 73
5
 74
0
 42
0.0000001
 43
0.0000001
 44
0.0000000001
 40
0.0
 40
0.0
 40
0.0
 40
0.0
 40
0.5016597583
 40
1.0
 40
1.0
 40
1.0
 40
1.0
 10
9.9897344364
 20
38.824093942
 30
0.0
 10
10.7216610421
 20
36.1615881232
 30
0.0
 10
12.3138280478
 20
30.8898698598
 30
0.0
 10
14.1717692953
 20
25.705749454
 30
0.0
 10
15.1637059907
 20
23.1483790205
 30
0.0
  0
SPLINE
  5
26A
100
AcDbEntity
  8
0
100
AcDbSpline
 62
7
  6
BYLAYER
 70
0
 71
3
 72
11
 73
7
 74
0
 42
0.0000001
 43
0.0000001
 44
0.0000000001
 40
0.0
 40
0.0
 40
0.0
 40
0.0
 40
0.2625083028
 40
0.5168068031
 40
0.762697899
 40
1.0
 40
1.0
 40
1.0
 40
1.0
 10
21.8309939618
 20
31.990686841
 30
0.0
 10
21.2275118255
 20
31.234635587
 30
0.0
 10
20.0491497182
 20
29.7383760323
 30
0.0
 10
18.3415334055
 20
27.5058492676
 30
0.0
 10
16.7231213425
 20
25.3224171145
 30
0.0
 10
15.6860144778
 20
23.8748821531
 30
0.0
 10
15.1830270512
 20
23.1595340079
 30
0.0
  0
SPLINE
  5
26B
100
AcDbEntity
  8
0
100
AcDbSpline
 62
7
  6
BYLAYER
 70
0
 71
3
 72
19
 73
15
 74
0
 42
0.0000001
 43
0.0000001
 44
0.0000000001
 40
0.0
 40
0.0
 40
0.0
 40
0.0
 40
0.1485394064
 40
0.2894092215
 40
0.4225798047
 40
0.4864226576
 40
0.5485198545
 40
0.6678385871
 40
0.7254188683
 40
0.7818207541
 40
0.8372486341
 40
0.8919257324
 40
0.9460919444
 40
1.0
 40
1.0
 40
1.0
 40
1.0
 10
17.3797089643
 20
38.8983921844
 30
0.0
 10
16.9793717959
 20
39.1295217275
 30
0.0
 10
16.1801778294
 20
39.5478898779
 30
0.0
 10
14.9612376264
 20
40.0467923934
 30
0.0
 10
13.9494185957
 20
40.3417521982
 30
0.0
 10
13.1577325926
 20
40.4974863803
 30
0.0
 10
12.4007812738
 20
40.5980944242
 30
0.0
 10
11.6545978754
 20
40.6239530152
 30
0.0
 10
10.9300709636
 20
40.5689335694
 30
0.0
 10
10.4083822976
 20
40.4890453794
 30
0.0
 10
9.9034309568
 20
40.3702677998
 30
0.0
 10
9.4164176072
 20
40.2128643939
 30
0.0
 10
8.9486466814
 20
40.0171445009
 30
0.0
 10
8.6500483776
 20
39.861314348
 30
0.0
 10
8.5047554595
 20
39.7774364009
 30
0.0
  0
SPLINE
  5
26C
100
AcDbEntity
  8
0
100
AcDbSpline
 62
7
  6
BYLAYER
 70
0
 71
3
 72
35
 73
31
 74
0
 42
0.0000001
 43
0.0000001
 44
0.0000000001
 40
0.0
 40
0.0
 40
0.0
 40
0.0
 40
0.0306604256
 40
0.0623922565
 40
0.0951088104
 40
0.1287318623
 40
0.1631721327
 40
0.1983230267
 40
0.2340705451
 40
0.2702947001
 40
0.3436490866
 40
0.4173577316
 40
0.4903593534
 40
0.5616238187
 40
0.5963130213
 40
0.6302208808
 40
0.6632495613
 40
0.6953130536
 40
0.726339028
 40
0.7562718516
 40
0.7850737377
 40
0.8127294335
 40
0.8392467497
 40
0.864662312
 40
0.8890416089
 40
0.9124840805
 40
0.9351218314
 40
0.957120521
 40
0.9786744417
 40
1.0
 40
1.0
 40
1.0
 40
1.0
 10
17.3797089643
 20
38.0818897672
 30
0.0
 10
17.6755776294
 20
37.9110737782
 30
0.0
 10
18.2665013236
 20
37.5438443194
 30
0.0
 10
19.1324054852
 20
36.9319134391
 30
0.0
 10
19.9887924281
 20
36.252253175
 30
0.0
 10
20.8309783943
 20
35.5087253432
 30
0.0
 10
21.6544917583
 20
34.7052616735
 30
0.0
 10
22.4549292798
 20
33.8462036091
 30
0.0
 10
23.2279556571
 20
32.9361560235
 30
0.0
 10
24.2205376989
 20
31.6561635138
 30
0.0
 10
25.3653921462
 20
29.961616428
 30
0.0
 10
26.5628361465
 20
27.8184866959
 30
0.0
 10
27.5643408344
 20
25.6025562334
 30
0.0
 10
28.2238424374
 20
23.7175359952
 30
0.0
 10
28.6330401589
 20
22.213257245
 30
0.0
 10
28.876418703
 20
21.1068390756
 30
0.0
 10
29.0577323511
 20
20.0182039457
 30
0.0
 10
29.1759811744
 20
18.9531756068
 30
0.0
 10
29.2305016455
 20
17.9174769249
 30
0.0
 10
29.2210130303
 20
16.9166602016
 30
0.0
 10
29.1474584085
 20
15.9560808647
 30
0.0
 10
29.0102631755
 20
15.0408709896
 30
0.0
 10
28.809958072
 20
14.1759411915
 30
0.0
 10
28.5476259599
 20
13.36590969
 30
0.0
 10
28.2243798707
 20
12.6152041953
 30
0.0
 10
27.8419068685
 20
11.9279015127
 30
0.0
 10
27.4019764062
 20
11.3079454496
 30
0.0
 10
26.9068927649
 20
10.758860675
 30
0.0
 10
26.3593681946
 20
10.2840852854
 30
0.0
 10
25.9604564693
 20
10.0183426678
 30
0.0
 10
25.7546648658
 20
9.8995385741
 30
0.0
  0
SPLINE
  5
26D
100
AcDbEntity
  8
0
100
AcDbSpline
 62
7
  6
BYLAYER
 70
0
 71
3
 72
19
 73
15
 74
0
 42
0.0000001
 43
0.0000001
 44
0.0000000001
 40
0.0
 40
0.0
 40
0.0
 40
0.0
 40
0.054588621
 40
0.1108857153
 40
0.1687688637
 40
0.2281299407
 40
0.288852665
 40
0.3507952844
 40
0.4138040586
 40
0.4777158102
 40
0.6075377725
 40
0.7388510924
 40
0.8701679377
 40
1.0
 40
1.0
 40
1.0
 40
1.0
 10
27.7619868644
 20
16.7316377466
 30
0.0
 10
27.7618302337
 20
17.0344662915
 30
0.0
 10
27.7438165685
 20
17.6497037803
 30
0.0
 10
27.6669171516
 20
18.5831692875
 30
0.0
 10
27.5398806155
 20
19.5378567781
 30
0.0
 10
27.3633635788
 20
20.5095702004
 30
0.0
 10
27.1380560004
 20
21.4942381094
 30
0.0
 10
26.8649987272
 20
22.487724739
 30
0.0
 10
26.5452546133
 20
23.4857763862
 30
0.0
 10
26.056105758
 20
24.8237566075
 30
0.0
 10
25.3367430214
 20
26.4793872163
 30
0.0
 10
24.3191416004
 20
28.4063444777
 30
0.0
 10
23.1597873344
 20
30.2514838561
 30
0.0
 10
22.2971131753
 20
31.4174736663
 30
0.0
 10
21.8460677215
 20
31.9789915851
 30
0.0
  0
SPLINE
  5
26E
100
AcDbEntity
  8
0
100
AcDbSpline
 62
7
  6
BYLAYER
 70
0
 71
3
 72
9
 73
5
 74
0
 42
0.0000001
 43
0.0000001
 44
0.0000000001
 40
0.0
 40
0.0
 40
0.0
 40
0.0
 40
0.4927101893
 40
1.0
 40
1.0
 40
1.0
 40
1.0
 10
15.1882009901
 20
23.1179070976
 30
0.0
 10
17.1949170519
 20
21.9596544702
 30
0.0
 10
21.3328168302
 20
19.7202444505
 30
0.0
 10
25.5788620434
 20
17.6941856649
 30
0.0
 10
27.7556151982
 20
16.7181644739
 30
0.0
  0
ENDSEC
  0
SECTION
  2
OBJECTS
  0
DICTIONARY
  5
C
100
AcDbDictionary
280
0
281
1
  3
ACAD_GROUP
350
D
  3
ACAD_MLINESTYLE
350
17
  3
ACAD_LAYOUT
350
1A
  3
ACAD_PLOTSETTINGS
350
19
  3
ACAD_PLOTSTYLENAME
350
E
  0
DICTIONARY
  5
D
102
{ACAD_REACTORS
330
C
102
}
100
AcDbDictionary
280
0
281
1
  0
ACDBDICTIONARYWDFLT
  5
E
102
{ACAD_REACTORS
330
C
102
}
100
AcDbDictionary
281
1
  3
Normal
350
F
100
AcDbDictionaryWithDefault
340
F
  0
DICTIONARY
  5
17
102
{ACAD_REACTORS
330
C
102
}
100
AcDbDictionary
280
0
281
1
  3
Standard
350
18
  0
DICTIONARY
  5
19
102
{ACAD_REACTORS
330
C
102
}
100
AcDbDictionary
281
1
  0
DICTIONARY
  5
1A
102
{ACAD_REACTORS
330
C
102
}
100
AcDbDictionary
281
1
  3
Model
350
26F
  3
Layout1
350
270
  0
ACDBPLACEHOLDER
  5
F
102
{ACAD_REACTORS
330
E
102
}
  0
MLINESTYLE
  5
18
102
{ACAD_REACTORS
330
17
102
}
100
AcDbMlineStyle
  2
STANDARD
 70
0
  3

 62
256
 51
90.0
 52
90.0
 71
2
 49
0.5
 62
256
  6
BYLAYER
 49
-0.5
 62
256
  6
BYLAYER
  0
LAYOUT
  5
26F
102
{ACAD_REACTORS
330
1A
102
}
100
AcDbPlotSettings
  1

  2
none_device
  4

  6

 40
0.0
 41
0.0
 42
0.0
 43
0.0
 44
210.0
 45
297.0
 46
0.0
 47
0.0
 48
0.0
 49
0.0
140
0.0
141
0.0
142
1.0
143
1.0
 70
1024
 72
1
 73
0
 74
0
  7

 75
0
147
1.0
148
0.0
149
0.0
100
AcDbLayout
  1
Model
 70
0
 71
0
 10
0.0
 20
0.0
 11
210.0
 21
297.0
 12
0.0
 22
0.0
 32
0.0
 14
0.0
 24
0.0
 34
0.0
 15
0.0
 25
0.0
 35
0.0
146
0.0
 13
0.0
 23
0.0
 33
0.0
 16
1.0
 26
0.0
 36
0.0
 17
0.0
 27
1.0
 37
0.0
 76
0
330
210
345
0
346
0
  0
LAYOUT
  5
270
102
{ACAD_REACTORS
330
1A
102
}
100
AcDbPlotSettings
  1

  2
none_device
  4

  6

 40
0.0
 41
0.0
 42
0.0
 43
0.0
 44
210.0
 45
297.0
 46
0.0
 47
0.0
 48
0.0
 49
0.0
140
0.0
141
0.0
142
1.0
143
1.0
 70
0
 72
1
 73
0
 74
0
  7

 75
0
147
1.0
148
0.0
149
0.0
100
AcDbLayout
  1
Layout1
 70
0
 71
1
 10
0.0
 20
0.0
 11
210.0
 21
297.0
 12
0.0
 22
0.0
 32
0.0
 14
0.0
 24
0.0
 34
0.0
 15
0.0
 25
0.0
 35
0.0
146
0.0
 13
0.0
 23
0.0
 33
0.0
 16
1.0
 26
0.0
 36
0.0
 17
0.0
 27
1.0
 37
0.0
 76
0
330
211
345
0
346
0
  0
ENDSEC
  0
EOF
