999
DXF file: C:\Users\sesa63760\Dev\_Creo\CAD\MCADID0004473_3D-CAD\drw0001_1.dxf
999
Pro/ENGINEER 2019471 by Parametric Technology Corporation
  0
SECTION
  2
HEADER
  9
$ACADVER
  1
AC1024
  9
$DWGCODEPAGE
  3
ANSI_1252
  9
$EXTMAX
 10
73.5529150304
 20
104.0248369716
 30
0.0
  9
$EXTMIN
 10
0.0
 20
0.0
 30
0.0
  9
$LIMMIN
 10
0.0
 20
0.0
  9
$LIMMAX
 10
73.5529150304
 20
104.0248369716
  9
$VIEWCTR
 10
36.7764575152
 20
52.0124184858
  9
$VIEWSIZE
 40
104.0248369716
  9
$CLAYER
  8
0
  9
$LTSCALE
 40
6.7808782618
  9
$CELTYPE
  6
BYLAYER
  9
$DIMSCALE
 40
1.0
  9
$DIMASZ
 40
0.8756299408
  9
$DIMEXO
 40
1.0
  9
$DIMDLI
 40
4.6849704355
  9
$DIMEXE
 40
1.0
  9
$DIMCEN
 40
1.109598261
  9
$DIMLFAC
 40
1.0
  9
$DIMBLK
  1
_FILLED
  9
$DIMALT
 70
0
  9
$DIMALTF
 40
0.0393700787
  9
$DIMTXT
 40
1.2258819172
  9
$DIMTOL
 70
1
  9
$DIMLIM
 70
0
  9
$DIMTFAC
 40
1.0
  9
$DIMTP
 40
0.01
  9
$DIMTM
 40
0.01
  9
$DIMGAP
 40
0.625
  9
$DIMDSEP
 70
46
  9
$AUNITS
 70
0
  9
$PDMODE
 70
3
  9
$PDSIZE
 40
0.3125
  9
$HANDSEED
  5
269
  9
$TILEMODE
 70
1
  9
$MEASUREMENT
 70
1
  9
$INSUNITS
 70
4
  0
ENDSEC
  0
SECTION
  2
CLASSES
  0
CLASS
  1
ACDBDICTIONARYWDFLT
  2
AcDbDictionaryWithDefault
  3
AutoCAD 2000
 90
0
 91
1
280
0
281
0
  0
CLASS
  1
ACDBPLACEHOLDER
  2
AcDbPlaceHolder
  3
AutoCAD 2000
 90
0
 91
1
280
0
281
0
  0
CLASS
  1
LAYOUT
  2
AcDbLayout
  3
AutoCAD 2000
 90
0
 91
0
280
0
281
0
  0
ENDSEC
  0
SECTION
  2
TABLES
  0
TABLE
  2
VPORT
  5
8
100
AcDbSymbolTable
 70
2
  0
VPORT
  5
1F4
100
AcDbSymbolTableRecord
100
AcDbViewportTableRecord
  2
*ACTIVE
 70
0
 10
0.0
 20
0.0
 11
1.0
 21
1.0
 12
36.7764575152
 22
52.0124184858
 13
0.0
 23
0.0
 14
1.0
 24
1.0
 15
0.0
 25
0.0
 16
0.0
 26
0.0
 36
1.0
 17
0.0
 27
0.0
 37
0.0
 40
104.0248369716
 41
0.7070707071
 42
50.0
 43
0.0
 44
0.0
 50
0.0
 51
0.0
 71
0
 72
100
 73
1
 74
1
 75
0
 76
0
 77
0
 78
0
  0
ENDTAB
  0
TABLE
  2
LTYPE
  5
5
100
AcDbSymbolTable
 70
6
  0
LTYPE
  5
14
100
AcDbSymbolTableRecord
100
AcDbLinetypeTableRecord
  2
BYBLOCK
 70
0
  3

 72
65
 73
0
 40
0.0
  0
LTYPE
  5
15
100
AcDbSymbolTableRecord
100
AcDbLinetypeTableRecord
  2
BYLAYER
 70
0
  3

 72
65
 73
0
 40
0.0
  0
LTYPE
  5
16
100
AcDbSymbolTableRecord
100
AcDbLinetypeTableRecord
  2
CONTINUOUS
 70
64
  3
Solid line
 72
65
 73
0
 40
0.0
  0
LTYPE
  5
1F5
100
AcDbSymbolTableRecord
100
AcDbLinetypeTableRecord
  2
CENTER
 70
64
  3
____ _ ____ _ ____ _ ____ _ ____ _ ____ _ ____
 72
65
 73
4
 40
0.6
 49
0.375
 74
0
 49
-0.075
 74
0
 49
0.075
 74
0
 49
-0.075
 74
0
  0
LTYPE
  5
1F6
100
AcDbSymbolTableRecord
100
AcDbLinetypeTableRecord
  2
HIDDEN
 70
64
  3
- - - - - - - - - - - - - - - - - - - -
 72
65
 73
2
 40
0.2
 49
0.1
 74
0
 49
-0.1
 74
0
  0
LTYPE
  5
1F7
100
AcDbSymbolTableRecord
100
AcDbLinetypeTableRecord
  2
PHANTOM
 70
64
  3
_____ _ _ _____ _ _ _____ _ _ _____
 72
65
 73
6
 40
0.8
 49
0.45
 74
0
 49
-0.05
 74
0
 49
0.1
 74
0
 49
-0.05
 74
0
 49
0.1
 74
0
 49
-0.05
 74
0
  0
LTYPE
  5
1F8
100
AcDbSymbolTableRecord
100
AcDbLinetypeTableRecord
  2
DOT
 70
64
  3
. . . . . . . . . . . . . . . . . . . .
 72
65
 73
2
 40
0.2
 49
0.1
 74
0
 49
-0.1
 74
0
  0
LTYPE
  5
1F9
100
AcDbSymbolTableRecord
100
AcDbLinetypeTableRecord
  2
DASHED
 70
64
  3
- - - - - - - - - - - - - - - - - - - -
 72
65
 73
2
 40
0.2
 49
0.1
 74
0
 49
-0.1
 74
0
  0
ENDTAB
  0
TABLE
  2
LAYER
  5
2
100
AcDbSymbolTable
 70
36
  0
LAYER
  5
10
100
AcDbSymbolTableRecord
100
AcDbLayerTableRecord
  2
0
 70
0
 62
7
  6
CONTINUOUS
370
-3
390
F
  0
LAYER
  5
1FA
100
AcDbSymbolTableRecord
100
AcDbLayerTableRecord
  2
DEFAULT_1
 70
0
 62
7
  6
CENTER
370
-3
390
F
  0
LAYER
  5
1FB
100
AcDbSymbolTableRecord
100
AcDbLayerTableRecord
  2
DEFAULT_2
 70
0
 62
7
  6
HIDDEN
370
-3
390
F
  0
LAYER
  5
1FC
100
AcDbSymbolTableRecord
100
AcDbLayerTableRecord
  2
DEFAULT_3
 70
0
 62
7
  6
PHANTOM
370
-3
390
F
  0
LAYER
  5
1FD
100
AcDbSymbolTableRecord
100
AcDbLayerTableRecord
  2
00_COMPONENTS
 70
0
 62
7
  6
CONTINUOUS
370
-3
390
F
  0
LAYER
  5
1FE
100
AcDbSymbolTableRecord
100
AcDbLayerTableRecord
  2
01_1_DEFAULT_DATUMS
 70
0
 62
7
  6
CONTINUOUS
370
-3
390
F
  0
LAYER
  5
1FF
100
AcDbSymbolTableRecord
100
AcDbLayerTableRecord
  2
01_PLANES
 70
0
 62
7
  6
CONTINUOUS
370
-3
390
F
  0
LAYER
  5
200
100
AcDbSymbolTableRecord
100
AcDbLayerTableRecord
  2
02_COORD_SYS
 70
0
 62
7
  6
CONTINUOUS
370
-3
390
F
  0
LAYER
  5
201
100
AcDbSymbolTableRecord
100
AcDbLayerTableRecord
  2
03_AXES
 70
0
 62
7
  6
CONTINUOUS
370
-3
390
F
  0
LAYER
  5
202
100
AcDbSymbolTableRecord
100
AcDbLayerTableRecord
  2
04_POINTS
 70
0
 62
7
  6
CONTINUOUS
370
-3
390
F
  0
LAYER
  5
203
100
AcDbSymbolTableRecord
100
AcDbLayerTableRecord
  2
05_CURVES
 70
0
 62
7
  6
CONTINUOUS
370
-3
390
F
  0
LAYER
  5
204
100
AcDbSymbolTableRecord
100
AcDbLayerTableRecord
  2
06_SURFS
 70
0
 62
7
  6
CONTINUOUS
370
-3
390
F
  0
LAYER
  5
205
100
AcDbSymbolTableRecord
100
AcDbLayerTableRecord
  2
07_COSMETICS
 70
0
 62
7
  6
CONTINUOUS
370
-3
390
F
  0
LAYER
  5
206
100
AcDbSymbolTableRecord
100
AcDbLayerTableRecord
  2
10_NOTES
 70
0
 62
7
  6
CONTINUOUS
370
-3
390
F
  0
LAYER
  5
207
100
AcDbSymbolTableRecord
100
AcDbLayerTableRecord
  2
11_NOTES_PUB
 70
0
 62
7
  6
CONTINUOUS
370
-3
390
F
  0
LAYER
  5
208
100
AcDbSymbolTableRecord
100
AcDbLayerTableRecord
  2
13_REF_GTOL
 70
0
 62
7
  6
CONTINUOUS
370
-3
390
F
  0
LAYER
  5
209
100
AcDbSymbolTableRecord
100
AcDbLayerTableRecord
  2
16_MISC
 70
0
 62
7
  6
CONTINUOUS
370
-3
390
F
  0
LAYER
  5
20A
100
AcDbSymbolTableRecord
100
AcDbLayerTableRecord
  2
17_NO_PRINT
 70
0
 62
7
  6
CONTINUOUS
370
-3
390
F
  0
LAYER
  5
20B
100
AcDbSymbolTableRecord
100
AcDbLayerTableRecord
  2
18_DATUM_CAMS_JOINTS
 70
0
 62
7
  6
CONTINUOUS
370
-3
390
F
  0
LAYER
  5
20C
100
AcDbSymbolTableRecord
100
AcDbLayerTableRecord
  2
19_DATUM_FUNCTIONAL
 70
0
 62
7
  6
CONTINUOUS
370
-3
390
F
  0
LAYER
  5
20D
100
AcDbSymbolTableRecord
100
AcDbLayerTableRecord
  2
20_DATUM_KINEMATIC_SCHEME
 70
0
 62
7
  6
CONTINUOUS
370
-3
390
F
  0
ENDTAB
  0
TABLE
  2
STYLE
  5
3
100
AcDbSymbolTable
 70
1
  0
STYLE
  5
11
100
AcDbSymbolTableRecord
100
AcDbTextStyleTableRecord
  2
STANDARD
 70
0
 40
0.0
 41
1.0
 50
0.0
 71
0
 42
0.2
  3
ARIAL.TTF
  4

  0
STYLE
  5
20E
100
AcDbSymbolTableRecord
100
AcDbTextStyleTableRecord
  2
TEXTSTYLE_1
 70
0
 40
0.0
 41
0.8
 50
0.0
 71
0
 42
0.2
  3
gdt
  4

  0
ENDTAB
  0
TABLE
  2
VIEW
  5
6
100
AcDbSymbolTable
 70
0
  0
ENDTAB
  0
TABLE
  2
UCS
  5
7
100
AcDbSymbolTable
 70
0
  0
ENDTAB
  0
TABLE
  2
APPID
  5
9
100
AcDbSymbolTable
 70
1
  0
APPID
  5
20F
100
AcDbSymbolTableRecord
100
AcDbRegAppTableRecord
  2
ACAD
 70
0
  0
ENDTAB
  0
TABLE
  2
BLOCK_RECORD
  5
1
100
AcDbSymbolTable
 70
0
  0
BLOCK_RECORD
  5
210
100
AcDbSymbolTableRecord
100
AcDbBlockTableRecord
  2
*Model_Space
  0
BLOCK_RECORD
  5
211
100
AcDbSymbolTableRecord
100
AcDbBlockTableRecord
  2
*Paper_Space
  0
BLOCK_RECORD
  5
212
100
AcDbSymbolTableRecord
100
AcDbBlockTableRecord
  2
_FILLED
  0
ENDTAB
  0
TABLE
  2
DIMSTYLE
  5
A
100
AcDbSymbolTable
 70
1
100
AcDbDimStyleTable
 71
0
  0
DIMSTYLE
105
213
100
AcDbSymbolTableRecord
100
AcDbDimStyleTableRecord
  2
STANDARD
 70
0
  3

  4

 40
1.0
 41
0.8756299408
 42
1.0
 43
0.38
 44
1.0
 45
0.0
 46
0.0
 47
0.01
 48
0.01
140
1.2258819172
141
0.09
142
0.0
143
25.4
144
1.0
145
0.0
146
1.0
147
0.625
 71
1
 72
0
 73
0
 74
0
 75
0
 76
0
 77
1
 78
8
 79
2
170
0
171
1
172
0
173
0
174
0
175
0
176
0
177
0
178
0
270
2
179
2
271
2
272
2
273
2
274
2
275
0
280
0
281
0
282
0
283
1
284
8
285
0
286
0
287
3
288
0
340
11
278
46
341
212
342
212
343
212
344
212
  0
ENDTAB
  0
ENDSEC
  0
SECTION
  2
BLOCKS
  0
BLOCK
  5
20
100
AcDbEntity
  8
0
100
AcDbBlockBegin
  2
*Model_Space
 70
0
 10
0.0
 20
0.0
 30
0.0
  3
*Model_Space
  1

  0
ENDBLK
  5
21
100
AcDbEntity
  8
0
100
AcDbBlockEnd
  0
BLOCK
  5
1C
100
AcDbEntity
  8
0
100
AcDbBlockBegin
  2
*Paper_Space
 70
0
 10
0.0
 20
0.0
 30
0.0
  3
*Paper_Space
  1

  0
ENDBLK
  5
1D
100
AcDbEntity
  8
0
100
AcDbBlockEnd
  0
BLOCK
  5
214
100
AcDbEntity
  8
0
100
AcDbBlockBegin
  2
_FILLED
 70
64
 10
0.0
 20
0.0
  3
_FILLED
  1

  0
SOLID
  5
215
100
AcDbEntity
  8
0
  6
BYBLOCK
 62
0
100
AcDbTrace
 10
0.0
 20
0.0
 11
-1.0
 21
0.25
 12
-1.0
 22
-0.25
 13
-1.0
 23
-0.25
  0
ENDBLK
  5
216
100
AcDbEntity
  8
0
  6
BYBLOCK
 62
0
100
AcDbBlockEnd
  0
ENDSEC
  0
SECTION
  2
ENTITIES
  0
LINE
  5
217
100
AcDbEntity
  8
0
100
AcDbLine
 62
7
  6
BYLAYER
 10
23.7357797525
 20
92.555847978
 11
11.0079106826
 21
85.2074532083
  0
LINE
  5
218
100
AcDbEntity
  8
0
100
AcDbLine
 62
7
  6
BYLAYER
 10
11.0079106826
 20
36.2173081805
 11
11.0079106826
 21
85.2074532083
  0
LINE
  5
219
100
AcDbEntity
  8
0
100
AcDbLine
 62
7
  6
BYLAYER
 10
53.4344941914
 20
11.7228629093
 11
11.0079106826
 21
36.2173081805
  0
LINE
  5
21A
100
AcDbEntity
  8
0
100
AcDbLine
 62
7
  6
BYLAYER
 10
55.2956128611
 20
18.5356943924
 11
54.719001149
 21
18.8685937884
  0
LINE
  5
21B
100
AcDbEntity
  8
0
100
AcDbLine
 62
7
  6
BYLAYER
 10
55.1315486999
 20
20.9578369128
 11
54.4951499473
 21
21.3252535918
  0
LINE
  5
21C
100
AcDbEntity
  8
0
100
AcDbLine
 62
7
  6
BYLAYER
 10
54.4951499473
 20
21.7165090738
 11
55.1315486999
 21
21.3490923948
  0
LINE
  5
21D
100
AcDbEntity
  8
0
100
AcDbLine
 62
7
  6
BYLAYER
 10
55.2956077394
 20
24.0987519984
 11
54.719001149
 21
24.4316484375
  0
LINE
  5
21E
100
AcDbEntity
  8
0
100
AcDbLine
 62
7
  6
BYLAYER
 10
11.0079106826
 20
50.4768730238
 11
9.0507515111
 21
51.6068138357
  0
LINE
  5
21F
100
AcDbEntity
  8
0
100
AcDbLine
 62
7
  6
BYLAYER
 10
66.1623632613
 20
68.0614027068
 11
53.4344941914
 21
60.7130079371
  0
LINE
  5
220
100
AcDbEntity
  8
0
100
AcDbLine
 62
7
  6
BYLAYER
 10
61.3905988971
 20
63.6939299678
 11
58.2062585556
 21
61.8554611886
  0
LINE
  5
221
100
AcDbEntity
  8
0
100
AcDbLine
 62
7
  6
BYLAYER
 10
55.2956128611
 20
49.1545350348
 11
54.719001149
 21
49.4874344308
  0
LINE
  5
222
100
AcDbEntity
  8
0
100
AcDbLine
 62
7
  6
BYLAYER
 10
55.1965740369
 20
53.4041194025
 11
65.6730809211
 21
59.4526973671
  0
LINE
  5
223
100
AcDbEntity
  8
0
100
AcDbLine
 62
7
  6
BYLAYER
 10
55.1315486999
 20
51.5766775551
 11
54.4951499473
 21
51.9440942342
  0
LINE
  5
224
100
AcDbEntity
  8
0
100
AcDbLine
 62
7
  6
BYLAYER
 10
54.4951499473
 20
52.3353497162
 11
55.1315486999
 21
51.9679330371
  0
LINE
  5
225
100
AcDbEntity
  8
0
100
AcDbLine
 62
7
  6
BYLAYER
 10
65.6730809211
 20
56.2641534978
 11
55.1965740369
 21
50.2155755332
  0
LINE
  5
226
100
AcDbEntity
  8
0
100
AcDbLine
 62
7
  6
BYLAYER
 10
55.2956077394
 20
54.7175926408
 11
54.719001149
 21
55.0504890798
  0
LINE
  5
227
100
AcDbEntity
  8
0
100
AcDbLine
 62
7
  6
BYLAYER
 10
53.4344941914
 20
60.7130079371
 11
53.4344941914
 21
11.7228629093
  0
LINE
  5
228
100
AcDbEntity
  8
0
100
AcDbLine
 62
7
  6
BYLAYER
 10
58.2062585556
 20
46.7091762906
 11
61.3905988971
 21
48.5476450698
  0
LINE
  5
229
100
AcDbEntity
  8
0
100
AcDbLine
 62
7
  6
BYLAYER
 10
11.0079106826
 20
85.2074532083
 11
53.4344941914
 21
60.7130079371
  0
LINE
  5
22A
100
AcDbEntity
  8
0
100
AcDbLine
 62
7
  6
BYLAYER
 10
54.4951499473
 20
52.3353497162
 11
54.4951499473
 21
51.9440942342
  0
LINE
  5
22B
100
AcDbEntity
  8
0
100
AcDbLine
 62
7
  6
BYLAYER
 10
54.4951499473
 20
21.7165090738
 11
54.4951499473
 21
21.3252535918
  0
LINE
  5
22C
100
AcDbEntity
  8
0
100
AcDbLine
 62
7
  6
BYLAYER
 10
55.1315486999
 20
51.9679330371
 11
55.1315486999
 21
51.5766775551
  0
LINE
  5
22D
100
AcDbEntity
  8
0
100
AcDbLine
 62
7
  6
BYLAYER
 10
55.1315486999
 20
21.3490923948
 11
55.1315486999
 21
20.9578369128
  0
LINE
  5
22E
100
AcDbEntity
  8
0
100
AcDbLine
 62
7
  6
BYLAYER
 10
65.7381062581
 20
27.0814992208
 11
65.7381062581
 21
27.4727547028
  0
LINE
  5
22F
100
AcDbEntity
  8
0
100
AcDbLine
 62
7
  6
BYLAYER
 10
65.7381062581
 20
57.7003398632
 11
65.7381062581
 21
58.0915953452
  0
LINE
  5
230
100
AcDbEntity
  8
0
100
AcDbLine
 62
7
  6
BYLAYER
 10
66.1623632613
 20
19.071257679
 11
66.1623632613
 21
68.0614027068
  0
LINE
  5
231
100
AcDbEntity
  8
0
100
AcDbLine
 62
7
  6
BYLAYER
 10
61.3905988971
 20
33.0750893254
 11
58.2062585556
 21
31.2366205463
  0
LINE
  5
232
100
AcDbEntity
  8
0
100
AcDbLine
 62
7
  6
BYLAYER
 10
66.1623632613
 20
68.0614027068
 11
23.7357797525
 21
92.555847978
  0
LINE
  5
233
100
AcDbEntity
  8
0
100
AcDbLine
 62
7
  6
BYLAYER
 10
55.1965740369
 20
22.7852787602
 11
65.6730809211
 21
28.8338567248
  0
LINE
  5
234
100
AcDbEntity
  8
0
100
AcDbLine
 62
7
  6
BYLAYER
 10
65.6730809211
 20
25.6453128554
 11
55.1965740369
 21
19.5967348908
  0
LINE
  5
235
100
AcDbEntity
  8
0
100
AcDbLine
 62
7
  6
BYLAYER
 10
58.2062585556
 20
16.0903356483
 11
61.3905988971
 21
17.9288044275
  0
LINE
  5
236
100
AcDbEntity
  8
0
100
AcDbLine
 62
7
  6
BYLAYER
 10
66.1623632613
 20
19.071257679
 11
53.4344941914
 21
11.7228629093
  0
ARC
  5
237
100
AcDbEntity
  8
0
100
AcDbCircle
 62
7
  6
BYLAYER
 10
84.4898247732
 20
51.8559049551
 40
29.3341365072
100
AcDbArc
 50
174.4016140549
 51
176.9746579813
  0
ARC
  5
238
100
AcDbEntity
  8
0
100
AcDbCircle
 62
7
  6
BYLAYER
 10
84.4898247732
 20
21.2370643128
 40
29.3341365072
100
AcDbArc
 50
174.4016140549
 51
176.9746579813
  0
ARC
  5
239
100
AcDbEntity
  8
0
100
AcDbCircle
 62
7
  6
BYLAYER
 10
52.6907706559
 20
27.2845738455
 40
13.0853937345
100
AcDbArc
 50
347.268940037
 51
352.8035372265
  0
ARC
  5
23A
100
AcDbEntity
  8
0
100
AcDbCircle
 62
7
  6
BYLAYER
 10
52.6907706559
 20
57.9034144878
 40
13.0853937345
100
AcDbArc
 50
347.268940037
 51
352.8035372265
  0
ARC
  5
23B
100
AcDbEntity
  8
0
100
AcDbCircle
 62
7
  6
BYLAYER
 10
55.9206163314
 20
27.5333969375
 40
9.8387877465
100
AcDbArc
 50
7.5952548185
 51
14.3022052508
  0
ARC
  5
23C
100
AcDbEntity
  8
0
100
AcDbCircle
 62
7
  6
BYLAYER
 10
55.9206163314
 20
58.1522375798
 40
9.8387877465
100
AcDbArc
 50
7.5952548185
 51
14.3022052508
  0
SPLINE
  5
23D
100
AcDbEntity
  8
0
100
AcDbSpline
 62
7
  6
BYLAYER
 70
0
 71
3
 72
19
 73
15
 74
0
 42
0.0000001
 43
0.0000001
 44
0.0000000001
 40
0.0
 40
0.0
 40
0.0
 40
0.0
 40
0.0428391559
 40
0.0874444434
 40
0.1352565711
 40
0.1871945237
 40
0.2436731925
 40
0.3046655562
 40
0.4382693929
 40
0.5825444777
 40
0.7296404985
 40
0.871167504
 40
0.9376094049
 40
1.0
 40
1.0
 40
1.0
 40
1.0
 10
9.0507557686
 20
51.6068212198
 30
0.0
 10
8.9891195787
 20
51.6423998576
 30
0.0
 10
8.8723204252
 20
51.731860248
 30
0.0
 10
8.7316827055
 20
51.9096091158
 30
0.0
 10
8.6266509518
 20
52.1270519495
 30
0.0
 10
8.5586078862
 20
52.3787956979
 30
0.0
 10
8.5282906866
 20
52.659583987
 30
0.0
 10
8.5390342852
 20
53.0775384338
 30
0.0
 10
8.6524253238
 20
53.6335324564
 30
0.0
 10
8.9182166309
 20
54.2911554448
 30
0.0
 10
9.2965108353
 20
54.9065582358
 30
0.0
 10
9.6883231224
 20
55.3524438993
 30
0.0
 10
10.0325488223
 20
55.6420042373
 30
0.0
 10
10.2109681621
 20
55.7613217463
 30
0.0
 10
10.3007303023
 20
55.8131456327
 30
0.0
  0
SPLINE
  5
23E
100
AcDbEntity
  8
0
100
AcDbSpline
 62
7
  6
BYLAYER
 70
0
 71
3
 72
12
 73
8
 74
0
 42
0.0000001
 43
0.0000001
 44
0.0000000001
 40
0.0
 40
0.0
 40
0.0
 40
0.0
 40
0.1185752176
 40
0.2379836853
 40
0.4811895721
 40
0.7341255083
 40
1.0
 40
1.0
 40
1.0
 40
1.0
 10
63.5671498003
 20
63.2143635596
 30
0.0
 10
63.6808865686
 20
63.1486999032
 30
0.0
 10
63.9021707056
 20
63.0043167364
 30
0.0
 10
64.3151090096
 20
62.6660863388
 30
0.0
 10
64.7701908733
 20
62.1510805131
 30
0.0
 10
65.1925501214
 20
61.4145681237
 30
0.0
 10
65.3816272071
 20
60.8680968926
 30
0.0
 10
65.4544680158
 20
60.5827724316
 30
0.0
  0
SPLINE
  5
23F
100
AcDbEntity
  8
0
100
AcDbSpline
 62
7
  6
BYLAYER
 70
0
 71
3
 72
11
 73
7
 74
0
 42
0.0000001
 43
0.0000001
 44
0.0000000001
 40
0.0
 40
0.0
 40
0.0
 40
0.0
 40
0.2897016594
 40
0.5490895814
 40
0.7822189142
 40
1.0
 40
1.0
 40
1.0
 40
1.0
 10
38.6205454496
 20
66.8161444929
 30
0.0
 10
38.6205454496
 20
66.7122751627
 30
0.0
 10
38.6047974421
 20
66.5147366968
 30
0.0
 10
38.5248009182
 20
66.2433271954
 30
0.0
 10
38.3901035266
 20
66.0230939246
 30
0.0
 10
38.2635814419
 20
65.9167357982
 30
0.0
 10
38.1959624272
 20
65.8776893619
 30
0.0
  0
SPLINE
  5
240
100
AcDbEntity
  8
0
100
AcDbSpline
 62
7
  6
BYLAYER
 70
0
 71
3
 72
11
 73
7
 74
0
 42
0.0000001
 43
0.0000001
 44
0.0000000001
 40
0.0
 40
0.0
 40
0.0
 40
0.0
 40
0.2897016594
 40
0.5490895814
 40
0.7822189142
 40
1.0
 40
1.0
 40
1.0
 40
1.0
 10
38.6205454496
 20
22.7250139679
 30
0.0
 10
38.6205454496
 20
22.6211446377
 30
0.0
 10
38.6047974421
 20
22.4236061718
 30
0.0
 10
38.5248009182
 20
22.1521966704
 30
0.0
 10
38.3901035266
 20
21.9319633996
 30
0.0
 10
38.2635814419
 20
21.8256052732
 30
0.0
 10
38.1959624272
 20
21.7865588369
 30
0.0
  0
SPLINE
  5
241
100
AcDbEntity
  8
0
100
AcDbSpline
 62
7
  6
BYLAYER
 70
0
 71
3
 72
12
 73
8
 74
0
 42
0.0000001
 43
0.0000001
 44
0.0000000001
 40
0.0
 40
0.0
 40
0.0
 40
0.0
 40
0.1185752176
 40
0.2379836853
 40
0.4811895721
 40
0.7341255083
 40
1.0
 40
1.0
 40
1.0
 40
1.0
 10
63.5671498003
 20
32.5955229173
 30
0.0
 10
63.6808865686
 20
32.5298592608
 30
0.0
 10
63.9021707056
 20
32.3854760941
 30
0.0
 10
64.3151090096
 20
32.0472456964
 30
0.0
 10
64.7701908733
 20
31.5322398707
 30
0.0
 10
65.1925501214
 20
30.7957274813
 30
0.0
 10
65.3816272071
 20
30.2492562502
 30
0.0
 10
65.4544680158
 20
29.9639317893
 30
0.0
  0
SPLINE
  5
242
100
AcDbEntity
  8
0
100
AcDbSpline
 62
7
  6
BYLAYER
 70
0
 71
3
 72
15
 73
11
 74
0
 42
0.0000001
 43
0.0000001
 44
0.0000000001
 40
0.0
 40
0.0
 40
0.0
 40
0.0
 40
0.1259752547
 40
0.2544926381
 40
0.383943699
 40
0.5129404493
 40
0.6401526272
 40
0.764376947
 40
0.8846297151
 40
1.0
 40
1.0
 40
1.0
 40
1.0
 10
61.3905694032
 20
17.9287873992
 30
0.0
 10
61.6314420987
 20
18.1477883783
 30
0.0
 10
62.1037208465
 20
18.6062294792
 30
0.0
 10
62.7710030578
 20
19.3413775862
 30
0.0
 10
63.3945008387
 20
20.1241335774
 30
0.0
 10
63.9621928645
 20
20.9442438857
 30
0.0
 10
64.4628518663
 20
21.7913856656
 30
0.0
 10
64.8862478908
 20
22.6547742444
 30
0.0
 10
65.2231877095
 20
23.5227598827
 30
0.0
 10
65.3891116213
 20
24.1099016757
 30
0.0
 10
65.4544446828
 20
24.4007970801
 30
0.0
  0
SPLINE
  5
243
100
AcDbEntity
  8
0
100
AcDbSpline
 62
7
  6
BYLAYER
 70
0
 71
3
 72
11
 73
7
 74
0
 42
0.0000001
 43
0.0000001
 44
0.0000000001
 40
0.0
 40
0.0
 40
0.0
 40
0.0
 40
0.2779624821
 40
0.5335010985
 40
0.7716836426
 40
1.0
 40
1.0
 40
1.0
 40
1.0
 10
58.206299158
 20
16.0903407822
 30
0.0
 10
58.0464136617
 20
16.0603277253
 30
0.0
 10
57.7354835662
 20
16.0212020157
 30
0.0
 10
57.2819580947
 20
16.0335433578
 30
0.0
 10
56.8660513641
 20
16.121562497
 30
0.0
 10
56.6139773977
 20
16.2325825434
 30
0.0
 10
56.4982556928
 20
16.2993918389
 30
0.0
  0
SPLINE
  5
244
100
AcDbEntity
  8
0
100
AcDbSpline
 62
7
  6
BYLAYER
 70
0
 71
3
 72
9
 73
5
 74
0
 42
0.0000001
 43
0.0000001
 44
0.0000000001
 40
0.0
 40
0.0
 40
0.0
 40
0.0
 40
0.2553005262
 40
1.0
 40
1.0
 40
1.0
 40
1.0
 10
65.7381062581
 20
27.4727547028
 30
0.0
 10
65.7381062581
 20
27.5887426606
 30
0.0
 10
65.7328663792
 20
28.0430379331
 30
0.0
 10
65.7062648756
 20
28.497156671
 30
0.0
 10
65.6730809211
 20
28.8338567248
 30
0.0
  0
SPLINE
  5
245
100
AcDbEntity
  8
0
100
AcDbSpline
 62
7
  6
BYLAYER
 70
0
 71
3
 72
9
 73
5
 74
0
 42
0.0000001
 43
0.0000001
 44
0.0000000001
 40
0.0
 40
0.0
 40
0.0
 40
0.0
 40
0.2547429433
 40
1.0
 40
1.0
 40
1.0
 40
1.0
 10
65.6730809211
 20
25.6453128554
 30
0.0
 10
65.6838430387
 20
25.7669373257
 30
0.0
 10
65.7211080911
 20
26.2447981914
 30
0.0
 10
65.7381062581
 20
26.7242934179
 30
0.0
 10
65.7381062581
 20
27.0814992208
 30
0.0
  0
SPLINE
  5
246
100
AcDbEntity
  8
0
100
AcDbSpline
 62
7
  6
BYLAYER
 70
0
 71
3
 72
18
 73
14
 74
0
 42
0.0000001
 43
0.0000001
 44
0.0000000001
 40
0.0
 40
0.0
 40
0.0
 40
0.0
 40
0.0428479429
 40
0.0874623066
 40
0.1352840435
 40
0.1872323096
 40
0.2437220832
 40
0.3047263631
 40
0.4383562007
 40
0.5826594577
 40
0.729784539
 40
0.8713400481
 40
1.0
 40
1.0
 40
1.0
 40
1.0
 10
36.1459785989
 20
25.3372561924
 30
0.0
 10
36.196515598
 20
25.3664386601
 30
0.0
 10
36.3079329294
 20
25.4127025455
 30
0.0
 10
36.4918206949
 20
25.4396968856
 30
0.0
 10
36.6892976497
 20
25.425132038
 30
0.0
 10
36.8959670938
 20
25.3702371955
 30
0.0
 10
37.1077943006
 20
25.276643592
 30
0.0
 10
37.4001916377
 20
25.0976555887
 30
0.0
 10
37.7485363658
 20
24.7891625512
 30
0.0
 10
38.1065350734
 20
24.3308548435
 30
0.0
 10
38.3885519917
 20
23.8096590059
 30
0.0
 10
38.5715239116
 20
23.2686944626
 30
0.0
 10
38.6205454496
 20
22.9002448009
 30
0.0
 10
38.6205454496
 20
22.7250139679
 30
0.0
  0
SPLINE
  5
247
100
AcDbEntity
  8
0
100
AcDbSpline
 62
7
  6
BYLAYER
 70
0
 71
3
 72
15
 73
11
 74
0
 42
0.0000001
 43
0.0000001
 44
0.0000000001
 40
0.0
 40
0.0
 40
0.0
 40
0.0
 40
0.1259752547
 40
0.2544926381
 40
0.383943699
 40
0.5129404493
 40
0.6401526272
 40
0.764376947
 40
0.8846297151
 40
1.0
 40
1.0
 40
1.0
 40
1.0
 10
61.3905694032
 20
48.5476280416
 30
0.0
 10
61.6314420987
 20
48.7666290207
 30
0.0
 10
62.1037208465
 20
49.2250701216
 30
0.0
 10
62.7710030578
 20
49.9602182285
 30
0.0
 10
63.3945008387
 20
50.7429742197
 30
0.0
 10
63.9621928645
 20
51.5630845281
 30
0.0
 10
64.4628518663
 20
52.4102263079
 30
0.0
 10
64.8862478908
 20
53.2736148868
 30
0.0
 10
65.2231877095
 20
54.1416005251
 30
0.0
 10
65.3891116213
 20
54.728742318
 30
0.0
 10
65.4544446828
 20
55.0196377224
 30
0.0
  0
SPLINE
  5
248
100
AcDbEntity
  8
0
100
AcDbSpline
 62
7
  6
BYLAYER
 70
0
 71
3
 72
11
 73
7
 74
0
 42
0.0000001
 43
0.0000001
 44
0.0000000001
 40
0.0
 40
0.0
 40
0.0
 40
0.0
 40
0.2779624821
 40
0.5335010985
 40
0.7716836426
 40
1.0
 40
1.0
 40
1.0
 40
1.0
 10
58.206299158
 20
46.7091814245
 30
0.0
 10
58.0464136617
 20
46.6791683676
 30
0.0
 10
57.7354835662
 20
46.6400426581
 30
0.0
 10
57.2819580947
 20
46.6523840002
 30
0.0
 10
56.8660513641
 20
46.7404031393
 30
0.0
 10
56.6139773977
 20
46.8514231858
 30
0.0
 10
56.4982556928
 20
46.9182324813
 30
0.0
  0
SPLINE
  5
249
100
AcDbEntity
  8
0
100
AcDbSpline
 62
7
  6
BYLAYER
 70
0
 71
3
 72
9
 73
5
 74
0
 42
0.0000001
 43
0.0000001
 44
0.0000000001
 40
0.0
 40
0.0
 40
0.0
 40
0.0
 40
0.2553005262
 40
1.0
 40
1.0
 40
1.0
 40
1.0
 10
65.7381062581
 20
58.0915953452
 30
0.0
 10
65.7381062581
 20
58.207583303
 30
0.0
 10
65.7328663792
 20
58.6618785754
 30
0.0
 10
65.7062648756
 20
59.1159973133
 30
0.0
 10
65.6730809211
 20
59.4526973671
 30
0.0
  0
SPLINE
  5
24A
100
AcDbEntity
  8
0
100
AcDbSpline
 62
7
  6
BYLAYER
 70
0
 71
3
 72
9
 73
5
 74
0
 42
0.0000001
 43
0.0000001
 44
0.0000000001
 40
0.0
 40
0.0
 40
0.0
 40
0.0
 40
0.2547429433
 40
1.0
 40
1.0
 40
1.0
 40
1.0
 10
65.6730809211
 20
56.2641534978
 30
0.0
 10
65.6838430387
 20
56.385777968
 30
0.0
 10
65.7211080911
 20
56.8636388338
 30
0.0
 10
65.7381062581
 20
57.3431340603
 30
0.0
 10
65.7381062581
 20
57.7003398632
 30
0.0
  0
SPLINE
  5
24B
100
AcDbEntity
  8
0
100
AcDbSpline
 62
7
  6
BYLAYER
 70
0
 71
3
 72
18
 73
14
 74
0
 42
0.0000001
 43
0.0000001
 44
0.0000000001
 40
0.0
 40
0.0
 40
0.0
 40
0.0
 40
0.0428479429
 40
0.0874623066
 40
0.1352840435
 40
0.1872323096
 40
0.2437220832
 40
0.3047263631
 40
0.4383562007
 40
0.5826594577
 40
0.729784539
 40
0.8713400481
 40
1.0
 40
1.0
 40
1.0
 40
1.0
 10
36.1459785989
 20
69.4283867174
 30
0.0
 10
36.196515598
 20
69.4575691851
 30
0.0
 10
36.3079329294
 20
69.5038330705
 30
0.0
 10
36.4918206949
 20
69.5308274106
 30
0.0
 10
36.6892976497
 20
69.516262563
 30
0.0
 10
36.8959670938
 20
69.4613677205
 30
0.0
 10
37.1077943006
 20
69.367774117
 30
0.0
 10
37.4001916377
 20
69.1887861137
 30
0.0
 10
37.7485363658
 20
68.8802930762
 30
0.0
 10
38.1065350734
 20
68.4219853685
 30
0.0
 10
38.3885519917
 20
67.9007895309
 30
0.0
 10
38.5715239116
 20
67.3598249876
 30
0.0
 10
38.6205454496
 20
66.9913753259
 30
0.0
 10
38.6205454496
 20
66.8161444929
 30
0.0
  0
SPLINE
  5
24C
100
AcDbEntity
  8
0
100
AcDbSpline
 62
7
  6
BYLAYER
 70
0
 71
3
 72
9
 73
5
 74
0
 42
0.0000001
 43
0.0000001
 44
0.0000000001
 40
0.0
 40
0.0
 40
0.0
 40
0.0
 40
0.2730861164
 40
1.0
 40
1.0
 40
1.0
 40
1.0
 10
10.3007303023
 20
55.8131456327
 30
0.0
 10
10.361037763
 20
55.8479639536
 30
0.0
 10
10.5869747987
 20
55.9654020492
 30
0.0
 10
10.8387048086
 20
56.0409633582
 30
0.0
 10
11.023737139
 20
56.0520307564
 30
0.0
  0
SPLINE
  5
24D
100
AcDbEntity
  8
0
100
AcDbSpline
 62
7
  6
BYLAYER
 70
0
 71
3
 72
9
 73
5
 74
0
 42
0.0000001
 43
0.0000001
 44
0.0000000001
 40
0.0
 40
0.0
 40
0.0
 40
0.0
 40
0.2424811234
 40
1.0
 40
1.0
 40
1.0
 40
1.0
 10
55.2956077394
 20
49.1545379917
 30
0.0
 10
55.2846258126
 20
49.2399795959
 30
0.0
 10
55.2425618177
 20
49.5927552083
 30
0.0
 10
55.2130050975
 20
49.9469845482
 30
0.0
 10
55.1965715808
 20
50.2156004541
 30
0.0
  0
SPLINE
  5
24E
100
AcDbEntity
  8
0
100
AcDbSpline
 62
7
  6
BYLAYER
 70
0
 71
3
 72
14
 73
10
 74
0
 42
0.0000001
 43
0.0000001
 44
0.0000000001
 40
0.0
 40
0.0
 40
0.0
 40
0.0
 40
0.2457757143
 40
0.3728150732
 40
0.501084603
 40
0.6293153038
 40
0.7561391914
 40
0.8801955103
 40
1.0
 40
1.0
 40
1.0
 40
1.0
 10
58.2062880495
 20
61.8554782168
 30
0.0
 10
57.7897916985
 20
61.3690007074
 30
0.0
 10
57.2305786385
 20
60.5664695642
 30
0.0
 10
56.6166345144
 20
59.4134877492
 30
0.0
 10
56.2139155399
 20
58.497709644
 30
0.0
 10
55.8774674898
 20
57.5564473207
 30
0.0
 10
55.6094860192
 20
56.6048211484
 30
0.0
 10
55.4118560339
 20
55.6586337534
 30
0.0
 10
55.3258794582
 20
55.0283779951
 30
0.0
 10
55.295627513
 20
54.7176747559
 30
0.0
  0
SPLINE
  5
24F
100
AcDbEntity
  8
0
100
AcDbSpline
 62
7
  6
BYLAYER
 70
0
 71
3
 72
11
 73
7
 74
0
 42
0.0000001
 43
0.0000001
 44
0.0000000001
 40
0.0
 40
0.0
 40
0.0
 40
0.0
 40
0.2572008559
 40
0.5081929231
 40
0.7549610399
 40
1.0
 40
1.0
 40
1.0
 40
1.0
 10
61.3905582947
 20
63.6939248339
 30
0.0
 10
61.5838369237
 20
63.7082784058
 30
0.0
 10
61.968310943
 20
63.7102046355
 30
0.0
 10
62.5335588443
 20
63.6297594875
 30
0.0
 10
63.071473747
 20
63.467566058
 30
0.0
 10
63.4072399218
 20
63.3066843411
 30
0.0
 10
63.5671498003
 20
63.2143635596
 30
0.0
  0
SPLINE
  5
250
100
AcDbEntity
  8
0
100
AcDbSpline
 62
7
  6
BYLAYER
 70
0
 71
3
 72
18
 73
14
 74
0
 42
0.0000001
 43
0.0000001
 44
0.0000000001
 40
0.0
 40
0.0
 40
0.0
 40
0.0
 40
0.0428479429
 40
0.0874623066
 40
0.1352840435
 40
0.1872323096
 40
0.2437220832
 40
0.3047263631
 40
0.4383562007
 40
0.5826594577
 40
0.729784539
 40
0.8713400481
 40
1.0
 40
1.0
 40
1.0
 40
1.0
 10
38.1959624272
 20
21.7865588369
 30
0.0
 10
38.1454254281
 20
21.7573763692
 30
0.0
 10
38.0340080967
 20
21.7111124838
 30
0.0
 10
37.8501203311
 20
21.6841181437
 30
0.0
 10
37.6526433764
 20
21.6986829913
 30
0.0
 10
37.4459739323
 20
21.7535778338
 30
0.0
 10
37.2341467255
 20
21.8471714373
 30
0.0
 10
36.9417493884
 20
22.0261594406
 30
0.0
 10
36.5934046603
 20
22.3346524781
 30
0.0
 10
36.2354059527
 20
22.7929601858
 30
0.0
 10
35.9533890344
 20
23.3141560234
 30
0.0
 10
35.7704171145
 20
23.8551205667
 30
0.0
 10
35.7213955765
 20
24.2235702284
 30
0.0
 10
35.7213955765
 20
24.3988010614
 30
0.0
  0
SPLINE
  5
251
100
AcDbEntity
  8
0
100
AcDbSpline
 62
7
  6
BYLAYER
 70
0
 71
3
 72
14
 73
10
 74
0
 42
0.0000001
 43
0.0000001
 44
0.0000000001
 40
0.0
 40
0.0
 40
0.0
 40
0.0
 40
0.1074972221
 40
0.2167868519
 40
0.3298593303
 40
0.4484373884
 40
0.5739113668
 40
0.7073373742
 40
1.0
 40
1.0
 40
1.0
 40
1.0
 10
56.4982556928
 20
46.9182324813
 30
0.0
 10
56.4166567493
 20
46.9653417763
 30
0.0
 10
56.2590906495
 20
47.0730826472
 30
0.0
 10
56.0469551049
 20
47.27098242
 30
0.0
 10
55.8589129121
 20
47.504444481
 30
0.0
 10
55.6954335851
 20
47.7722976809
 30
0.0
 10
55.5566384781
 20
48.0733808891
 30
0.0
 10
55.4000069703
 20
48.5314131432
 30
0.0
 10
55.3283145906
 20
48.9001089877
 30
0.0
 10
55.2956128611
 20
49.1545350348
 30
0.0
  0
SPLINE
  5
252
100
AcDbEntity
  8
0
100
AcDbSpline
 62
7
  6
BYLAYER
 70
0
 71
3
 72
18
 73
14
 74
0
 42
0.0000001
 43
0.0000001
 44
0.0000000001
 40
0.0
 40
0.0
 40
0.0
 40
0.0
 40
0.0428479429
 40
0.0874623066
 40
0.1352840435
 40
0.1872323096
 40
0.2437220832
 40
0.3047263631
 40
0.4383562007
 40
0.5826594577
 40
0.729784539
 40
0.8713400481
 40
1.0
 40
1.0
 40
1.0
 40
1.0
 10
38.1959624272
 20
65.8776893619
 30
0.0
 10
38.1454254281
 20
65.8485068942
 30
0.0
 10
38.0340080967
 20
65.8022430088
 30
0.0
 10
37.8501203311
 20
65.7752486687
 30
0.0
 10
37.6526433764
 20
65.7898135163
 30
0.0
 10
37.4459739323
 20
65.8447083588
 30
0.0
 10
37.2341467255
 20
65.9383019623
 30
0.0
 10
36.9417493884
 20
66.1172899656
 30
0.0
 10
36.5934046603
 20
66.4257830031
 30
0.0
 10
36.2354059527
 20
66.8840907108
 30
0.0
 10
35.9533890344
 20
67.4052865484
 30
0.0
 10
35.7704171145
 20
67.9462510917
 30
0.0
 10
35.7213955765
 20
68.3147007534
 30
0.0
 10
35.7213955765
 20
68.4899315864
 30
0.0
  0
SPLINE
  5
253
100
AcDbEntity
  8
0
100
AcDbSpline
 62
7
  6
BYLAYER
 70
0
 71
3
 72
9
 73
5
 74
0
 42
0.0000001
 43
0.0000001
 44
0.0000000001
 40
0.0
 40
0.0
 40
0.0
 40
0.0
 40
0.2416554123
 40
1.0
 40
1.0
 40
1.0
 40
1.0
 10
54.4951499473
 20
21.7165090738
 30
0.0
 10
54.4951499473
 20
21.9360904165
 30
0.0
 10
54.5149995656
 20
22.8447025846
 30
0.0
 10
54.6109026386
 20
23.7511068167
 30
0.0
 10
54.719001149
 20
24.4316484375
 30
0.0
  0
SPLINE
  5
254
100
AcDbEntity
  8
0
100
AcDbSpline
 62
7
  6
BYLAYER
 70
0
 71
3
 72
13
 73
9
 74
0
 42
0.0000001
 43
0.0000001
 44
0.0000000001
 40
0.0
 40
0.0
 40
0.0
 40
0.0
 40
0.1140302782
 40
0.2292712894
 40
0.3468632361
 40
0.4678309022
 40
0.7229857352
 40
1.0
 40
1.0
 40
1.0
 40
1.0
 10
56.2639874981
 20
47.0534983265
 30
0.0
 10
56.1661831325
 20
47.1099643626
 30
0.0
 10
55.9765438433
 20
47.2361587607
 30
0.0
 10
55.7161869844
 20
47.4615577655
 30
0.0
 10
55.4805687698
 20
47.722063647
 30
0.0
 10
55.1962368345
 20
48.1210409347
 30
0.0
 10
54.9110718832
 20
48.7070137861
 30
0.0
 10
54.7713859348
 20
49.2181307816
 30
0.0
 10
54.719001149
 20
49.4874344308
 30
0.0
  0
SPLINE
  5
255
100
AcDbEntity
  8
0
100
AcDbSpline
 62
7
  6
BYLAYER
 70
0
 71
3
 72
9
 73
5
 74
0
 42
0.0000001
 43
0.0000001
 44
0.0000000001
 40
0.0
 40
0.0
 40
0.0
 40
0.0
 40
0.2553005262
 40
1.0
 40
1.0
 40
1.0
 40
1.0
 10
55.1315486999
 20
51.5766775551
 30
0.0
 10
55.1315486999
 20
51.4606895973
 30
0.0
 10
55.1367885788
 20
51.0063943249
 30
0.0
 10
55.1633900824
 20
50.552275587
 30
0.0
 10
55.1965740369
 20
50.2155755332
 30
0.0
  0
SPLINE
  5
256
100
AcDbEntity
  8
0
100
AcDbSpline
 62
7
  6
BYLAYER
 70
0
 71
3
 72
9
 73
5
 74
0
 42
0.0000001
 43
0.0000001
 44
0.0000000001
 40
0.0
 40
0.0
 40
0.0
 40
0.0
 40
0.2547429433
 40
1.0
 40
1.0
 40
1.0
 40
1.0
 10
55.1965740369
 20
53.4041194025
 30
0.0
 10
55.1858119193
 20
53.2824949323
 30
0.0
 10
55.1485468669
 20
52.8046340665
 30
0.0
 10
55.1315486999
 20
52.32513884
 30
0.0
 10
55.1315486999
 20
51.9679330371
 30
0.0
  0
SPLINE
  5
257
100
AcDbEntity
  8
0
100
AcDbSpline
 62
7
  6
BYLAYER
 70
0
 71
3
 72
14
 73
10
 74
0
 42
0.0000001
 43
0.0000001
 44
0.0000000001
 40
0.0
 40
0.0
 40
0.0
 40
0.0
 40
0.2457757143
 40
0.3728150732
 40
0.501084603
 40
0.6293153038
 40
0.7561391914
 40
0.8801955103
 40
1.0
 40
1.0
 40
1.0
 40
1.0
 10
58.2062880495
 20
31.2366375745
 30
0.0
 10
57.7897916985
 20
30.7501600651
 30
0.0
 10
57.2305786385
 20
29.9476289218
 30
0.0
 10
56.6166345144
 20
28.7946471068
 30
0.0
 10
56.2139155399
 20
27.8788690016
 30
0.0
 10
55.8774674898
 20
26.9376066784
 30
0.0
 10
55.6094860192
 20
25.9859805061
 30
0.0
 10
55.4118560339
 20
25.039793111
 30
0.0
 10
55.3258794582
 20
24.4095373527
 30
0.0
 10
55.295627513
 20
24.0988341135
 30
0.0
  0
SPLINE
  5
258
100
AcDbEntity
  8
0
100
AcDbSpline
 62
7
  6
BYLAYER
 70
0
 71
3
 72
11
 73
7
 74
0
 42
0.0000001
 43
0.0000001
 44
0.0000000001
 40
0.0
 40
0.0
 40
0.0
 40
0.0
 40
0.2656737053
 40
0.5184513587
 40
0.7617053607
 40
1.0
 40
1.0
 40
1.0
 40
1.0
 10
61.3905988971
 20
63.6939299678
 30
0.0
 10
61.5668512603
 20
63.7162165306
 30
0.0
 10
61.9142826468
 20
63.7370924201
 30
0.0
 10
62.4236184171
 20
63.6906845959
 30
0.0
 10
62.9008112701
 20
63.5653978626
 30
0.0
 10
63.1948701976
 20
63.4292802371
 30
0.0
 10
63.3328699546
 20
63.3496079319
 30
0.0
  0
SPLINE
  5
259
100
AcDbEntity
  8
0
100
AcDbSpline
 62
7
  6
BYLAYER
 70
0
 71
3
 72
11
 73
7
 74
0
 42
0.0000001
 43
0.0000001
 44
0.0000000001
 40
0.0
 40
0.0
 40
0.0
 40
0.0
 40
0.2572008559
 40
0.5081929231
 40
0.7549610399
 40
1.0
 40
1.0
 40
1.0
 40
1.0
 10
61.3905582947
 20
33.0750841916
 30
0.0
 10
61.5838369237
 20
33.0894377635
 30
0.0
 10
61.968310943
 20
33.0913639932
 30
0.0
 10
62.5335588443
 20
33.0109188451
 30
0.0
 10
63.071473747
 20
32.8487254156
 30
0.0
 10
63.4072399218
 20
32.6878436987
 30
0.0
 10
63.5671498003
 20
32.5955229173
 30
0.0
  0
SPLINE
  5
25A
100
AcDbEntity
  8
0
100
AcDbSpline
 62
7
  6
BYLAYER
 70
0
 71
3
 72
14
 73
10
 74
0
 42
0.0000001
 43
0.0000001
 44
0.0000000001
 40
0.0
 40
0.0
 40
0.0
 40
0.0
 40
0.1074972221
 40
0.2167868519
 40
0.3298593303
 40
0.4484373884
 40
0.5739113668
 40
0.7073373742
 40
1.0
 40
1.0
 40
1.0
 40
1.0
 10
56.4982556928
 20
16.2993918389
 30
0.0
 10
56.4166567493
 20
16.3465011339
 30
0.0
 10
56.2590906495
 20
16.4542420048
 30
0.0
 10
56.0469551049
 20
16.6521417777
 30
0.0
 10
55.8589129121
 20
16.8856038387
 30
0.0
 10
55.6954335851
 20
17.1534570386
 30
0.0
 10
55.5566384781
 20
17.4545402467
 30
0.0
 10
55.4000069703
 20
17.9125725008
 30
0.0
 10
55.3283145906
 20
18.2812683454
 30
0.0
 10
55.2956128611
 20
18.5356943924
 30
0.0
  0
SPLINE
  5
25B
100
AcDbEntity
  8
0
100
AcDbSpline
 62
7
  6
BYLAYER
 70
0
 71
3
 72
12
 73
8
 74
0
 42
0.0000001
 43
0.0000001
 44
0.0000000001
 40
0.0
 40
0.0
 40
0.0
 40
0.0
 40
0.1175512339
 40
0.239720156
 40
0.4929891919
 40
0.7499328852
 40
1.0
 40
1.0
 40
1.0
 40
1.0
 10
54.719001149
 20
55.0504890798
 30
0.0
 10
54.7666629892
 20
55.3505474789
 30
0.0
 10
54.8921715427
 20
55.9582489632
 30
0.0
 10
55.2523232925
 20
57.1815834873
 30
0.0
 10
55.8959147214
 20
58.6913126409
 30
0.0
 10
56.9181263665
 20
60.3763986207
 30
0.0
 10
57.7556514007
 20
61.3921258399
 30
0.0
 10
58.2062585556
 20
61.8554611886
 30
0.0
  0
SPLINE
  5
25C
100
AcDbEntity
  8
0
100
AcDbSpline
 62
7
  6
BYLAYER
 70
0
 71
3
 72
13
 73
9
 74
0
 42
0.0000001
 43
0.0000001
 44
0.0000000001
 40
0.0
 40
0.0
 40
0.0
 40
0.0
 40
0.1140302782
 40
0.2292712894
 40
0.3468632361
 40
0.4678309022
 40
0.7229857352
 40
1.0
 40
1.0
 40
1.0
 40
1.0
 10
56.2639874981
 20
16.4346576842
 30
0.0
 10
56.1661831325
 20
16.4911237203
 30
0.0
 10
55.9765438433
 20
16.6173181184
 30
0.0
 10
55.7161869844
 20
16.8427171232
 30
0.0
 10
55.4805687698
 20
17.1032230046
 30
0.0
 10
55.1962368345
 20
17.5022002924
 30
0.0
 10
54.9110718832
 20
18.0881731438
 30
0.0
 10
54.7713859348
 20
18.5992901393
 30
0.0
 10
54.719001149
 20
18.8685937884
 30
0.0
  0
SPLINE
  5
25D
100
AcDbEntity
  8
0
100
AcDbSpline
 62
7
  6
BYLAYER
 70
0
 71
3
 72
9
 73
5
 74
0
 42
0.0000001
 43
0.0000001
 44
0.0000000001
 40
0.0
 40
0.0
 40
0.0
 40
0.0
 40
0.2416554123
 40
1.0
 40
1.0
 40
1.0
 40
1.0
 10
54.4951499473
 20
52.3353497162
 30
0.0
 10
54.4951499473
 20
52.5549310588
 30
0.0
 10
54.5149995656
 20
53.4635432269
 30
0.0
 10
54.6109026386
 20
54.369947459
 30
0.0
 10
54.719001149
 20
55.0504890798
 30
0.0
  0
SPLINE
  5
25E
100
AcDbEntity
  8
0
100
AcDbSpline
 62
7
  6
BYLAYER
 70
0
 71
3
 72
9
 73
5
 74
0
 42
0.0000001
 43
0.0000001
 44
0.0000000001
 40
0.0
 40
0.0
 40
0.0
 40
0.0
 40
0.2399786176
 40
1.0
 40
1.0
 40
1.0
 40
1.0
 10
54.719001149
 20
49.4874344308
 30
0.0
 10
54.6812896187
 20
49.6813047041
 30
0.0
 10
54.5460883236
 20
50.4933941092
 30
0.0
 10
54.4951499473
 20
51.3185914774
 30
0.0
 10
54.4951499473
 20
51.9440942342
 30
0.0
  0
SPLINE
  5
25F
100
AcDbEntity
  8
0
100
AcDbSpline
 62
7
  6
BYLAYER
 70
0
 71
3
 72
9
 73
5
 74
0
 42
0.0000001
 43
0.0000001
 44
0.0000000001
 40
0.0
 40
0.0
 40
0.0
 40
0.0
 40
0.2399786176
 40
1.0
 40
1.0
 40
1.0
 40
1.0
 10
54.719001149
 20
18.8685937884
 30
0.0
 10
54.6812896187
 20
19.0624640617
 30
0.0
 10
54.5460883236
 20
19.8745534668
 30
0.0
 10
54.4951499473
 20
20.699750835
 30
0.0
 10
54.4951499473
 20
21.3252535918
 30
0.0
  0
SPLINE
  5
260
100
AcDbEntity
  8
0
100
AcDbSpline
 62
7
  6
BYLAYER
 70
0
 71
3
 72
9
 73
5
 74
0
 42
0.0000001
 43
0.0000001
 44
0.0000000001
 40
0.0
 40
0.0
 40
0.0
 40
0.0
 40
0.2424811234
 40
1.0
 40
1.0
 40
1.0
 40
1.0
 10
55.2956077394
 20
18.5356973494
 30
0.0
 10
55.2846258126
 20
18.6211389535
 30
0.0
 10
55.2425618177
 20
18.973914566
 30
0.0
 10
55.2130050975
 20
19.3281439058
 30
0.0
 10
55.1965715808
 20
19.5967598118
 30
0.0
  0
SPLINE
  5
261
100
AcDbEntity
  8
0
100
AcDbSpline
 62
7
  6
BYLAYER
 70
0
 71
3
 72
9
 73
5
 74
0
 42
0.0000001
 43
0.0000001
 44
0.0000000001
 40
0.0
 40
0.0
 40
0.0
 40
0.0
 40
0.2553005262
 40
1.0
 40
1.0
 40
1.0
 40
1.0
 10
55.1315486999
 20
20.9578369128
 30
0.0
 10
55.1315486999
 20
20.8418489549
 30
0.0
 10
55.1367885788
 20
20.3875536825
 30
0.0
 10
55.1633900824
 20
19.9334349446
 30
0.0
 10
55.1965740369
 20
19.5967348908
 30
0.0
  0
SPLINE
  5
262
100
AcDbEntity
  8
0
100
AcDbSpline
 62
7
  6
BYLAYER
 70
0
 71
3
 72
9
 73
5
 74
0
 42
0.0000001
 43
0.0000001
 44
0.0000000001
 40
0.0
 40
0.0
 40
0.0
 40
0.0
 40
0.2547429433
 40
1.0
 40
1.0
 40
1.0
 40
1.0
 10
55.1965740369
 20
22.7852787602
 30
0.0
 10
55.1858119193
 20
22.6636542899
 30
0.0
 10
55.1485468669
 20
22.1857934241
 30
0.0
 10
55.1315486999
 20
21.7062981977
 30
0.0
 10
55.1315486999
 20
21.3490923948
 30
0.0
  0
SPLINE
  5
263
100
AcDbEntity
  8
0
100
AcDbSpline
 62
7
  6
BYLAYER
 70
0
 71
3
 72
11
 73
7
 74
0
 42
0.0000001
 43
0.0000001
 44
0.0000000001
 40
0.0
 40
0.0
 40
0.0
 40
0.0
 40
0.2897016594
 40
0.5490895814
 40
0.7822189142
 40
1.0
 40
1.0
 40
1.0
 40
1.0
 10
35.7213955765
 20
68.4899315864
 30
0.0
 10
35.7213955765
 20
68.5938009166
 30
0.0
 10
35.737143584
 20
68.7913393826
 30
0.0
 10
35.8171401079
 20
69.0627488839
 30
0.0
 10
35.9518374995
 20
69.2829821547
 30
0.0
 10
36.0783595842
 20
69.3893402811
 30
0.0
 10
36.1459785989
 20
69.4283867174
 30
0.0
  0
SPLINE
  5
264
100
AcDbEntity
  8
0
100
AcDbSpline
 62
7
  6
BYLAYER
 70
0
 71
3
 72
11
 73
7
 74
0
 42
0.0000001
 43
0.0000001
 44
0.0000000001
 40
0.0
 40
0.0
 40
0.0
 40
0.0
 40
0.2656737053
 40
0.5184513587
 40
0.7617053607
 40
1.0
 40
1.0
 40
1.0
 40
1.0
 10
61.3905988971
 20
33.0750893254
 30
0.0
 10
61.5668512603
 20
33.0973758882
 30
0.0
 10
61.9142826468
 20
33.1182517777
 30
0.0
 10
62.4236184171
 20
33.0718439535
 30
0.0
 10
62.9008112701
 20
32.9465572202
 30
0.0
 10
63.1948701976
 20
32.8104395947
 30
0.0
 10
63.3328699546
 20
32.7307672895
 30
0.0
  0
SPLINE
  5
265
100
AcDbEntity
  8
0
100
AcDbSpline
 62
7
  6
BYLAYER
 70
0
 71
3
 72
11
 73
7
 74
0
 42
0.0000001
 43
0.0000001
 44
0.0000000001
 40
0.0
 40
0.0
 40
0.0
 40
0.0
 40
0.2897016594
 40
0.5490895814
 40
0.7822189142
 40
1.0
 40
1.0
 40
1.0
 40
1.0
 10
35.7213955765
 20
24.3988010614
 30
0.0
 10
35.7213955765
 20
24.5026703916
 30
0.0
 10
35.737143584
 20
24.7002088576
 30
0.0
 10
35.8171401079
 20
24.9716183589
 30
0.0
 10
35.9518374995
 20
25.1918516297
 30
0.0
 10
36.0783595842
 20
25.2982097561
 30
0.0
 10
36.1459785989
 20
25.3372561924
 30
0.0
  0
SPLINE
  5
266
100
AcDbEntity
  8
0
100
AcDbSpline
 62
7
  6
BYLAYER
 70
0
 71
3
 72
12
 73
8
 74
0
 42
0.0000001
 43
0.0000001
 44
0.0000000001
 40
0.0
 40
0.0
 40
0.0
 40
0.0
 40
0.1175512339
 40
0.239720156
 40
0.4929891919
 40
0.7499328852
 40
1.0
 40
1.0
 40
1.0
 40
1.0
 10
54.719001149
 20
24.4316484375
 30
0.0
 10
54.7666629892
 20
24.7317068366
 30
0.0
 10
54.8921715427
 20
25.3394083209
 30
0.0
 10
55.2523232925
 20
26.5627428449
 30
0.0
 10
55.8959147214
 20
28.0724719985
 30
0.0
 10
56.9181263665
 20
29.7575579784
 30
0.0
 10
57.7556514007
 20
30.7732851975
 30
0.0
 10
58.2062585556
 20
31.2366205463
 30
0.0
  0
ENDSEC
  0
SECTION
  2
OBJECTS
  0
DICTIONARY
  5
C
100
AcDbDictionary
280
0
281
1
  3
ACAD_GROUP
350
D
  3
ACAD_MLINESTYLE
350
17
  3
ACAD_LAYOUT
350
1A
  3
ACAD_PLOTSETTINGS
350
19
  3
ACAD_PLOTSTYLENAME
350
E
  0
DICTIONARY
  5
D
102
{ACAD_REACTORS
330
C
102
}
100
AcDbDictionary
280
0
281
1
  0
ACDBDICTIONARYWDFLT
  5
E
102
{ACAD_REACTORS
330
C
102
}
100
AcDbDictionary
281
1
  3
Normal
350
F
100
AcDbDictionaryWithDefault
340
F
  0
DICTIONARY
  5
17
102
{ACAD_REACTORS
330
C
102
}
100
AcDbDictionary
280
0
281
1
  3
Standard
350
18
  0
DICTIONARY
  5
19
102
{ACAD_REACTORS
330
C
102
}
100
AcDbDictionary
281
1
  0
DICTIONARY
  5
1A
102
{ACAD_REACTORS
330
C
102
}
100
AcDbDictionary
281
1
  3
Model
350
267
  3
Layout1
350
268
  0
ACDBPLACEHOLDER
  5
F
102
{ACAD_REACTORS
330
E
102
}
  0
MLINESTYLE
  5
18
102
{ACAD_REACTORS
330
17
102
}
100
AcDbMlineStyle
  2
STANDARD
 70
0
  3

 62
256
 51
90.0
 52
90.0
 71
2
 49
0.5
 62
256
  6
BYLAYER
 49
-0.5
 62
256
  6
BYLAYER
  0
LAYOUT
  5
267
102
{ACAD_REACTORS
330
1A
102
}
100
AcDbPlotSettings
  1

  2
none_device
  4

  6

 40
0.0
 41
0.0
 42
0.0
 43
0.0
 44
210.0
 45
297.0
 46
0.0
 47
0.0
 48
0.0
 49
0.0
140
0.0
141
0.0
142
1.0
143
1.0
 70
1024
 72
1
 73
0
 74
0
  7

 75
0
147
1.0
148
0.0
149
0.0
100
AcDbLayout
  1
Model
 70
0
 71
0
 10
0.0
 20
0.0
 11
210.0
 21
297.0
 12
0.0
 22
0.0
 32
0.0
 14
0.0
 24
0.0
 34
0.0
 15
0.0
 25
0.0
 35
0.0
146
0.0
 13
0.0
 23
0.0
 33
0.0
 16
1.0
 26
0.0
 36
0.0
 17
0.0
 27
1.0
 37
0.0
 76
0
330
210
345
0
346
0
  0
LAYOUT
  5
268
102
{ACAD_REACTORS
330
1A
102
}
100
AcDbPlotSettings
  1

  2
none_device
  4

  6

 40
0.0
 41
0.0
 42
0.0
 43
0.0
 44
210.0
 45
297.0
 46
0.0
 47
0.0
 48
0.0
 49
0.0
140
0.0
141
0.0
142
1.0
143
1.0
 70
0
 72
1
 73
0
 74
0
  7

 75
0
147
1.0
148
0.0
149
0.0
100
AcDbLayout
  1
Layout1
 70
0
 71
1
 10
0.0
 20
0.0
 11
210.0
 21
297.0
 12
0.0
 22
0.0
 32
0.0
 14
0.0
 24
0.0
 34
0.0
 15
0.0
 25
0.0
 35
0.0
146
0.0
 13
0.0
 23
0.0
 33
0.0
 16
1.0
 26
0.0
 36
0.0
 17
0.0
 27
1.0
 37
0.0
 76
0
330
211
345
0
346
0
  0
ENDSEC
  0
EOF
