999
DXF file: C:\Users\sesa63760\Dev\_Creo\CAD\MCADID0004426_3D-CAD\drw0001_1.dxf
999
Pro/ENGINEER 2019471 by Parametric Technology Corporation
  0
SECTION
  2
HEADER
  9
$ACADVER
  1
AC1024
  9
$DWGCODEPAGE
  3
ANSI_1252
  9
$EXTMAX
 10
130.702340208
 20
184.8504525799
 30
0.0
  9
$EXTMIN
 10
0.0
 20
0.0
 30
0.0
  9
$LIMMIN
 10
0.0
 20
0.0
  9
$LIMMAX
 10
130.702340208
 20
184.8504525799
  9
$VIEWCTR
 10
65.351170104
 20
92.4252262899
  9
$VIEWSIZE
 40
184.8504525799
  9
$CLAYER
  8
0
  9
$LTSCALE
 40
12.049510983
  9
$CELTYPE
  6
BYLAYER
  9
$DIMSCALE
 40
1.0
  9
$DIMASZ
 40
1.5559802406
  9
$DIMEXO
 40
1.0
  9
$DIMDLI
 40
8.3251166792
  9
$DIMEXE
 40
1.0
  9
$DIMCEN
 40
1.9717381609
  9
$DIMLFAC
 40
1.0
  9
$DIMBLK
  1
_FILLED
  9
$DIMALT
 70
0
  9
$DIMALTF
 40
0.0393700787
  9
$DIMTXT
 40
2.1783723368
  9
$DIMTOL
 70
1
  9
$DIMLIM
 70
0
  9
$DIMTFAC
 40
1.0
  9
$DIMTP
 40
0.01
  9
$DIMTM
 40
0.01
  9
$DIMGAP
 40
0.625
  9
$DIMDSEP
 70
46
  9
$AUNITS
 70
0
  9
$PDMODE
 70
3
  9
$PDSIZE
 40
0.3125
  9
$HANDSEED
  5
267
  9
$TILEMODE
 70
1
  9
$MEASUREMENT
 70
1
  9
$INSUNITS
 70
4
  0
ENDSEC
  0
SECTION
  2
CLASSES
  0
CLASS
  1
ACDBDICTIONARYWDFLT
  2
AcDbDictionaryWithDefault
  3
AutoCAD 2000
 90
0
 91
1
280
0
281
0
  0
CLASS
  1
ACDBPLACEHOLDER
  2
AcDbPlaceHolder
  3
AutoCAD 2000
 90
0
 91
1
280
0
281
0
  0
CLASS
  1
LAYOUT
  2
AcDbLayout
  3
AutoCAD 2000
 90
0
 91
0
280
0
281
0
  0
ENDSEC
  0
SECTION
  2
TABLES
  0
TABLE
  2
VPORT
  5
8
100
AcDbSymbolTable
 70
2
  0
VPORT
  5
1F4
100
AcDbSymbolTableRecord
100
AcDbViewportTableRecord
  2
*ACTIVE
 70
0
 10
0.0
 20
0.0
 11
1.0
 21
1.0
 12
65.351170104
 22
92.4252262899
 13
0.0
 23
0.0
 14
1.0
 24
1.0
 15
0.0
 25
0.0
 16
0.0
 26
0.0
 36
1.0
 17
0.0
 27
0.0
 37
0.0
 40
184.8504525799
 41
0.7070707071
 42
50.0
 43
0.0
 44
0.0
 50
0.0
 51
0.0
 71
0
 72
100
 73
1
 74
1
 75
0
 76
0
 77
0
 78
0
  0
ENDTAB
  0
TABLE
  2
LTYPE
  5
5
100
AcDbSymbolTable
 70
6
  0
LTYPE
  5
14
100
AcDbSymbolTableRecord
100
AcDbLinetypeTableRecord
  2
BYBLOCK
 70
0
  3

 72
65
 73
0
 40
0.0
  0
LTYPE
  5
15
100
AcDbSymbolTableRecord
100
AcDbLinetypeTableRecord
  2
BYLAYER
 70
0
  3

 72
65
 73
0
 40
0.0
  0
LTYPE
  5
16
100
AcDbSymbolTableRecord
100
AcDbLinetypeTableRecord
  2
CONTINUOUS
 70
64
  3
Solid line
 72
65
 73
0
 40
0.0
  0
LTYPE
  5
1F5
100
AcDbSymbolTableRecord
100
AcDbLinetypeTableRecord
  2
CENTER
 70
64
  3
____ _ ____ _ ____ _ ____ _ ____ _ ____ _ ____
 72
65
 73
4
 40
0.6
 49
0.375
 74
0
 49
-0.075
 74
0
 49
0.075
 74
0
 49
-0.075
 74
0
  0
LTYPE
  5
1F6
100
AcDbSymbolTableRecord
100
AcDbLinetypeTableRecord
  2
HIDDEN
 70
64
  3
- - - - - - - - - - - - - - - - - - - -
 72
65
 73
2
 40
0.2
 49
0.1
 74
0
 49
-0.1
 74
0
  0
LTYPE
  5
1F7
100
AcDbSymbolTableRecord
100
AcDbLinetypeTableRecord
  2
PHANTOM
 70
64
  3
_____ _ _ _____ _ _ _____ _ _ _____
 72
65
 73
6
 40
0.8
 49
0.45
 74
0
 49
-0.05
 74
0
 49
0.1
 74
0
 49
-0.05
 74
0
 49
0.1
 74
0
 49
-0.05
 74
0
  0
LTYPE
  5
1F8
100
AcDbSymbolTableRecord
100
AcDbLinetypeTableRecord
  2
DOT
 70
64
  3
. . . . . . . . . . . . . . . . . . . .
 72
65
 73
2
 40
0.2
 49
0.1
 74
0
 49
-0.1
 74
0
  0
LTYPE
  5
1F9
100
AcDbSymbolTableRecord
100
AcDbLinetypeTableRecord
  2
DASHED
 70
64
  3
- - - - - - - - - - - - - - - - - - - -
 72
65
 73
2
 40
0.2
 49
0.1
 74
0
 49
-0.1
 74
0
  0
ENDTAB
  0
TABLE
  2
LAYER
  5
2
100
AcDbSymbolTable
 70
36
  0
LAYER
  5
10
100
AcDbSymbolTableRecord
100
AcDbLayerTableRecord
  2
0
 70
0
 62
7
  6
CONTINUOUS
370
-3
390
F
  0
LAYER
  5
1FA
100
AcDbSymbolTableRecord
100
AcDbLayerTableRecord
  2
DEFAULT_1
 70
0
 62
7
  6
CENTER
370
-3
390
F
  0
LAYER
  5
1FB
100
AcDbSymbolTableRecord
100
AcDbLayerTableRecord
  2
DEFAULT_2
 70
0
 62
7
  6
HIDDEN
370
-3
390
F
  0
LAYER
  5
1FC
100
AcDbSymbolTableRecord
100
AcDbLayerTableRecord
  2
DEFAULT_3
 70
0
 62
7
  6
PHANTOM
370
-3
390
F
  0
LAYER
  5
1FD
100
AcDbSymbolTableRecord
100
AcDbLayerTableRecord
  2
00_COMPONENTS
 70
0
 62
7
  6
CONTINUOUS
370
-3
390
F
  0
LAYER
  5
1FE
100
AcDbSymbolTableRecord
100
AcDbLayerTableRecord
  2
01_1_DEFAULT_DATUMS
 70
0
 62
7
  6
CONTINUOUS
370
-3
390
F
  0
LAYER
  5
1FF
100
AcDbSymbolTableRecord
100
AcDbLayerTableRecord
  2
01_PLANES
 70
0
 62
7
  6
CONTINUOUS
370
-3
390
F
  0
LAYER
  5
200
100
AcDbSymbolTableRecord
100
AcDbLayerTableRecord
  2
02_COORD_SYS
 70
0
 62
7
  6
CONTINUOUS
370
-3
390
F
  0
LAYER
  5
201
100
AcDbSymbolTableRecord
100
AcDbLayerTableRecord
  2
03_AXES
 70
0
 62
7
  6
CONTINUOUS
370
-3
390
F
  0
LAYER
  5
202
100
AcDbSymbolTableRecord
100
AcDbLayerTableRecord
  2
04_POINTS
 70
0
 62
7
  6
CONTINUOUS
370
-3
390
F
  0
LAYER
  5
203
100
AcDbSymbolTableRecord
100
AcDbLayerTableRecord
  2
05_CURVES
 70
0
 62
7
  6
CONTINUOUS
370
-3
390
F
  0
LAYER
  5
204
100
AcDbSymbolTableRecord
100
AcDbLayerTableRecord
  2
06_SURFS
 70
0
 62
7
  6
CONTINUOUS
370
-3
390
F
  0
LAYER
  5
205
100
AcDbSymbolTableRecord
100
AcDbLayerTableRecord
  2
07_COSMETICS
 70
0
 62
7
  6
CONTINUOUS
370
-3
390
F
  0
LAYER
  5
206
100
AcDbSymbolTableRecord
100
AcDbLayerTableRecord
  2
10_NOTES
 70
0
 62
7
  6
CONTINUOUS
370
-3
390
F
  0
LAYER
  5
207
100
AcDbSymbolTableRecord
100
AcDbLayerTableRecord
  2
11_NOTES_PUB
 70
0
 62
7
  6
CONTINUOUS
370
-3
390
F
  0
LAYER
  5
208
100
AcDbSymbolTableRecord
100
AcDbLayerTableRecord
  2
13_REF_GTOL
 70
0
 62
7
  6
CONTINUOUS
370
-3
390
F
  0
LAYER
  5
209
100
AcDbSymbolTableRecord
100
AcDbLayerTableRecord
  2
16_MISC
 70
0
 62
7
  6
CONTINUOUS
370
-3
390
F
  0
LAYER
  5
20A
100
AcDbSymbolTableRecord
100
AcDbLayerTableRecord
  2
17_NO_PRINT
 70
0
 62
7
  6
CONTINUOUS
370
-3
390
F
  0
LAYER
  5
20B
100
AcDbSymbolTableRecord
100
AcDbLayerTableRecord
  2
18_DATUM_CAMS_JOINTS
 70
0
 62
7
  6
CONTINUOUS
370
-3
390
F
  0
LAYER
  5
20C
100
AcDbSymbolTableRecord
100
AcDbLayerTableRecord
  2
19_DATUM_FUNCTIONAL
 70
0
 62
7
  6
CONTINUOUS
370
-3
390
F
  0
LAYER
  5
20D
100
AcDbSymbolTableRecord
100
AcDbLayerTableRecord
  2
20_DATUM_KINEMATIC_SCHEME
 70
0
 62
7
  6
CONTINUOUS
370
-3
390
F
  0
ENDTAB
  0
TABLE
  2
STYLE
  5
3
100
AcDbSymbolTable
 70
1
  0
STYLE
  5
11
100
AcDbSymbolTableRecord
100
AcDbTextStyleTableRecord
  2
STANDARD
 70
0
 40
0.0
 41
1.0
 50
0.0
 71
0
 42
0.2
  3
ARIAL.TTF
  4

  0
STYLE
  5
20E
100
AcDbSymbolTableRecord
100
AcDbTextStyleTableRecord
  2
TEXTSTYLE_1
 70
0
 40
0.0
 41
0.8
 50
0.0
 71
0
 42
0.2
  3
gdt
  4

  0
ENDTAB
  0
TABLE
  2
VIEW
  5
6
100
AcDbSymbolTable
 70
0
  0
ENDTAB
  0
TABLE
  2
UCS
  5
7
100
AcDbSymbolTable
 70
0
  0
ENDTAB
  0
TABLE
  2
APPID
  5
9
100
AcDbSymbolTable
 70
1
  0
APPID
  5
20F
100
AcDbSymbolTableRecord
100
AcDbRegAppTableRecord
  2
ACAD
 70
0
  0
ENDTAB
  0
TABLE
  2
BLOCK_RECORD
  5
1
100
AcDbSymbolTable
 70
0
  0
BLOCK_RECORD
  5
210
100
AcDbSymbolTableRecord
100
AcDbBlockTableRecord
  2
*Model_Space
  0
BLOCK_RECORD
  5
211
100
AcDbSymbolTableRecord
100
AcDbBlockTableRecord
  2
*Paper_Space
  0
BLOCK_RECORD
  5
212
100
AcDbSymbolTableRecord
100
AcDbBlockTableRecord
  2
_FILLED
  0
ENDTAB
  0
TABLE
  2
DIMSTYLE
  5
A
100
AcDbSymbolTable
 70
1
100
AcDbDimStyleTable
 71
0
  0
DIMSTYLE
105
213
100
AcDbSymbolTableRecord
100
AcDbDimStyleTableRecord
  2
STANDARD
 70
0
  3

  4

 40
1.0
 41
1.5559802406
 42
1.0
 43
0.38
 44
1.0
 45
0.0
 46
0.0
 47
0.01
 48
0.01
140
2.1783723368
141
0.09
142
0.0
143
25.4
144
1.0
145
0.0
146
1.0
147
0.625
 71
1
 72
0
 73
0
 74
0
 75
0
 76
0
 77
1
 78
8
 79
2
170
0
171
1
172
0
173
0
174
0
175
0
176
0
177
0
178
0
270
2
179
2
271
2
272
2
273
2
274
2
275
0
280
0
281
0
282
0
283
1
284
8
285
0
286
0
287
3
288
0
340
11
278
46
341
212
342
212
343
212
344
212
  0
ENDTAB
  0
ENDSEC
  0
SECTION
  2
BLOCKS
  0
BLOCK
  5
20
100
AcDbEntity
  8
0
100
AcDbBlockBegin
  2
*Model_Space
 70
0
 10
0.0
 20
0.0
 30
0.0
  3
*Model_Space
  1

  0
ENDBLK
  5
21
100
AcDbEntity
  8
0
100
AcDbBlockEnd
  0
BLOCK
  5
1C
100
AcDbEntity
  8
0
100
AcDbBlockBegin
  2
*Paper_Space
 70
0
 10
0.0
 20
0.0
 30
0.0
  3
*Paper_Space
  1

  0
ENDBLK
  5
1D
100
AcDbEntity
  8
0
100
AcDbBlockEnd
  0
BLOCK
  5
214
100
AcDbEntity
  8
0
100
AcDbBlockBegin
  2
_FILLED
 70
64
 10
0.0
 20
0.0
  3
_FILLED
  1

  0
SOLID
  5
215
100
AcDbEntity
  8
0
  6
BYBLOCK
 62
0
100
AcDbTrace
 10
0.0
 20
0.0
 11
-1.0
 21
0.25
 12
-1.0
 22
-0.25
 13
-1.0
 23
-0.25
  0
ENDBLK
  5
216
100
AcDbEntity
  8
0
  6
BYBLOCK
 62
0
100
AcDbBlockEnd
  0
ENDSEC
  0
SECTION
  2
ENTITIES
  0
LINE
  5
217
100
AcDbEntity
  8
0
100
AcDbLine
 62
7
  6
BYLAYER
 10
38.4540852557
 20
166.9521596433
 11
45.5251236278
 21
171.034601182
  0
LINE
  5
218
100
AcDbEntity
  8
0
100
AcDbLine
 62
7
  6
BYLAYER
 10
38.4540852557
 20
44.4767970739
 11
90.7802049166
 21
14.2669812394
  0
LINE
  5
219
100
AcDbEntity
  8
0
100
AcDbLine
 62
7
  6
BYLAYER
 10
49.0607311329
 20
142.0489927315
 11
56.131769505
 21
146.1314342703
  0
LINE
  5
21A
100
AcDbEntity
  8
0
100
AcDbLine
 62
7
  6
BYLAYER
 10
38.461156294
 20
47.0275686455
 11
37.7540465689
 21
47.4358094
  0
LINE
  5
21B
100
AcDbEntity
  8
0
100
AcDbLine
 62
7
  6
BYLAYER
 10
35.7096304892
 20
50.423918943
 11
37.7540465689
 21
49.2436014715
  0
LINE
  5
21C
100
AcDbEntity
  8
0
100
AcDbLine
 62
7
  6
BYLAYER
 10
38.461156294
 20
51.7322193909
 11
37.7540465689
 21
52.1404601454
  0
LINE
  5
21D
100
AcDbEntity
  8
0
100
AcDbLine
 62
7
  6
BYLAYER
 10
90.0730951914
 20
30.1887679194
 11
57.5460478346
 21
48.9678426273
  0
LINE
  5
21E
100
AcDbEntity
  8
0
100
AcDbLine
 62
7
  6
BYLAYER
 10
38.8076401182
 20
59.7862226221
 11
38.4540852557
 21
59.9903429994
  0
LINE
  5
21F
100
AcDbEntity
  8
0
100
AcDbLine
 62
7
  6
BYLAYER
 10
97.1441335635
 20
34.2712094581
 11
64.6170862068
 21
53.050284166
  0
LINE
  5
220
100
AcDbEntity
  8
0
100
AcDbLine
 62
7
  6
BYLAYER
 10
34.8744429989
 20
52.9990878394
 11
34.881327668
 21
52.2219114468
  0
LINE
  5
221
100
AcDbEntity
  8
0
100
AcDbLine
 62
7
  6
BYLAYER
 10
37.7540465689
 20
47.4358094
 11
37.7540465689
 21
52.1404601454
  0
LINE
  5
222
100
AcDbEntity
  8
0
100
AcDbLine
 62
7
  6
BYLAYER
 10
38.4540852557
 20
166.9521596433
 11
38.4540852557
 21
157.9706330549
  0
LINE
  5
223
100
AcDbEntity
  8
0
100
AcDbLine
 62
7
  6
BYLAYER
 10
38.4540852557
 20
59.9903429994
 11
38.4540852557
 21
44.4767970739
  0
LINE
  5
224
100
AcDbEntity
  8
0
100
AcDbLine
 62
7
  6
BYLAYER
 10
38.8076401182
 20
157.7665126776
 11
38.8076401182
 21
59.7862226221
  0
LINE
  5
225
100
AcDbEntity
  8
0
100
AcDbLine
 62
7
  6
BYLAYER
 10
90.7802049166
 20
136.7423438088
 11
97.8512432887
 21
140.8247853475
  0
LINE
  5
226
100
AcDbEntity
  8
0
100
AcDbLine
 62
7
  6
BYLAYER
 10
49.0607311329
 20
63.6647606871
 11
49.0607311329
 21
142.0489927315
  0
LINE
  5
227
100
AcDbEntity
  8
0
100
AcDbLine
 62
7
  6
BYLAYER
 10
90.0730951914
 20
128.1690579749
 11
97.8512432887
 21
132.6597611762
  0
LINE
  5
228
100
AcDbEntity
  8
0
100
AcDbLine
 62
7
  6
BYLAYER
 10
90.7802049166
 20
28.9640247477
 11
90.0730951914
 21
30.1887679194
  0
LINE
  5
229
100
AcDbEntity
  8
0
100
AcDbLine
 62
7
  6
BYLAYER
 10
56.131769505
 20
146.1314342703
 11
56.131769505
 21
67.7472022258
  0
LINE
  5
22A
100
AcDbEntity
  8
0
100
AcDbLine
 62
7
  6
BYLAYER
 10
97.1441335635
 20
34.2712094581
 11
97.8512432887
 21
33.0464662864
  0
LINE
  5
22B
100
AcDbEntity
  8
0
100
AcDbLine
 62
7
  6
BYLAYER
 10
37.7540465689
 20
52.1404601454
 11
38.4540852557
 21
53.0113229939
  0
LINE
  5
22C
100
AcDbEntity
  8
0
100
AcDbLine
 62
7
  6
BYLAYER
 10
38.4540852557
 20
59.9903429994
 11
38.8076401182
 21
60.194466776
  0
LINE
  5
22D
100
AcDbEntity
  8
0
100
AcDbLine
 62
7
  6
BYLAYER
 10
56.131769505
 20
67.7472022258
 11
49.0607311329
 21
63.6647606871
  0
LINE
  5
22E
100
AcDbEntity
  8
0
100
AcDbLine
 62
7
  6
BYLAYER
 10
37.7095965552
 20
57.1540498183
 11
37.738307586
 21
57.1704577695
  0
LINE
  5
22F
100
AcDbEntity
  8
0
100
AcDbLine
 62
7
  6
BYLAYER
 10
37.0398363657
 20
56.7752562801
 11
37.738307586
 21
57.1704577695
  0
LINE
  5
230
100
AcDbEntity
  8
0
100
AcDbLine
 62
7
  6
BYLAYER
 10
90.7802049166
 20
14.2669812394
 11
90.7802049166
 21
28.9640247477
  0
LINE
  5
231
100
AcDbEntity
  8
0
100
AcDbLine
 62
7
  6
BYLAYER
 10
90.7802049166
 20
128.5773196375
 11
90.7802049166
 21
136.7423438088
  0
LINE
  5
232
100
AcDbEntity
  8
0
100
AcDbLine
 62
7
  6
BYLAYER
 10
97.8512432887
 20
18.3494227781
 11
97.8512432887
 21
33.0464662864
  0
LINE
  5
233
100
AcDbEntity
  8
0
100
AcDbLine
 62
7
  6
BYLAYER
 10
97.8512432887
 20
132.6597611762
 11
97.8512432887
 21
140.8247853475
  0
LINE
  5
234
100
AcDbEntity
  8
0
100
AcDbLine
 62
7
  6
BYLAYER
 10
57.5460478346
 20
48.9678426273
 11
64.6170862068
 21
53.050284166
  0
LINE
  5
235
100
AcDbEntity
  8
0
100
AcDbLine
 62
7
  6
BYLAYER
 10
38.4540852557
 20
157.9706330549
 11
38.8076401182
 21
157.7665126776
  0
LINE
  5
236
100
AcDbEntity
  8
0
100
AcDbLine
 62
7
  6
BYLAYER
 10
57.5460478346
 20
146.9481326829
 11
90.0730951914
 21
128.1690579749
  0
LINE
  5
237
100
AcDbEntity
  8
0
100
AcDbLine
 62
7
  6
BYLAYER
 10
90.7802049166
 20
136.7423438088
 11
38.4540852557
 21
166.9521596433
  0
LINE
  5
238
100
AcDbEntity
  8
0
100
AcDbLine
 62
7
  6
BYLAYER
 10
97.8512432887
 20
140.8247853475
 11
45.5251236278
 21
171.034601182
  0
LINE
  5
239
100
AcDbEntity
  8
0
100
AcDbLine
 62
7
  6
BYLAYER
 10
90.0730951914
 20
30.1887679194
 11
97.1441335635
 21
34.2712094581
  0
LINE
  5
23A
100
AcDbEntity
  8
0
100
AcDbLine
 62
7
  6
BYLAYER
 10
90.7802049166
 20
28.9640247477
 11
97.8512432887
 21
33.0464662864
  0
LINE
  5
23B
100
AcDbEntity
  8
0
100
AcDbLine
 62
7
  6
BYLAYER
 10
90.7802049166
 20
14.2669812394
 11
97.8512432887
 21
18.3494227781
  0
ARC
  5
23C
100
AcDbEntity
  8
0
100
AcDbCircle
 62
7
  6
BYLAYER
 10
40.2692705561
 20
52.9157698464
 40
4.9554812149
100
AcDbArc
 50
129.0538960842
 51
129.3432667748
  0
ARC
  5
23D
100
AcDbEntity
  8
0
100
AcDbCircle
 62
7
  6
BYLAYER
 10
91.239850422
 20
32.8331683732
 40
0.5464741755
100
AcDbArc
 50
161.2711092526
 51
163.8499380704
  0
SPLINE
  5
23E
100
AcDbEntity
  8
0
100
AcDbSpline
 62
7
  6
BYLAYER
 70
0
 71
3
 72
16
 73
12
 74
0
 42
0.0000001
 43
0.0000001
 44
0.0000000001
 40
0.0
 40
0.0
 40
0.0
 40
0.0
 40
0.0428757513
 40
0.0875233495
 40
0.186923412
 40
0.3042342846
 40
0.4379543358
 40
0.5823556103
 40
0.7295669663
 40
0.8712579545
 40
1.0
 40
1.0
 40
1.0
 40
1.0
 10
40.9896794369
 20
54.7821068673
 30
0.0
 10
41.0389824479
 20
54.8105730096
 30
0.0
 10
41.1476288182
 20
54.8558430614
 30
0.0
 10
41.3953768148
 20
54.8920270474
 30
0.0
 10
41.7450715407
 20
54.823818757
 30
0.0
 10
42.1570415708
 20
54.5978376732
 30
0.0
 10
42.5530504984
 20
54.24761051
 30
0.0
 10
42.9023374928
 20
53.8003002114
 30
0.0
 10
43.1775344055
 20
53.291891423
 30
0.0
 10
43.3559866233
 20
52.7640741146
 30
0.0
 10
43.4038533317
 20
52.4045878294
 30
0.0
 10
43.4038533317
 20
52.2336432149
 30
0.0
  0
SPLINE
  5
23F
100
AcDbEntity
  8
0
100
AcDbSpline
 62
7
  6
BYLAYER
 70
0
 71
3
 72
16
 73
12
 74
0
 42
0.0000001
 43
0.0000001
 44
0.0000000001
 40
0.0
 40
0.0
 40
0.0
 40
0.0
 40
0.0428757513
 40
0.0875233495
 40
0.186923412
 40
0.3042342846
 40
0.4379543358
 40
0.5823556103
 40
0.7295669663
 40
0.8712579545
 40
1.0
 40
1.0
 40
1.0
 40
1.0
 10
40.9896794369
 20
63.7636334557
 30
0.0
 10
41.0389824479
 20
63.792099598
 30
0.0
 10
41.1476288182
 20
63.8373696499
 30
0.0
 10
41.3953768148
 20
63.8735536358
 30
0.0
 10
41.7450715407
 20
63.8053453454
 30
0.0
 10
42.1570415708
 20
63.5793642617
 30
0.0
 10
42.5530504984
 20
63.2291370984
 30
0.0
 10
42.9023374928
 20
62.7818267998
 30
0.0
 10
43.1775344055
 20
62.2734180115
 30
0.0
 10
43.3559866233
 20
61.7456007031
 30
0.0
 10
43.4038533317
 20
61.3861144179
 30
0.0
 10
43.4038533317
 20
61.2151698034
 30
0.0
  0
SPLINE
  5
240
100
AcDbEntity
  8
0
100
AcDbSpline
 62
7
  6
BYLAYER
 70
0
 71
3
 72
16
 73
12
 74
0
 42
0.0000001
 43
0.0000001
 44
0.0000000001
 40
0.0
 40
0.0
 40
0.0
 40
0.0
 40
0.0428757513
 40
0.0875233495
 40
0.186923412
 40
0.3042342846
 40
0.4379543358
 40
0.5823556103
 40
0.7295669663
 40
0.8712579545
 40
1.0
 40
1.0
 40
1.0
 40
1.0
 10
40.9896794369
 20
147.0468800029
 30
0.0
 10
41.0389824479
 20
147.0753461452
 30
0.0
 10
41.1476288182
 20
147.1206161971
 30
0.0
 10
41.3953768148
 20
147.156800183
 30
0.0
 10
41.7450715407
 20
147.0885918926
 30
0.0
 10
42.1570415708
 20
146.8626108089
 30
0.0
 10
42.5530504984
 20
146.5123836457
 30
0.0
 10
42.9023374928
 20
146.065073347
 30
0.0
 10
43.1775344055
 20
145.5566645587
 30
0.0
 10
43.3559866233
 20
145.0288472503
 30
0.0
 10
43.4038533317
 20
144.6693609651
 30
0.0
 10
43.4038533317
 20
144.4984163506
 30
0.0
  0
SPLINE
  5
241
100
AcDbEntity
  8
0
100
AcDbSpline
 62
7
  6
BYLAYER
 70
0
 71
3
 72
16
 73
12
 74
0
 42
0.0000001
 43
0.0000001
 44
0.0000000001
 40
0.0
 40
0.0
 40
0.0
 40
0.0
 40
0.0428757513
 40
0.0875233495
 40
0.186923412
 40
0.3042342846
 40
0.4379543358
 40
0.5823556103
 40
0.7295669663
 40
0.8712579545
 40
1.0
 40
1.0
 40
1.0
 40
1.0
 10
40.9896794369
 20
153.57889934
 30
0.0
 10
41.0389824479
 20
153.6073654822
 30
0.0
 10
41.1476288182
 20
153.6526355341
 30
0.0
 10
41.3953768148
 20
153.68881952
 30
0.0
 10
41.7450715407
 20
153.6206112296
 30
0.0
 10
42.1570415708
 20
153.3946301459
 30
0.0
 10
42.5530504984
 20
153.0444029827
 30
0.0
 10
42.9023374928
 20
152.597092684
 30
0.0
 10
43.1775344055
 20
152.0886838957
 30
0.0
 10
43.3559866233
 20
151.5608665873
 30
0.0
 10
43.4038533317
 20
151.2013803021
 30
0.0
 10
43.4038533317
 20
151.0304356876
 30
0.0
  0
SPLINE
  5
242
100
AcDbEntity
  8
0
100
AcDbSpline
 62
7
  6
BYLAYER
 70
0
 71
3
 72
16
 73
12
 74
0
 42
0.0000001
 43
0.0000001
 44
0.0000000001
 40
0.0
 40
0.0
 40
0.0
 40
0.0
 40
0.0428757513
 40
0.0875233495
 40
0.186923412
 40
0.3042342846
 40
0.4379543358
 40
0.5823556103
 40
0.7295669663
 40
0.8712579545
 40
1.0
 40
1.0
 40
1.0
 40
1.0
 10
83.4162629458
 20
30.2876615961
 30
0.0
 10
83.4655659567
 20
30.3161277383
 30
0.0
 10
83.574212327
 20
30.3613977902
 30
0.0
 10
83.8219603237
 20
30.3975817762
 30
0.0
 10
84.1716550495
 20
30.3293734857
 30
0.0
 10
84.5836250796
 20
30.103392402
 30
0.0
 10
84.9796340072
 20
29.7531652388
 30
0.0
 10
85.3289210016
 20
29.3058549401
 30
0.0
 10
85.6041179143
 20
28.7974461518
 30
0.0
 10
85.7825701321
 20
28.2696288434
 30
0.0
 10
85.8304368405
 20
27.9101425582
 30
0.0
 10
85.8304368405
 20
27.7391979437
 30
0.0
  0
SPLINE
  5
243
100
AcDbEntity
  8
0
100
AcDbSpline
 62
7
  6
BYLAYER
 70
0
 71
3
 72
11
 73
7
 74
0
 42
0.0000001
 43
0.0000001
 44
0.0000000001
 40
0.0
 40
0.0
 40
0.0
 40
0.0
 40
0.2895453772
 40
0.5491366158
 40
0.7822776227
 40
1.0
 40
1.0
 40
1.0
 40
1.0
 10
85.8304368405
 20
27.7391979437
 30
0.0
 10
85.8304368405
 20
27.6379182913
 30
0.0
 10
85.8149720447
 20
27.4451982445
 30
0.0
 10
85.7370636852
 20
27.1803636393
 30
0.0
 10
85.6056334261
 20
26.9654179947
 30
0.0
 10
85.4821249503
 20
26.8617767438
 30
0.0
 10
85.4161718347
 20
26.8236973094
 30
0.0
  0
SPLINE
  5
244
100
AcDbEntity
  8
0
100
AcDbSpline
 62
7
  6
BYLAYER
 70
0
 71
3
 72
11
 73
7
 74
0
 42
0.0000001
 43
0.0000001
 44
0.0000000001
 40
0.0
 40
0.0
 40
0.0
 40
0.0
 40
0.2895453772
 40
0.5491366158
 40
0.7822776227
 40
1.0
 40
1.0
 40
1.0
 40
1.0
 10
43.4038533317
 20
151.0304356876
 30
0.0
 10
43.4038533317
 20
150.9291560352
 30
0.0
 10
43.3883885359
 20
150.7364359884
 30
0.0
 10
43.3104801764
 20
150.4716013832
 30
0.0
 10
43.1790499173
 20
150.2566557386
 30
0.0
 10
43.0555414414
 20
150.1530144877
 30
0.0
 10
42.9895883259
 20
150.1149350533
 30
0.0
  0
SPLINE
  5
245
100
AcDbEntity
  8
0
100
AcDbSpline
 62
7
  6
BYLAYER
 70
0
 71
3
 72
11
 73
7
 74
0
 42
0.0000001
 43
0.0000001
 44
0.0000000001
 40
0.0
 40
0.0
 40
0.0
 40
0.0
 40
0.2895453772
 40
0.5491366158
 40
0.7822776227
 40
1.0
 40
1.0
 40
1.0
 40
1.0
 10
43.4038533317
 20
144.4984163506
 30
0.0
 10
43.4038533317
 20
144.3971366981
 30
0.0
 10
43.3883885359
 20
144.2044166513
 30
0.0
 10
43.3104801764
 20
143.9395820461
 30
0.0
 10
43.1790499173
 20
143.7246364016
 30
0.0
 10
43.0555414414
 20
143.6209951507
 30
0.0
 10
42.9895883259
 20
143.5829157163
 30
0.0
  0
SPLINE
  5
246
100
AcDbEntity
  8
0
100
AcDbSpline
 62
7
  6
BYLAYER
 70
0
 71
3
 72
11
 73
7
 74
0
 42
0.0000001
 43
0.0000001
 44
0.0000000001
 40
0.0
 40
0.0
 40
0.0
 40
0.0
 40
0.2895453772
 40
0.5491366158
 40
0.7822776227
 40
1.0
 40
1.0
 40
1.0
 40
1.0
 10
43.4038533317
 20
61.2151698034
 30
0.0
 10
43.4038533317
 20
61.1138901509
 30
0.0
 10
43.3883885359
 20
60.9211701041
 30
0.0
 10
43.3104801764
 20
60.6563354989
 30
0.0
 10
43.1790499173
 20
60.4413898544
 30
0.0
 10
43.0555414414
 20
60.3377486034
 30
0.0
 10
42.9895883259
 20
60.2996691691
 30
0.0
  0
SPLINE
  5
247
100
AcDbEntity
  8
0
100
AcDbSpline
 62
7
  6
BYLAYER
 70
0
 71
3
 72
11
 73
7
 74
0
 42
0.0000001
 43
0.0000001
 44
0.0000000001
 40
0.0
 40
0.0
 40
0.0
 40
0.0
 40
0.2895453772
 40
0.5491366158
 40
0.7822776227
 40
1.0
 40
1.0
 40
1.0
 40
1.0
 10
43.4038533317
 20
52.2336432149
 30
0.0
 10
43.4038533317
 20
52.1323635625
 30
0.0
 10
43.3883885359
 20
51.9396435157
 30
0.0
 10
43.3104801764
 20
51.6748089105
 30
0.0
 10
43.1790499173
 20
51.4598632659
 30
0.0
 10
43.0555414414
 20
51.356222015
 30
0.0
 10
42.9895883259
 20
51.3181425806
 30
0.0
  0
SPLINE
  5
248
100
AcDbEntity
  8
0
100
AcDbSpline
 62
7
  6
BYLAYER
 70
0
 71
3
 72
15
 73
11
 74
0
 42
0.0000001
 43
0.0000001
 44
0.0000000001
 40
0.0
 40
0.0
 40
0.0
 40
0.0
 40
0.1141555516
 40
0.2373276756
 40
0.3669773296
 40
0.5000011
 40
0.6330247168
 40
0.7626739247
 40
0.885845342
 40
1.0
 40
1.0
 40
1.0
 40
1.0
 10
56.131769505
 20
67.7472022258
 30
0.0
 10
56.131769505
 20
67.0764493268
 30
0.0
 10
56.2546274414
 20
65.6806616373
 30
0.0
 10
56.7443981385
 20
63.5749643465
 30
0.0
 10
57.5289825383
 20
61.4420618608
 30
0.0
 10
58.5790591575
 20
59.3621581422
 30
0.0
 10
59.8552781722
 20
57.4128215204
 30
0.0
 10
61.3101380611
 20
55.6669138005
 30
0.0
 10
62.888840733
 20
54.1899294881
 30
0.0
 10
64.0361984188
 20
53.3856522997
 30
0.0
 10
64.6170862068
 20
53.050284166
 30
0.0
  0
SPLINE
  5
249
100
AcDbEntity
  8
0
100
AcDbSpline
 62
7
  6
BYLAYER
 70
0
 71
3
 72
9
 73
5
 74
0
 42
0.0000001
 43
0.0000001
 44
0.0000000001
 40
0.0
 40
0.0
 40
0.0
 40
0.0
 40
0.2476483489
 40
1.0
 40
1.0
 40
1.0
 40
1.0
 10
93.6943293872
 20
33.0464700893
 30
0.0
 10
93.6943299231
 20
33.0325892858
 30
0.0
 10
93.6920269048
 20
32.976553132
 30
0.0
 10
93.6802331733
 20
32.9209823743
 30
0.0
 10
93.6667604498
 20
32.8810228256
 30
0.0
  0
SPLINE
  5
24A
100
AcDbEntity
  8
0
100
AcDbSpline
 62
7
  6
BYLAYER
 70
0
 71
3
 72
9
 73
5
 74
0
 42
0.0000001
 43
0.0000001
 44
0.0000000001
 40
0.0
 40
0.0
 40
0.0
 40
0.0
 40
0.4584298189
 40
1.0
 40
1.0
 40
1.0
 40
1.0
 10
93.6667604498
 20
32.8810228256
 30
0.0
 10
93.6366170748
 20
32.7916188042
 30
0.0
 10
93.5197695227
 20
32.6135780503
 30
0.0
 10
93.3515867115
 20
32.4898387363
 30
0.0
 10
93.2550595149
 20
32.434109066
 30
0.0
  0
SPLINE
  5
24B
100
AcDbEntity
  8
0
100
AcDbSpline
 62
7
  6
BYLAYER
 70
0
 71
3
 72
12
 73
8
 74
0
 42
0.0000001
 43
0.0000001
 44
0.0000000001
 40
0.0
 40
0.0
 40
0.0
 40
0.0
 40
0.108162245
 40
0.2183640921
 40
0.4513666551
 40
0.7104197903
 40
1.0
 40
1.0
 40
1.0
 40
1.0
 10
51.5460849391
 20
147.5424062892
 30
0.0
 10
51.7428253829
 20
147.6559937594
 30
0.0
 10
52.160622892
 20
147.851501188
 30
0.0
 10
53.0778770471
 20
148.1055786046
 30
0.0
 10
54.3627211146
 20
148.1396345883
 30
0.0
 10
55.9717297732
 20
147.7506381973
 30
0.0
 10
57.0193171241
 20
147.2522339207
 30
0.0
 10
57.5460478346
 20
146.9481326829
 30
0.0
  0
SPLINE
  5
24C
100
AcDbEntity
  8
0
100
AcDbSpline
 62
7
  6
BYLAYER
 70
0
 71
3
 72
9
 73
5
 74
0
 42
0.0000001
 43
0.0000001
 44
0.0000000001
 40
0.0
 40
0.0
 40
0.0
 40
0.0
 40
0.243150266
 40
1.0
 40
1.0
 40
1.0
 40
1.0
 10
56.2172374067
 20
147.468762743
 30
0.0
 10
56.2028873615
 20
147.3610574525
 30
0.0
 10
56.1518588553
 20
146.917052967
 30
0.0
 10
56.131769505
 20
146.469649222
 30
0.0
 10
56.131769505
 20
146.1314342703
 30
0.0
  0
SPLINE
  5
24D
100
AcDbEntity
  8
0
100
AcDbSpline
 62
7
  6
BYLAYER
 70
0
 71
3
 72
11
 73
7
 74
0
 42
0.0000001
 43
0.0000001
 44
0.0000000001
 40
0.0
 40
0.0
 40
0.0
 40
0.0
 40
0.2183404762
 40
0.4517590513
 40
0.7107871374
 40
1.0
 40
1.0
 40
1.0
 40
1.0
 10
35.7096304902
 20
50.4239189448
 30
0.0
 10
35.5794172543
 20
50.4990843075
 30
0.0
 10
35.3355767424
 20
50.7030347106
 30
0.0
 10
35.0743286006
 20
51.1246877698
 30
0.0
 10
34.9164810382
 20
51.6442281077
 30
0.0
 10
34.8831016408
 20
52.0227659677
 30
0.0
 10
34.8813284464
 20
52.2219119054
 30
0.0
  0
SPLINE
  5
24E
100
AcDbEntity
  8
0
100
AcDbSpline
 62
7
  6
BYLAYER
 70
0
 71
3
 72
9
 73
5
 74
0
 42
0.0000001
 43
0.0000001
 44
0.0000000001
 40
0.0
 40
0.0
 40
0.0
 40
0.0
 40
0.2636880953
 40
1.0
 40
1.0
 40
1.0
 40
1.0
 10
37.73830757
 20
57.1704559649
 30
0.0
 10
37.7997041436
 20
57.2051759991
 30
0.0
 10
38.0361856926
 20
57.3300708491
 30
0.0
 10
38.2882402696
 20
57.4272386029
 30
0.0
 10
38.4792731458
 20
57.4751762378
 30
0.0
  0
SPLINE
  5
24F
100
AcDbEntity
  8
0
100
AcDbSpline
 62
7
  6
BYLAYER
 70
0
 71
3
 72
15
 73
11
 74
0
 42
0.0000001
 43
0.0000001
 44
0.0000000001
 40
0.0
 40
0.0
 40
0.0
 40
0.0
 40
0.1243567019
 40
0.2607197609
 40
0.403195478
 40
0.5451720922
 40
0.6799999777
 40
0.8021796403
 40
0.9085552966
 40
1.0
 40
1.0
 40
1.0
 40
1.0
 10
93.2550595149
 20
32.434109066
 30
0.0
 10
93.1543155303
 20
32.3759448466
 30
0.0
 10
92.9280544472
 20
32.2795210457
 30
0.0
 10
92.5586675779
 20
32.1959267911
 30
0.0
 10
92.1642294736
 20
32.1705318271
 30
0.0
 10
91.771975623
 20
32.2049765308
 30
0.0
 10
91.4084028041
 20
32.2969694114
 30
0.0
 10
91.0977450262
 20
32.4409067188
 30
0.0
 10
90.8599190844
 20
32.6281191195
 30
0.0
 10
90.7559679782
 20
32.7876197587
 30
0.0
 10
90.7266242962
 20
32.8679709137
 30
0.0
  0
SPLINE
  5
250
100
AcDbEntity
  8
0
100
AcDbSpline
 62
7
  6
BYLAYER
 70
0
 71
3
 72
9
 73
5
 74
0
 42
0.0000001
 43
0.0000001
 44
0.0000000001
 40
0.0
 40
0.0
 40
0.0
 40
0.0
 40
0.254997018
 40
1.0
 40
1.0
 40
1.0
 40
1.0
 10
90.7266242962
 20
32.8679709137
 30
0.0
 10
90.7213206033
 20
32.8824938986
 30
0.0
 10
90.7028532484
 20
32.9402672258
 30
0.0
 10
90.6944622114
 20
33.0012988725
 30
0.0
 10
90.6944604672
 20
33.0464703062
 30
0.0
  0
SPLINE
  5
251
100
AcDbEntity
  8
0
100
AcDbSpline
 62
7
  6
BYLAYER
 70
0
 71
3
 72
12
 73
8
 74
0
 42
0.0000001
 43
0.0000001
 44
0.0000000001
 40
0.0
 40
0.0
 40
0.0
 40
0.0
 40
0.2364293826
 40
0.4990304321
 40
0.76197069
 40
0.8855939288
 40
1.0
 40
1.0
 40
1.0
 40
1.0
 10
34.874496295
 20
52.9991191786
 30
0.0
 10
34.8713498491
 20
53.3550878974
 30
0.0
 10
35.0007977019
 20
54.1082086251
 30
0.0
 10
35.4631395937
 20
55.1665895799
 30
0.0
 10
36.0444761062
 20
55.9649433848
 30
0.0
 10
36.5959045923
 20
56.4821410698
 30
0.0
 10
36.8906573614
 20
56.689128256
 30
0.0
 10
37.0398363657
 20
56.7752562801
 30
0.0
  0
SPLINE
  5
252
100
AcDbEntity
  8
0
100
AcDbSpline
 62
7
  6
BYLAYER
 70
0
 71
3
 72
9
 73
5
 74
0
 42
0.0000001
 43
0.0000001
 44
0.0000000001
 40
0.0
 40
0.0
 40
0.0
 40
0.0
 40
0.2411602935
 40
1.0
 40
1.0
 40
1.0
 40
1.0
 10
34.8813284464
 20
52.2219119054
 30
0.0
 10
34.8808157401
 20
52.2794934977
 30
0.0
 10
34.8842825411
 20
52.5183002366
 30
0.0
 10
34.9089651227
 20
52.7566263379
 30
0.0
 10
34.9374345428
 20
52.9355703426
 30
0.0
  0
SPLINE
  5
253
100
AcDbEntity
  8
0
100
AcDbSpline
 62
7
  6
BYLAYER
 70
0
 71
3
 72
11
 73
7
 74
0
 42
0.0000001
 43
0.0000001
 44
0.0000000001
 40
0.0
 40
0.0
 40
0.0
 40
0.0
 40
0.2426833047
 40
0.4996235304
 40
0.756747651
 40
1.0
 40
1.0
 40
1.0
 40
1.0
 10
34.9374345428
 20
52.9355703426
 30
0.0
 10
34.9943763731
 20
53.2934771465
 30
0.0
 10
35.191940187
 20
54.0185586055
 30
0.0
 10
35.6748621879
 20
55.0456698961
 30
0.0
 10
36.3193716577
 20
55.9809191305
 30
0.0
 10
36.8467381806
 20
56.5178572286
 30
0.0
 10
37.1276686321
 20
56.7481491885
 30
0.0
  0
SPLINE
  5
254
100
AcDbEntity
  8
0
100
AcDbSpline
 62
7
  6
BYLAYER
 70
0
 71
3
 72
9
 73
5
 74
0
 42
0.0000001
 43
0.0000001
 44
0.0000000001
 40
0.0
 40
0.0
 40
0.0
 40
0.0
 40
0.2586135029
 40
1.0
 40
1.0
 40
1.0
 40
1.0
 10
37.1470639385
 20
56.7639668148
 30
0.0
 10
37.1929154398
 20
56.801167864
 30
0.0
 10
37.3727671049
 20
56.9418061483
 30
0.0
 10
37.5630060718
 20
57.0694162685
 30
0.0
 10
37.7095965552
 20
57.1540498183
 30
0.0
  0
SPLINE
  5
255
100
AcDbEntity
  8
0
100
AcDbSpline
 62
7
  6
BYLAYER
 70
0
 71
3
 72
16
 73
12
 74
0
 42
0.0000001
 43
0.0000001
 44
0.0000000001
 40
0.0
 40
0.0
 40
0.0
 40
0.0
 40
0.0428757513
 40
0.0875233495
 40
0.186923412
 40
0.3042342846
 40
0.4379543358
 40
0.5823556103
 40
0.7295669663
 40
0.8712579545
 40
1.0
 40
1.0
 40
1.0
 40
1.0
 10
85.4161718347
 20
26.8236973094
 30
0.0
 10
85.3668688237
 20
26.7952311672
 30
0.0
 10
85.2582224535
 20
26.7499611153
 30
0.0
 10
85.0104744568
 20
26.7137771294
 30
0.0
 10
84.660779731
 20
26.7819854198
 30
0.0
 10
84.2488097008
 20
27.0079665035
 30
0.0
 10
83.8528007732
 20
27.3581936667
 30
0.0
 10
83.5035137789
 20
27.8055039654
 30
0.0
 10
83.2283168662
 20
28.3139127537
 30
0.0
 10
83.0498646484
 20
28.8417300621
 30
0.0
 10
83.0019979399
 20
29.2012163473
 30
0.0
 10
83.0019979399
 20
29.3721609618
 30
0.0
  0
SPLINE
  5
256
100
AcDbEntity
  8
0
100
AcDbSpline
 62
7
  6
BYLAYER
 70
0
 71
3
 72
11
 73
7
 74
0
 42
0.0000001
 43
0.0000001
 44
0.0000000001
 40
0.0
 40
0.0
 40
0.0
 40
0.0
 40
0.2895453772
 40
0.5491366158
 40
0.7822776227
 40
1.0
 40
1.0
 40
1.0
 40
1.0
 10
40.5754144311
 20
62.8481328214
 30
0.0
 10
40.5754144311
 20
62.9494124739
 30
0.0
 10
40.5908792269
 20
63.1421325207
 30
0.0
 10
40.6687875864
 20
63.4069671259
 30
0.0
 10
40.8002178455
 20
63.6219127704
 30
0.0
 10
40.9237263214
 20
63.7255540214
 30
0.0
 10
40.9896794369
 20
63.7636334557
 30
0.0
  0
SPLINE
  5
257
100
AcDbEntity
  8
0
100
AcDbSpline
 62
7
  6
BYLAYER
 70
0
 71
3
 72
16
 73
12
 74
0
 42
0.0000001
 43
0.0000001
 44
0.0000000001
 40
0.0
 40
0.0
 40
0.0
 40
0.0
 40
0.0428757513
 40
0.0875233495
 40
0.186923412
 40
0.3042342846
 40
0.4379543358
 40
0.5823556103
 40
0.7295669663
 40
0.8712579545
 40
1.0
 40
1.0
 40
1.0
 40
1.0
 10
42.9895883259
 20
51.3181425806
 30
0.0
 10
42.9402853149
 20
51.2896764384
 30
0.0
 10
42.8316389447
 20
51.2444063865
 30
0.0
 10
42.583890948
 20
51.2082224006
 30
0.0
 10
42.2341962221
 20
51.276430691
 30
0.0
 10
41.822226192
 20
51.5024117747
 30
0.0
 10
41.4262172644
 20
51.8526389379
 30
0.0
 10
41.07693027
 20
52.2999492366
 30
0.0
 10
40.8017333573
 20
52.8083580249
 30
0.0
 10
40.6232811396
 20
53.3361753333
 30
0.0
 10
40.5754144311
 20
53.6956616185
 30
0.0
 10
40.5754144311
 20
53.866606233
 30
0.0
  0
SPLINE
  5
258
100
AcDbEntity
  8
0
100
AcDbSpline
 62
7
  6
BYLAYER
 70
0
 71
3
 72
11
 73
7
 74
0
 42
0.0000001
 43
0.0000001
 44
0.0000000001
 40
0.0
 40
0.0
 40
0.0
 40
0.0
 40
0.2895453772
 40
0.5491366158
 40
0.7822776227
 40
1.0
 40
1.0
 40
1.0
 40
1.0
 10
40.5754144311
 20
53.866606233
 30
0.0
 10
40.5754144311
 20
53.9678858855
 30
0.0
 10
40.5908792269
 20
54.1606059322
 30
0.0
 10
40.6687875864
 20
54.4254405375
 30
0.0
 10
40.8002178455
 20
54.640386182
 30
0.0
 10
40.9237263214
 20
54.7440274329
 30
0.0
 10
40.9896794369
 20
54.7821068673
 30
0.0
  0
SPLINE
  5
259
100
AcDbEntity
  8
0
100
AcDbSpline
 62
7
  6
BYLAYER
 70
0
 71
3
 72
11
 73
7
 74
0
 42
0.0000001
 43
0.0000001
 44
0.0000000001
 40
0.0
 40
0.0
 40
0.0
 40
0.0
 40
0.2177227832
 40
0.4508712161
 40
0.7104668615
 40
1.0
 40
1.0
 40
1.0
 40
1.0
 10
90.6944604672
 20
33.0464703062
 30
0.0
 10
90.6944582618
 20
33.1035858225
 30
0.0
 10
90.7154621883
 20
33.2226701854
 30
0.0
 10
90.8057855156
 20
33.3886371915
 30
0.0
 10
90.9485832712
 20
33.5385440199
 30
0.0
 10
91.0679524722
 20
33.6208546869
 30
0.0
 10
91.1337303395
 20
33.6588313295
 30
0.0
  0
SPLINE
  5
25A
100
AcDbEntity
  8
0
100
AcDbSpline
 62
7
  6
BYLAYER
 70
0
 71
3
 72
15
 73
11
 74
0
 42
0.0000001
 43
0.0000001
 44
0.0000000001
 40
0.0
 40
0.0
 40
0.0
 40
0.0
 40
0.091469792
 40
0.1978740719
 40
0.320067935
 40
0.4548934915
 40
0.5968586444
 40
0.7393177786
 40
0.8756643501
 40
1.0
 40
1.0
 40
1.0
 40
1.0
 10
93.6618667404
 20
33.0216591457
 30
0.0
 10
93.6323978875
 20
33.1019616565
 30
0.0
 10
93.5282645187
 20
33.2613163845
 30
0.0
 10
93.2903284033
 20
33.4483291624
 30
0.0
 10
92.9796663187
 20
33.5920877697
 30
0.0
 10
92.6161770387
 20
33.6839356784
 30
0.0
 10
92.224065049
 20
33.7182763519
 30
0.0
 10
91.8297941403
 20
33.6928322869
 30
0.0
 10
91.4605797778
 20
33.6092330513
 30
0.0
 10
91.2344265228
 20
33.5128423468
 30
0.0
 10
91.1337303395
 20
33.4547057253
 30
0.0
  0
SPLINE
  5
25B
100
AcDbEntity
  8
0
100
AcDbSpline
 62
7
  6
BYLAYER
 70
0
 71
3
 72
16
 73
12
 74
0
 42
0.0000001
 43
0.0000001
 44
0.0000000001
 40
0.0
 40
0.0
 40
0.0
 40
0.0
 40
0.0428757513
 40
0.0875233495
 40
0.186923412
 40
0.3042342846
 40
0.4379543358
 40
0.5823556103
 40
0.7295669663
 40
0.8712579545
 40
1.0
 40
1.0
 40
1.0
 40
1.0
 10
42.9895883259
 20
60.2996691691
 30
0.0
 10
42.9402853149
 20
60.2712030268
 30
0.0
 10
42.8316389447
 20
60.2259329749
 30
0.0
 10
42.583890948
 20
60.189748989
 30
0.0
 10
42.2341962221
 20
60.2579572794
 30
0.0
 10
41.822226192
 20
60.4839383631
 30
0.0
 10
41.4262172644
 20
60.8341655263
 30
0.0
 10
41.07693027
 20
61.281475825
 30
0.0
 10
40.8017333573
 20
61.7898846133
 30
0.0
 10
40.6232811396
 20
62.3177019217
 30
0.0
 10
40.5754144311
 20
62.6771882069
 30
0.0
 10
40.5754144311
 20
62.8481328214
 30
0.0
  0
SPLINE
  5
25C
100
AcDbEntity
  8
0
100
AcDbSpline
 62
7
  6
BYLAYER
 70
0
 71
3
 72
9
 73
5
 74
0
 42
0.0000001
 43
0.0000001
 44
0.0000000001
 40
0.0
 40
0.0
 40
0.0
 40
0.0
 40
0.5415239159
 40
1.0
 40
1.0
 40
1.0
 40
1.0
 10
91.1337303395
 20
33.4547057253
 30
0.0
 10
91.037347389
 20
33.399059335
 30
0.0
 10
90.8693958262
 20
33.2755230306
 30
0.0
 10
90.7525579423
 20
33.0978754286
 30
0.0
 10
90.7223128783
 20
33.0086360776
 30
0.0
  0
SPLINE
  5
25D
100
AcDbEntity
  8
0
100
AcDbSpline
 62
7
  6
BYLAYER
 70
0
 71
3
 72
16
 73
12
 74
0
 42
0.0000001
 43
0.0000001
 44
0.0000000001
 40
0.0
 40
0.0
 40
0.0
 40
0.0
 40
0.0428757513
 40
0.0875233495
 40
0.186923412
 40
0.3042342846
 40
0.4379543358
 40
0.5823556103
 40
0.7295669663
 40
0.8712579545
 40
1.0
 40
1.0
 40
1.0
 40
1.0
 10
42.9895883259
 20
143.5829157163
 30
0.0
 10
42.9402853149
 20
143.554449574
 30
0.0
 10
42.8316389447
 20
143.5091795221
 30
0.0
 10
42.583890948
 20
143.4729955362
 30
0.0
 10
42.2341962221
 20
143.5412038266
 30
0.0
 10
41.822226192
 20
143.7671849103
 30
0.0
 10
41.4262172644
 20
144.1174120736
 30
0.0
 10
41.07693027
 20
144.5647223722
 30
0.0
 10
40.8017333573
 20
145.0731311606
 30
0.0
 10
40.6232811396
 20
145.6009484689
 30
0.0
 10
40.5754144311
 20
145.9604347542
 30
0.0
 10
40.5754144311
 20
146.1313793687
 30
0.0
  0
SPLINE
  5
25E
100
AcDbEntity
  8
0
100
AcDbSpline
 62
7
  6
BYLAYER
 70
0
 71
3
 72
12
 73
8
 74
0
 42
0.0000001
 43
0.0000001
 44
0.0000000001
 40
0.0
 40
0.0
 40
0.0
 40
0.0
 40
0.289581202
 40
0.5486347013
 40
0.7816368512
 40
0.8918382666
 40
1.0
 40
1.0
 40
1.0
 40
1.0
 10
49.0607311329
 20
142.0489927315
 30
0.0
 10
49.0607311329
 20
142.6572238872
 30
0.0
 10
49.1528857749
 20
143.8136980424
 30
0.0
 10
49.6205093912
 20
145.4016870805
 30
0.0
 10
50.2924369805
 20
146.4973991164
 30
0.0
 10
50.9711175661
 20
147.164742015
 30
0.0
 10
51.3493401609
 20
147.4288163165
 30
0.0
 10
51.5460849391
 20
147.5424062892
 30
0.0
  0
SPLINE
  5
25F
100
AcDbEntity
  8
0
100
AcDbSpline
 62
7
  6
BYLAYER
 70
0
 71
3
 72
15
 73
11
 74
0
 42
0.0000001
 43
0.0000001
 44
0.0000000001
 40
0.0
 40
0.0
 40
0.0
 40
0.0
 40
0.1141546703
 40
0.2373261017
 40
0.3669753162
 40
0.4999989361
 40
0.6330227034
 40
0.7626723508
 40
0.8858444607
 40
1.0
 40
1.0
 40
1.0
 40
1.0
 10
57.5460478346
 20
48.9678426273
 30
0.0
 10
56.9651599841
 20
49.3032107971
 30
0.0
 10
55.8178021854
 20
50.1074880972
 30
0.0
 10
54.2390993903
 20
51.5844725631
 30
0.0
 10
52.7842394695
 20
53.3303804395
 30
0.0
 10
51.5080204838
 20
55.2797171258
 30
0.0
 10
50.4579439349
 20
57.3596208374
 30
0.0
 10
49.6733596548
 20
59.4925232171
 30
0.0
 10
49.183589029
 20
61.5982203245
 30
0.0
 10
49.0607311329
 20
62.9940078603
 30
0.0
 10
49.0607311329
 20
63.6647606871
 30
0.0
  0
SPLINE
  5
260
100
AcDbEntity
  8
0
100
AcDbSpline
 62
7
  6
BYLAYER
 70
0
 71
3
 72
16
 73
12
 74
0
 42
0.0000001
 43
0.0000001
 44
0.0000000001
 40
0.0
 40
0.0
 40
0.0
 40
0.0
 40
0.0428757513
 40
0.0875233495
 40
0.186923412
 40
0.3042342846
 40
0.4379543358
 40
0.5823556103
 40
0.7295669663
 40
0.8712579545
 40
1.0
 40
1.0
 40
1.0
 40
1.0
 10
42.9895883259
 20
150.1149350533
 30
0.0
 10
42.9402853149
 20
150.0864689111
 30
0.0
 10
42.8316389447
 20
150.0411988592
 30
0.0
 10
42.583890948
 20
150.0050148733
 30
0.0
 10
42.2341962221
 20
150.0732231637
 30
0.0
 10
41.822226192
 20
150.2992042474
 30
0.0
 10
41.4262172644
 20
150.6494314106
 30
0.0
 10
41.07693027
 20
151.0967417093
 30
0.0
 10
40.8017333573
 20
151.6051504976
 30
0.0
 10
40.6232811396
 20
152.132967806
 30
0.0
 10
40.5754144311
 20
152.4924540912
 30
0.0
 10
40.5754144311
 20
152.6633987057
 30
0.0
  0
SPLINE
  5
261
100
AcDbEntity
  8
0
100
AcDbSpline
 62
7
  6
BYLAYER
 70
0
 71
3
 72
11
 73
7
 74
0
 42
0.0000001
 43
0.0000001
 44
0.0000000001
 40
0.0
 40
0.0
 40
0.0
 40
0.0
 40
0.2895453772
 40
0.5491366158
 40
0.7822776227
 40
1.0
 40
1.0
 40
1.0
 40
1.0
 10
83.0019979399
 20
29.3721609618
 30
0.0
 10
83.0019979399
 20
29.4734406142
 30
0.0
 10
83.0174627358
 20
29.666160661
 30
0.0
 10
83.0953710953
 20
29.9309952662
 30
0.0
 10
83.2268013543
 20
30.1459409108
 30
0.0
 10
83.3503098302
 20
30.2495821617
 30
0.0
 10
83.4162629458
 20
30.2876615961
 30
0.0
  0
SPLINE
  5
262
100
AcDbEntity
  8
0
100
AcDbSpline
 62
7
  6
BYLAYER
 70
0
 71
3
 72
11
 73
7
 74
0
 42
0.0000001
 43
0.0000001
 44
0.0000000001
 40
0.0
 40
0.0
 40
0.0
 40
0.0
 40
0.2895453772
 40
0.5491366158
 40
0.7822776227
 40
1.0
 40
1.0
 40
1.0
 40
1.0
 10
40.5754144311
 20
152.6633987057
 30
0.0
 10
40.5754144311
 20
152.7646783581
 30
0.0
 10
40.5908792269
 20
152.9573984049
 30
0.0
 10
40.6687875864
 20
153.2222330101
 30
0.0
 10
40.8002178455
 20
153.4371786547
 30
0.0
 10
40.9237263214
 20
153.5408199056
 30
0.0
 10
40.9896794369
 20
153.57889934
 30
0.0
  0
SPLINE
  5
263
100
AcDbEntity
  8
0
100
AcDbSpline
 62
7
  6
BYLAYER
 70
0
 71
3
 72
16
 73
12
 74
0
 42
0.0000001
 43
0.0000001
 44
0.0000000001
 40
0.0
 40
0.0
 40
0.0
 40
0.0
 40
0.1287403799
 40
0.2704210658
 40
0.4176258714
 40
0.5620278603
 40
0.695753962
 40
0.8130690845
 40
0.9124719932
 40
0.9571212513
 40
1.0
 40
1.0
 40
1.0
 40
1.0
 10
91.1337303395
 20
33.6588313295
 30
0.0
 10
91.244760839
 20
33.7229344357
 30
0.0
 10
91.4961925716
 20
33.8266477006
 30
0.0
 10
91.9059204853
 20
33.9086690516
 30
0.0
 10
92.3393237374
 20
33.9205894001
 30
0.0
 10
92.7608444132
 20
33.8614716861
 30
0.0
 10
93.1368416273
 20
33.7356009966
 30
0.0
 10
93.4381272485
 20
33.5527664844
 30
0.0
 10
93.6135811905
 20
33.3512124983
 30
0.0
 10
93.6829898421
 20
33.176719692
 30
0.0
 10
93.6943277384
 20
33.0891711172
 30
0.0
 10
93.6943293872
 20
33.0464700893
 30
0.0
  0
SPLINE
  5
264
100
AcDbEntity
  8
0
100
AcDbSpline
 62
7
  6
BYLAYER
 70
0
 71
3
 72
11
 73
7
 74
0
 42
0.0000001
 43
0.0000001
 44
0.0000000001
 40
0.0
 40
0.0
 40
0.0
 40
0.0
 40
0.2895453772
 40
0.5491366158
 40
0.7822776227
 40
1.0
 40
1.0
 40
1.0
 40
1.0
 10
40.5754144311
 20
146.1313793687
 30
0.0
 10
40.5754144311
 20
146.2326590211
 30
0.0
 10
40.5908792269
 20
146.4253790679
 30
0.0
 10
40.6687875864
 20
146.6902136731
 30
0.0
 10
40.8002178455
 20
146.9051593177
 30
0.0
 10
40.9237263214
 20
147.0088005686
 30
0.0
 10
40.9896794369
 20
147.0468800029
 30
0.0
  0
ENDSEC
  0
SECTION
  2
OBJECTS
  0
DICTIONARY
  5
C
100
AcDbDictionary
280
0
281
1
  3
ACAD_GROUP
350
D
  3
ACAD_MLINESTYLE
350
17
  3
ACAD_LAYOUT
350
1A
  3
ACAD_PLOTSETTINGS
350
19
  3
ACAD_PLOTSTYLENAME
350
E
  0
DICTIONARY
  5
D
102
{ACAD_REACTORS
330
C
102
}
100
AcDbDictionary
280
0
281
1
  0
ACDBDICTIONARYWDFLT
  5
E
102
{ACAD_REACTORS
330
C
102
}
100
AcDbDictionary
281
1
  3
Normal
350
F
100
AcDbDictionaryWithDefault
340
F
  0
DICTIONARY
  5
17
102
{ACAD_REACTORS
330
C
102
}
100
AcDbDictionary
280
0
281
1
  3
Standard
350
18
  0
DICTIONARY
  5
19
102
{ACAD_REACTORS
330
C
102
}
100
AcDbDictionary
281
1
  0
DICTIONARY
  5
1A
102
{ACAD_REACTORS
330
C
102
}
100
AcDbDictionary
281
1
  3
Model
350
265
  3
Layout1
350
266
  0
ACDBPLACEHOLDER
  5
F
102
{ACAD_REACTORS
330
E
102
}
  0
MLINESTYLE
  5
18
102
{ACAD_REACTORS
330
17
102
}
100
AcDbMlineStyle
  2
STANDARD
 70
0
  3

 62
256
 51
90.0
 52
90.0
 71
2
 49
0.5
 62
256
  6
BYLAYER
 49
-0.5
 62
256
  6
BYLAYER
  0
LAYOUT
  5
265
102
{ACAD_REACTORS
330
1A
102
}
100
AcDbPlotSettings
  1

  2
none_device
  4

  6

 40
0.0
 41
0.0
 42
0.0
 43
0.0
 44
210.0
 45
297.0
 46
0.0
 47
0.0
 48
0.0
 49
0.0
140
0.0
141
0.0
142
1.0
143
1.0
 70
1024
 72
1
 73
0
 74
0
  7

 75
0
147
1.0
148
0.0
149
0.0
100
AcDbLayout
  1
Model
 70
0
 71
0
 10
0.0
 20
0.0
 11
210.0
 21
297.0
 12
0.0
 22
0.0
 32
0.0
 14
0.0
 24
0.0
 34
0.0
 15
0.0
 25
0.0
 35
0.0
146
0.0
 13
0.0
 23
0.0
 33
0.0
 16
1.0
 26
0.0
 36
0.0
 17
0.0
 27
1.0
 37
0.0
 76
0
330
210
345
0
346
0
  0
LAYOUT
  5
266
102
{ACAD_REACTORS
330
1A
102
}
100
AcDbPlotSettings
  1

  2
none_device
  4

  6

 40
0.0
 41
0.0
 42
0.0
 43
0.0
 44
210.0
 45
297.0
 46
0.0
 47
0.0
 48
0.0
 49
0.0
140
0.0
141
0.0
142
1.0
143
1.0
 70
0
 72
1
 73
0
 74
0
  7

 75
0
147
1.0
148
0.0
149
0.0
100
AcDbLayout
  1
Layout1
 70
0
 71
1
 10
0.0
 20
0.0
 11
210.0
 21
297.0
 12
0.0
 22
0.0
 32
0.0
 14
0.0
 24
0.0
 34
0.0
 15
0.0
 25
0.0
 35
0.0
146
0.0
 13
0.0
 23
0.0
 33
0.0
 16
1.0
 26
0.0
 36
0.0
 17
0.0
 27
1.0
 37
0.0
 76
0
330
211
345
0
346
0
  0
ENDSEC
  0
EOF
