999
DXF file: C:\Users\sesa63760\Dev\_Creo\CAD\MCADID0004757_3D-CAD\drw0001_6.dxf
999
Pro/ENGINEER 2019471 by Parametric Technology Corporation
  0
SECTION
  2
HEADER
  9
$ACADVER
  1
AC1024
  9
$DWGCODEPAGE
  3
ANSI_1252
  9
$EXTMAX
 10
39.1032961581
 20
55.3032331378
 30
0.0
  9
$EXTMIN
 10
0.0
 20
0.0
 30
0.0
  9
$LIMMIN
 10
0.0
 20
0.0
  9
$LIMMAX
 10
39.1032961581
 20
55.3032331378
  9
$VIEWCTR
 10
19.551648079
 20
27.6516165689
  9
$VIEWSIZE
 40
55.3032331378
  9
$CLAYER
  8
0
  9
$LTSCALE
 40
3.6049514934
  9
$CELTYPE
  6
BYLAYER
  9
$DIMSCALE
 40
1.0
  9
$DIMASZ
 40
0.4655154305
  9
$DIMEXO
 40
1.0
  9
$DIMDLI
 40
2.4906937591
  9
$DIMEXE
 40
1.0
  9
$DIMCEN
 40
0.5899011535
  9
$DIMLFAC
 40
1.0
  9
$DIMBLK
  1
_FILLED
  9
$DIMALT
 70
0
  9
$DIMALTF
 40
0.0393700787
  9
$DIMTXT
 40
0.6517216026
  9
$DIMTOL
 70
1
  9
$DIMLIM
 70
0
  9
$DIMTFAC
 40
1.0
  9
$DIMTP
 40
0.01
  9
$DIMTM
 40
0.01
  9
$DIMGAP
 40
0.625
  9
$DIMDSEP
 70
46
  9
$AUNITS
 70
0
  9
$PDMODE
 70
3
  9
$PDSIZE
 40
0.3125
  9
$HANDSEED
  5
2A0
  9
$TILEMODE
 70
1
  9
$MEASUREMENT
 70
1
  9
$INSUNITS
 70
4
  0
ENDSEC
  0
SECTION
  2
CLASSES
  0
CLASS
  1
ACDBDICTIONARYWDFLT
  2
AcDbDictionaryWithDefault
  3
AutoCAD 2000
 90
0
 91
1
280
0
281
0
  0
CLASS
  1
ACDBPLACEHOLDER
  2
AcDbPlaceHolder
  3
AutoCAD 2000
 90
0
 91
1
280
0
281
0
  0
CLASS
  1
LAYOUT
  2
AcDbLayout
  3
AutoCAD 2000
 90
0
 91
0
280
0
281
0
  0
ENDSEC
  0
SECTION
  2
TABLES
  0
TABLE
  2
VPORT
  5
8
100
AcDbSymbolTable
 70
2
  0
VPORT
  5
1F4
100
AcDbSymbolTableRecord
100
AcDbViewportTableRecord
  2
*ACTIVE
 70
0
 10
0.0
 20
0.0
 11
1.0
 21
1.0
 12
19.551648079
 22
27.6516165689
 13
0.0
 23
0.0
 14
1.0
 24
1.0
 15
0.0
 25
0.0
 16
0.0
 26
0.0
 36
1.0
 17
0.0
 27
0.0
 37
0.0
 40
55.3032331378
 41
0.7070707071
 42
50.0
 43
0.0
 44
0.0
 50
0.0
 51
0.0
 71
0
 72
100
 73
1
 74
1
 75
0
 76
0
 77
0
 78
0
  0
ENDTAB
  0
TABLE
  2
LTYPE
  5
5
100
AcDbSymbolTable
 70
6
  0
LTYPE
  5
14
100
AcDbSymbolTableRecord
100
AcDbLinetypeTableRecord
  2
BYBLOCK
 70
0
  3

 72
65
 73
0
 40
0.0
  0
LTYPE
  5
15
100
AcDbSymbolTableRecord
100
AcDbLinetypeTableRecord
  2
BYLAYER
 70
0
  3

 72
65
 73
0
 40
0.0
  0
LTYPE
  5
16
100
AcDbSymbolTableRecord
100
AcDbLinetypeTableRecord
  2
CONTINUOUS
 70
64
  3
Solid line
 72
65
 73
0
 40
0.0
  0
LTYPE
  5
1F5
100
AcDbSymbolTableRecord
100
AcDbLinetypeTableRecord
  2
CENTER
 70
64
  3
____ _ ____ _ ____ _ ____ _ ____ _ ____ _ ____
 72
65
 73
4
 40
0.6
 49
0.375
 74
0
 49
-0.075
 74
0
 49
0.075
 74
0
 49
-0.075
 74
0
  0
LTYPE
  5
1F6
100
AcDbSymbolTableRecord
100
AcDbLinetypeTableRecord
  2
HIDDEN
 70
64
  3
- - - - - - - - - - - - - - - - - - - -
 72
65
 73
2
 40
0.2
 49
0.1
 74
0
 49
-0.1
 74
0
  0
LTYPE
  5
1F7
100
AcDbSymbolTableRecord
100
AcDbLinetypeTableRecord
  2
PHANTOM
 70
64
  3
_____ _ _ _____ _ _ _____ _ _ _____
 72
65
 73
6
 40
0.8
 49
0.45
 74
0
 49
-0.05
 74
0
 49
0.1
 74
0
 49
-0.05
 74
0
 49
0.1
 74
0
 49
-0.05
 74
0
  0
LTYPE
  5
1F8
100
AcDbSymbolTableRecord
100
AcDbLinetypeTableRecord
  2
DOT
 70
64
  3
. . . . . . . . . . . . . . . . . . . .
 72
65
 73
2
 40
0.2
 49
0.1
 74
0
 49
-0.1
 74
0
  0
LTYPE
  5
1F9
100
AcDbSymbolTableRecord
100
AcDbLinetypeTableRecord
  2
DASHED
 70
64
  3
- - - - - - - - - - - - - - - - - - - -
 72
65
 73
2
 40
0.2
 49
0.1
 74
0
 49
-0.1
 74
0
  0
ENDTAB
  0
TABLE
  2
LAYER
  5
2
100
AcDbSymbolTable
 70
36
  0
LAYER
  5
10
100
AcDbSymbolTableRecord
100
AcDbLayerTableRecord
  2
0
 70
0
 62
7
  6
CONTINUOUS
370
-3
390
F
  0
LAYER
  5
1FA
100
AcDbSymbolTableRecord
100
AcDbLayerTableRecord
  2
DEFAULT_1
 70
0
 62
7
  6
CENTER
370
-3
390
F
  0
LAYER
  5
1FB
100
AcDbSymbolTableRecord
100
AcDbLayerTableRecord
  2
DEFAULT_2
 70
0
 62
7
  6
HIDDEN
370
-3
390
F
  0
LAYER
  5
1FC
100
AcDbSymbolTableRecord
100
AcDbLayerTableRecord
  2
DEFAULT_3
 70
0
 62
7
  6
PHANTOM
370
-3
390
F
  0
LAYER
  5
1FD
100
AcDbSymbolTableRecord
100
AcDbLayerTableRecord
  2
00_COMPONENTS
 70
0
 62
7
  6
CONTINUOUS
370
-3
390
F
  0
LAYER
  5
1FE
100
AcDbSymbolTableRecord
100
AcDbLayerTableRecord
  2
01_1_DEFAULT_DATUMS
 70
0
 62
7
  6
CONTINUOUS
370
-3
390
F
  0
LAYER
  5
1FF
100
AcDbSymbolTableRecord
100
AcDbLayerTableRecord
  2
01_PLANES
 70
0
 62
7
  6
CONTINUOUS
370
-3
390
F
  0
LAYER
  5
200
100
AcDbSymbolTableRecord
100
AcDbLayerTableRecord
  2
02_COORD_SYS
 70
0
 62
7
  6
CONTINUOUS
370
-3
390
F
  0
LAYER
  5
201
100
AcDbSymbolTableRecord
100
AcDbLayerTableRecord
  2
03_AXES
 70
0
 62
7
  6
CONTINUOUS
370
-3
390
F
  0
LAYER
  5
202
100
AcDbSymbolTableRecord
100
AcDbLayerTableRecord
  2
04_POINTS
 70
0
 62
7
  6
CONTINUOUS
370
-3
390
F
  0
LAYER
  5
203
100
AcDbSymbolTableRecord
100
AcDbLayerTableRecord
  2
05_CURVES
 70
0
 62
7
  6
CONTINUOUS
370
-3
390
F
  0
LAYER
  5
204
100
AcDbSymbolTableRecord
100
AcDbLayerTableRecord
  2
06_SURFS
 70
0
 62
7
  6
CONTINUOUS
370
-3
390
F
  0
LAYER
  5
205
100
AcDbSymbolTableRecord
100
AcDbLayerTableRecord
  2
07_COSMETICS
 70
0
 62
7
  6
CONTINUOUS
370
-3
390
F
  0
LAYER
  5
206
100
AcDbSymbolTableRecord
100
AcDbLayerTableRecord
  2
10_NOTES
 70
0
 62
7
  6
CONTINUOUS
370
-3
390
F
  0
LAYER
  5
207
100
AcDbSymbolTableRecord
100
AcDbLayerTableRecord
  2
11_NOTES_PUB
 70
0
 62
7
  6
CONTINUOUS
370
-3
390
F
  0
LAYER
  5
208
100
AcDbSymbolTableRecord
100
AcDbLayerTableRecord
  2
13_REF_GTOL
 70
0
 62
7
  6
CONTINUOUS
370
-3
390
F
  0
LAYER
  5
209
100
AcDbSymbolTableRecord
100
AcDbLayerTableRecord
  2
16_MISC
 70
0
 62
7
  6
CONTINUOUS
370
-3
390
F
  0
LAYER
  5
20A
100
AcDbSymbolTableRecord
100
AcDbLayerTableRecord
  2
17_NO_PRINT
 70
0
 62
7
  6
CONTINUOUS
370
-3
390
F
  0
LAYER
  5
20B
100
AcDbSymbolTableRecord
100
AcDbLayerTableRecord
  2
18_DATUM_CAMS_JOINTS
 70
0
 62
7
  6
CONTINUOUS
370
-3
390
F
  0
LAYER
  5
20C
100
AcDbSymbolTableRecord
100
AcDbLayerTableRecord
  2
19_DATUM_FUNCTIONAL
 70
0
 62
7
  6
CONTINUOUS
370
-3
390
F
  0
LAYER
  5
20D
100
AcDbSymbolTableRecord
100
AcDbLayerTableRecord
  2
20_DATUM_KINEMATIC_SCHEME
 70
0
 62
7
  6
CONTINUOUS
370
-3
390
F
  0
ENDTAB
  0
TABLE
  2
STYLE
  5
3
100
AcDbSymbolTable
 70
1
  0
STYLE
  5
11
100
AcDbSymbolTableRecord
100
AcDbTextStyleTableRecord
  2
STANDARD
 70
0
 40
0.0
 41
1.0
 50
0.0
 71
0
 42
0.2
  3
ARIAL.TTF
  4

  0
STYLE
  5
20E
100
AcDbSymbolTableRecord
100
AcDbTextStyleTableRecord
  2
TEXTSTYLE_1
 70
0
 40
0.0
 41
0.8
 50
0.0
 71
0
 42
0.2
  3
gdt
  4

  0
ENDTAB
  0
TABLE
  2
VIEW
  5
6
100
AcDbSymbolTable
 70
0
  0
ENDTAB
  0
TABLE
  2
UCS
  5
7
100
AcDbSymbolTable
 70
0
  0
ENDTAB
  0
TABLE
  2
APPID
  5
9
100
AcDbSymbolTable
 70
1
  0
APPID
  5
20F
100
AcDbSymbolTableRecord
100
AcDbRegAppTableRecord
  2
ACAD
 70
0
  0
ENDTAB
  0
TABLE
  2
BLOCK_RECORD
  5
1
100
AcDbSymbolTable
 70
0
  0
BLOCK_RECORD
  5
210
100
AcDbSymbolTableRecord
100
AcDbBlockTableRecord
  2
*Model_Space
  0
BLOCK_RECORD
  5
211
100
AcDbSymbolTableRecord
100
AcDbBlockTableRecord
  2
*Paper_Space
  0
BLOCK_RECORD
  5
212
100
AcDbSymbolTableRecord
100
AcDbBlockTableRecord
  2
_FILLED
  0
ENDTAB
  0
TABLE
  2
DIMSTYLE
  5
A
100
AcDbSymbolTable
 70
1
100
AcDbDimStyleTable
 71
0
  0
DIMSTYLE
105
213
100
AcDbSymbolTableRecord
100
AcDbDimStyleTableRecord
  2
STANDARD
 70
0
  3

  4

 40
1.0
 41
0.4655154305
 42
1.0
 43
0.38
 44
1.0
 45
0.0
 46
0.0
 47
0.01
 48
0.01
140
0.6517216026
141
0.09
142
0.0
143
25.4
144
1.0
145
0.0
146
1.0
147
0.625
 71
1
 72
0
 73
0
 74
0
 75
0
 76
0
 77
1
 78
8
 79
2
170
0
171
1
172
0
173
0
174
0
175
0
176
0
177
0
178
0
270
2
179
2
271
2
272
2
273
2
274
2
275
0
280
0
281
0
282
0
283
1
284
8
285
0
286
0
287
3
288
0
340
11
278
46
341
212
342
212
343
212
344
212
  0
ENDTAB
  0
ENDSEC
  0
SECTION
  2
BLOCKS
  0
BLOCK
  5
20
100
AcDbEntity
  8
0
100
AcDbBlockBegin
  2
*Model_Space
 70
0
 10
0.0
 20
0.0
 30
0.0
  3
*Model_Space
  1

  0
ENDBLK
  5
21
100
AcDbEntity
  8
0
100
AcDbBlockEnd
  0
BLOCK
  5
1C
100
AcDbEntity
  8
0
100
AcDbBlockBegin
  2
*Paper_Space
 70
0
 10
0.0
 20
0.0
 30
0.0
  3
*Paper_Space
  1

  0
ENDBLK
  5
1D
100
AcDbEntity
  8
0
100
AcDbBlockEnd
  0
BLOCK
  5
214
100
AcDbEntity
  8
0
100
AcDbBlockBegin
  2
_FILLED
 70
64
 10
0.0
 20
0.0
  3
_FILLED
  1

  0
SOLID
  5
215
100
AcDbEntity
  8
0
  6
BYBLOCK
 62
0
100
AcDbTrace
 10
0.0
 20
0.0
 11
-1.0
 21
0.25
 12
-1.0
 22
-0.25
 13
-1.0
 23
-0.25
  0
ENDBLK
  5
216
100
AcDbEntity
  8
0
  6
BYBLOCK
 62
0
100
AcDbBlockEnd
  0
ENDSEC
  0
SECTION
  2
ENTITIES
  0
LINE
  5
217
100
AcDbEntity
  8
0
100
AcDbLine
 62
7
  6
BYLAYER
 10
14.040107384
 20
4.5691165689
 11
25.7400949324
 21
4.5691165689
  0
LINE
  5
218
100
AcDbEntity
  8
0
100
AcDbLine
 62
7
  6
BYLAYER
 10
26.2401011582
 20
5.0691165689
 11
13.5401011582
 21
5.0691165689
  0
LINE
  5
219
100
AcDbEntity
  8
0
100
AcDbLine
 62
7
  6
BYLAYER
 10
13.5402032797
 20
7.0691165689
 11
26.2399990367
 21
7.0691165689
  0
LINE
  5
21A
100
AcDbEntity
  8
0
100
AcDbLine
 62
7
  6
BYLAYER
 10
26.0400938947
 20
8.2691165689
 11
13.7401084217
 21
8.2691165689
  0
LINE
  5
21B
100
AcDbEntity
  8
0
100
AcDbLine
 62
7
  6
BYLAYER
 10
26.2401011582
 20
8.4691165689
 11
13.5401011582
 21
8.4691165689
  0
LINE
  5
21C
100
AcDbEntity
  8
0
100
AcDbLine
 62
7
  6
BYLAYER
 10
13.5402032797
 20
9.4191165689
 11
26.2399990367
 21
9.4191165689
  0
LINE
  5
21D
100
AcDbEntity
  8
0
100
AcDbLine
 62
7
  6
BYLAYER
 10
16.3901011582
 20
47.9691165689
 11
16.5901011582
 21
48.1691165689
  0
LINE
  5
21E
100
AcDbEntity
  8
0
100
AcDbLine
 62
7
  6
BYLAYER
 10
26.5900994046
 20
10.7691165689
 11
13.1902080131
 21
10.7691165689
  0
LINE
  5
21F
100
AcDbEntity
  8
0
100
AcDbLine
 62
7
  6
BYLAYER
 10
26.6146533455
 20
10.8691165689
 11
26.5901011582
 21
10.8691165689
  0
LINE
  5
220
100
AcDbEntity
  8
0
100
AcDbLine
 62
7
  6
BYLAYER
 10
19.4552384745
 20
10.8691165689
 11
18.5524181515
 21
10.8691165689
  0
LINE
  5
221
100
AcDbEntity
  8
0
100
AcDbLine
 62
7
  6
BYLAYER
 10
26.668243184
 20
11.0691165689
 11
26.5901011582
 21
11.0691165689
  0
LINE
  5
222
100
AcDbEntity
  8
0
100
AcDbLine
 62
7
  6
BYLAYER
 10
19.508828313
 20
11.0691165689
 11
18.498828313
 21
11.0691165689
  0
LINE
  5
223
100
AcDbEntity
  8
0
100
AcDbLine
 62
7
  6
BYLAYER
 10
13.7401011582
 20
8.2691165689
 11
13.5401011582
 21
8.4691165689
  0
LINE
  5
224
100
AcDbEntity
  8
0
100
AcDbLine
 62
7
  6
BYLAYER
 10
15.4401011582
 20
42.8691165689
 11
14.6401011582
 21
42.0691165689
  0
LINE
  5
225
100
AcDbEntity
  8
0
100
AcDbLine
 62
7
  6
BYLAYER
 10
27.8400928031
 20
12.8691165689
 11
11.9401095133
 21
12.8691165689
  0
LINE
  5
226
100
AcDbEntity
  8
0
100
AcDbLine
 62
7
  6
BYLAYER
 10
29.7050557344
 20
17.4514575857
 11
28.3901011582
 21
17.0991165689
  0
LINE
  5
227
100
AcDbEntity
  8
0
100
AcDbLine
 62
7
  6
BYLAYER
 10
11.9401011582
 20
14.6691165689
 11
27.8401011582
 21
14.6691165689
  0
LINE
  5
228
100
AcDbEntity
  8
0
100
AcDbLine
 62
7
  6
BYLAYER
 10
12.1402312848
 20
14.8691165689
 11
27.6399710316
 21
14.8691165689
  0
LINE
  5
229
100
AcDbEntity
  8
0
100
AcDbLine
 62
7
  6
BYLAYER
 10
11.3901011582
 20
17.0991165689
 11
10.075146582
 21
17.4514575857
  0
LINE
  5
22A
100
AcDbEntity
  8
0
100
AcDbLine
 62
7
  6
BYLAYER
 10
10.075146582
 20
24.2467755521
 11
10.075146582
 21
21.4514575857
  0
LINE
  5
22B
100
AcDbEntity
  8
0
100
AcDbLine
 62
7
  6
BYLAYER
 10
10.075146582
 20
20.2467755521
 11
10.075146582
 21
17.4514575857
  0
LINE
  5
22C
100
AcDbEntity
  8
0
100
AcDbLine
 62
7
  6
BYLAYER
 10
28.3901011582
 20
17.0991165689
 11
11.3901011582
 21
17.0991165689
  0
LINE
  5
22D
100
AcDbEntity
  8
0
100
AcDbLine
 62
7
  6
BYLAYER
 10
13.8901011582
 20
33.3191165689
 11
14.6401011582
 21
34.0691165689
  0
LINE
  5
22E
100
AcDbEntity
  8
0
100
AcDbLine
 62
7
  6
BYLAYER
 10
29.7050557344
 20
21.4514575857
 11
28.3901011582
 21
21.0991165689
  0
LINE
  5
22F
100
AcDbEntity
  8
0
100
AcDbLine
 62
7
  6
BYLAYER
 10
11.3901011582
 20
21.0991165689
 11
10.075146582
 21
21.4514575857
  0
LINE
  5
230
100
AcDbEntity
  8
0
100
AcDbLine
 62
7
  6
BYLAYER
 10
11.9401011582
 20
14.6691165689
 11
11.9401011582
 21
12.8691165689
  0
LINE
  5
231
100
AcDbEntity
  8
0
100
AcDbLine
 62
7
  6
BYLAYER
 10
13.1901011582
 20
12.8691165689
 11
13.1901011582
 21
10.7691165689
  0
LINE
  5
232
100
AcDbEntity
  8
0
100
AcDbLine
 62
7
  6
BYLAYER
 10
11.3901011582
 20
20.5991165689
 11
28.3901011582
 21
20.5991165689
  0
LINE
  5
233
100
AcDbEntity
  8
0
100
AcDbLine
 62
7
  6
BYLAYER
 10
28.3901011582
 20
21.0991165689
 11
11.3901011582
 21
21.0991165689
  0
LINE
  5
234
100
AcDbEntity
  8
0
100
AcDbLine
 62
7
  6
BYLAYER
 10
13.5401011582
 20
5.0691165689
 11
13.5401011582
 21
7.0691165689
  0
LINE
  5
235
100
AcDbEntity
  8
0
100
AcDbLine
 62
7
  6
BYLAYER
 10
13.5401011582
 20
8.4691165689
 11
13.5401011582
 21
9.4191165689
  0
LINE
  5
236
100
AcDbEntity
  8
0
100
AcDbLine
 62
7
  6
BYLAYER
 10
13.8901011582
 20
14.8691165689
 11
13.8901011582
 21
17.0991165689
  0
LINE
  5
237
100
AcDbEntity
  8
0
100
AcDbLine
 62
7
  6
BYLAYER
 10
13.8901011582
 20
20.5991165689
 11
13.8901011582
 21
21.0991165689
  0
LINE
  5
238
100
AcDbEntity
  8
0
100
AcDbLine
 62
7
  6
BYLAYER
 10
13.8901011582
 20
24.5991165689
 11
13.8901011582
 21
33.3191165689
  0
LINE
  5
239
100
AcDbEntity
  8
0
100
AcDbLine
 62
7
  6
BYLAYER
 10
14.2901011582
 20
7.0691165689
 11
14.2901011582
 21
8.2691165689
  0
LINE
  5
23A
100
AcDbEntity
  8
0
100
AcDbLine
 62
7
  6
BYLAYER
 10
14.3901011582
 20
9.4191165689
 11
14.3901011582
 21
10.7691165689
  0
LINE
  5
23B
100
AcDbEntity
  8
0
100
AcDbLine
 62
7
  6
BYLAYER
 10
14.6401011582
 20
42.0691165689
 11
14.6401011582
 21
34.0691165689
  0
LINE
  5
23C
100
AcDbEntity
  8
0
100
AcDbLine
 62
7
  6
BYLAYER
 10
14.9826238701
 20
24.2467755521
 11
14.9826238701
 21
21.4514575857
  0
LINE
  5
23D
100
AcDbEntity
  8
0
100
AcDbLine
 62
7
  6
BYLAYER
 10
14.9826238701
 20
20.2467755521
 11
14.9826238701
 21
17.4514575857
  0
LINE
  5
23E
100
AcDbEntity
  8
0
100
AcDbLine
 62
7
  6
BYLAYER
 10
18.498828313
 20
11.0691165689
 11
18.5524181515
 21
10.8691165689
  0
LINE
  5
23F
100
AcDbEntity
  8
0
100
AcDbLine
 62
7
  6
BYLAYER
 10
16.3901011582
 20
47.9691165689
 11
16.3901011582
 21
47.3441165689
  0
LINE
  5
240
100
AcDbEntity
  8
0
100
AcDbLine
 62
7
  6
BYLAYER
 10
16.3901011582
 20
43.5941165689
 11
16.3901011582
 21
42.8691165689
  0
LINE
  5
241
100
AcDbEntity
  8
0
100
AcDbLine
 62
7
  6
BYLAYER
 10
10.075146582
 20
20.2467755521
 11
11.3901011582
 21
20.5991165689
  0
LINE
  5
242
100
AcDbEntity
  8
0
100
AcDbLine
 62
7
  6
BYLAYER
 10
28.3901011582
 20
20.5991165689
 11
29.7050557344
 21
20.2467755521
  0
LINE
  5
243
100
AcDbEntity
  8
0
100
AcDbLine
 62
7
  6
BYLAYER
 10
18.0901011582
 20
34.0691165689
 11
18.0901011582
 21
42.8691165689
  0
LINE
  5
244
100
AcDbEntity
  8
0
100
AcDbLine
 62
7
  6
BYLAYER
 10
18.1401011582
 20
39.2190706314
 11
18.1401011582
 21
48.1691165689
  0
LINE
  5
245
100
AcDbEntity
  8
0
100
AcDbLine
 62
7
  6
BYLAYER
 10
18.2151011582
 20
40.5521126372
 11
18.2151011582
 21
50.3161205007
  0
LINE
  5
246
100
AcDbEntity
  8
0
100
AcDbLine
 62
7
  6
BYLAYER
 10
18.35733525
 20
50.5076388829
 11
18.3572579848
 21
40.3606175982
  0
LINE
  5
247
100
AcDbEntity
  8
0
100
AcDbLine
 62
7
  6
BYLAYER
 10
11.3901011582
 20
24.5991165689
 11
28.3901011582
 21
24.5991165689
  0
LINE
  5
248
100
AcDbEntity
  8
0
100
AcDbLine
 62
7
  6
BYLAYER
 10
18.498828313
 20
12.8691165689
 11
18.498828313
 21
11.0691165689
  0
LINE
  5
249
100
AcDbEntity
  8
0
100
AcDbLine
 62
7
  6
BYLAYER
 10
18.5437404006
 20
10.9015023761
 11
18.5437404006
 21
10.7691165689
  0
LINE
  5
24A
100
AcDbEntity
  8
0
100
AcDbLine
 62
7
  6
BYLAYER
 10
19.4918707451
 20
11.0058300639
 11
19.4918707451
 21
10.7691165689
  0
LINE
  5
24B
100
AcDbEntity
  8
0
100
AcDbLine
 62
7
  6
BYLAYER
 10
19.508828313
 20
12.8691165689
 11
19.508828313
 21
11.0691165689
  0
LINE
  5
24C
100
AcDbEntity
  8
0
100
AcDbLine
 62
7
  6
BYLAYER
 10
10.075146582
 20
24.2467755521
 11
11.3901011582
 21
24.5991165689
  0
LINE
  5
24D
100
AcDbEntity
  8
0
100
AcDbLine
 62
7
  6
BYLAYER
 10
28.3901011582
 20
24.5991165689
 11
29.7050557344
 21
24.2467755521
  0
LINE
  5
24E
100
AcDbEntity
  8
0
100
AcDbLine
 62
7
  6
BYLAYER
 10
21.4228641797
 20
45.4718468378
 11
21.4228646347
 21
50.5076396176
  0
LINE
  5
24F
100
AcDbEntity
  8
0
100
AcDbLine
 62
7
  6
BYLAYER
 10
21.4229443316
 20
40.3606175982
 11
21.4229443316
 21
45.4341165689
  0
LINE
  5
250
100
AcDbEntity
  8
0
100
AcDbLine
 62
7
  6
BYLAYER
 10
21.5651011582
 20
40.5521124705
 11
21.5651011582
 21
50.3161206673
  0
LINE
  5
251
100
AcDbEntity
  8
0
100
AcDbLine
 62
7
  6
BYLAYER
 10
21.6401011582
 20
39.2190706314
 11
21.6401011582
 21
48.1691165689
  0
LINE
  5
252
100
AcDbEntity
  8
0
100
AcDbLine
 62
7
  6
BYLAYER
 10
21.6901011582
 20
34.0691165689
 11
21.6901011582
 21
42.8691165689
  0
LINE
  5
253
100
AcDbEntity
  8
0
100
AcDbLine
 62
7
  6
BYLAYER
 10
23.3901011582
 20
47.9691165689
 11
23.3901011582
 21
47.3441165689
  0
LINE
  5
254
100
AcDbEntity
  8
0
100
AcDbLine
 62
7
  6
BYLAYER
 10
23.3901011582
 20
43.5941165689
 11
23.3901011582
 21
42.8691165689
  0
LINE
  5
255
100
AcDbEntity
  8
0
100
AcDbLine
 62
7
  6
BYLAYER
 10
24.7975784463
 20
24.2467755521
 11
24.7975784463
 21
21.4514575857
  0
LINE
  5
256
100
AcDbEntity
  8
0
100
AcDbLine
 62
7
  6
BYLAYER
 10
24.7975784463
 20
20.2467755521
 11
24.7975784463
 21
17.4514575857
  0
LINE
  5
257
100
AcDbEntity
  8
0
100
AcDbLine
 62
7
  6
BYLAYER
 10
19.508828313
 20
11.0691165689
 11
19.4552384745
 21
10.8691165689
  0
LINE
  5
258
100
AcDbEntity
  8
0
100
AcDbLine
 62
7
  6
BYLAYER
 10
25.1401011582
 20
42.0691165689
 11
25.1401011582
 21
34.0691165689
  0
LINE
  5
259
100
AcDbEntity
  8
0
100
AcDbLine
 62
7
  6
BYLAYER
 10
25.3901011582
 20
9.4191165689
 11
25.3901011582
 21
10.7691165689
  0
LINE
  5
25A
100
AcDbEntity
  8
0
100
AcDbLine
 62
7
  6
BYLAYER
 10
25.4901011582
 20
7.0691165689
 11
25.4901011582
 21
8.2691165689
  0
LINE
  5
25B
100
AcDbEntity
  8
0
100
AcDbLine
 62
7
  6
BYLAYER
 10
25.8901011582
 20
14.8691165689
 11
25.8901011582
 21
17.0991165689
  0
LINE
  5
25C
100
AcDbEntity
  8
0
100
AcDbLine
 62
7
  6
BYLAYER
 10
25.8901011582
 20
20.5991165689
 11
25.8901011582
 21
21.0991165689
  0
LINE
  5
25D
100
AcDbEntity
  8
0
100
AcDbLine
 62
7
  6
BYLAYER
 10
25.8901011582
 20
24.5991165689
 11
25.8901011582
 21
33.3191165689
  0
LINE
  5
25E
100
AcDbEntity
  8
0
100
AcDbLine
 62
7
  6
BYLAYER
 10
26.2401011582
 20
5.0691165689
 11
26.2401011582
 21
7.0691165689
  0
LINE
  5
25F
100
AcDbEntity
  8
0
100
AcDbLine
 62
7
  6
BYLAYER
 10
26.2401011582
 20
8.4691165689
 11
26.2401011582
 21
9.4191165689
  0
LINE
  5
260
100
AcDbEntity
  8
0
100
AcDbLine
 62
7
  6
BYLAYER
 10
26.5901011582
 20
12.8691165689
 11
26.5901011582
 21
10.7691165689
  0
LINE
  5
261
100
AcDbEntity
  8
0
100
AcDbLine
 62
7
  6
BYLAYER
 10
26.668243184
 20
12.8691165689
 11
26.668243184
 21
11.0691165689
  0
LINE
  5
262
100
AcDbEntity
  8
0
100
AcDbLine
 62
7
  6
BYLAYER
 10
13.8901011582
 20
33.3191165689
 11
25.8901011582
 21
33.3191165689
  0
LINE
  5
263
100
AcDbEntity
  8
0
100
AcDbLine
 62
7
  6
BYLAYER
 10
14.6401011582
 20
34.0691165689
 11
25.1401011582
 21
34.0691165689
  0
LINE
  5
264
100
AcDbEntity
  8
0
100
AcDbLine
 62
7
  6
BYLAYER
 10
27.8401011582
 20
14.6691165689
 11
27.8401011582
 21
12.8691165689
  0
LINE
  5
265
100
AcDbEntity
  8
0
100
AcDbLine
 62
7
  6
BYLAYER
 10
25.8901011582
 20
33.3191165689
 11
25.1401011582
 21
34.0691165689
  0
LINE
  5
266
100
AcDbEntity
  8
0
100
AcDbLine
 62
7
  6
BYLAYER
 10
29.7050557344
 20
24.2467755521
 11
29.7050557344
 21
21.4514575857
  0
LINE
  5
267
100
AcDbEntity
  8
0
100
AcDbLine
 62
7
  6
BYLAYER
 10
29.7050557344
 20
20.2467755521
 11
29.7050557344
 21
17.4514575857
  0
LINE
  5
268
100
AcDbEntity
  8
0
100
AcDbLine
 62
7
  6
BYLAYER
 10
26.668243184
 20
11.0691165689
 11
26.6146533455
 21
10.8691165689
  0
LINE
  5
269
100
AcDbEntity
  8
0
100
AcDbLine
 62
7
  6
BYLAYER
 10
18.1401011582
 20
39.2190706314
 11
21.6401011582
 21
39.2190706314
  0
LINE
  5
26A
100
AcDbEntity
  8
0
100
AcDbLine
 62
7
  6
BYLAYER
 10
14.6401011582
 20
42.0691165689
 11
18.0901011582
 21
42.0691165689
  0
LINE
  5
26B
100
AcDbEntity
  8
0
100
AcDbLine
 62
7
  6
BYLAYER
 10
21.6901011582
 20
42.0691165689
 11
25.1401011582
 21
42.0691165689
  0
LINE
  5
26C
100
AcDbEntity
  8
0
100
AcDbLine
 62
7
  6
BYLAYER
 10
15.440210971
 20
42.8691165689
 11
18.0901011582
 21
42.8691165689
  0
LINE
  5
26D
100
AcDbEntity
  8
0
100
AcDbLine
 62
7
  6
BYLAYER
 10
21.6901011582
 20
42.8691165689
 11
24.3399913454
 21
42.8691165689
  0
LINE
  5
26E
100
AcDbEntity
  8
0
100
AcDbLine
 62
7
  6
BYLAYER
 10
24.3401011582
 20
42.8691165689
 11
25.1401011582
 21
42.0691165689
  0
LINE
  5
26F
100
AcDbEntity
  8
0
100
AcDbLine
 62
7
  6
BYLAYER
 10
18.1401011582
 20
44.2041165689
 11
18.2151011582
 21
44.2041165689
  0
LINE
  5
270
100
AcDbEntity
  8
0
100
AcDbLine
 62
7
  6
BYLAYER
 10
21.5651011582
 20
44.2041165689
 11
21.6401011582
 21
44.2041165689
  0
LINE
  5
271
100
AcDbEntity
  8
0
100
AcDbLine
 62
7
  6
BYLAYER
 10
23.1901011582
 20
48.1691165689
 11
23.3901011582
 21
47.9691165689
  0
LINE
  5
272
100
AcDbEntity
  8
0
100
AcDbLine
 62
7
  6
BYLAYER
 10
26.0401011582
 20
8.2691165689
 11
26.2401011582
 21
8.4691165689
  0
LINE
  5
273
100
AcDbEntity
  8
0
100
AcDbLine
 62
7
  6
BYLAYER
 10
21.6401011582
 20
46.7341165689
 11
21.5651011582
 21
46.7341165689
  0
LINE
  5
274
100
AcDbEntity
  8
0
100
AcDbLine
 62
7
  6
BYLAYER
 10
18.2151011582
 20
46.7341165689
 11
18.1401011582
 21
46.7341165689
  0
LINE
  5
275
100
AcDbEntity
  8
0
100
AcDbLine
 62
7
  6
BYLAYER
 10
16.3901011582
 20
47.9691165689
 11
18.1401011582
 21
47.9691165689
  0
LINE
  5
276
100
AcDbEntity
  8
0
100
AcDbLine
 62
7
  6
BYLAYER
 10
21.6401011582
 20
47.9691165689
 11
23.3901011582
 21
47.9691165689
  0
LINE
  5
277
100
AcDbEntity
  8
0
100
AcDbLine
 62
7
  6
BYLAYER
 10
16.5901011582
 20
48.1691165689
 11
18.1401011582
 21
48.1691165689
  0
LINE
  5
278
100
AcDbEntity
  8
0
100
AcDbLine
 62
7
  6
BYLAYER
 10
21.6401011582
 20
48.1691165689
 11
23.1901011582
 21
48.1691165689
  0
ARC
  5
279
100
AcDbEntity
  8
0
100
AcDbCircle
 62
7
  6
BYLAYER
 10
19.8901011582
 20
45.4341165689
 40
5.3
100
AcDbArc
 50
253.1889938645
 51
286.8110061355
  0
ARC
  5
27A
100
AcDbEntity
  8
0
100
AcDbCircle
 62
7
  6
BYLAYER
 10
19.8901011582
 20
45.4341165689
 40
5.3
100
AcDbArc
 50
73.1889938643
 51
106.8110061368
  0
ARC
  5
27B
100
AcDbEntity
  8
0
100
AcDbCircle
 62
7
  6
BYLAYER
 10
25.7401011582
 20
5.0691165689
 40
0.5
100
AcDbArc
 50
270.0
 51
360.0
  0
ARC
  5
27C
100
AcDbEntity
  8
0
100
AcDbCircle
 62
7
  6
BYLAYER
 10
14.0401011582
 20
5.0691165689
 40
0.5
100
AcDbArc
 50
180.0
 51
270.0
  0
ARC
  5
27D
100
AcDbEntity
  8
0
100
AcDbCircle
 62
7
  6
BYLAYER
 10
18.4151011582
 20
50.3161627588
 40
0.2
100
AcDbArc
 50
106.8110169463
 51
180.0
  0
ARC
  5
27E
100
AcDbEntity
  8
0
100
AcDbCircle
 62
7
  6
BYLAYER
 10
18.4151011582
 20
40.552070379
 40
0.2
100
AcDbArc
 50
180.0
 51
253.1889830537
  0
ARC
  5
27F
100
AcDbEntity
  8
0
100
AcDbCircle
 62
7
  6
BYLAYER
 10
21.3651011582
 20
40.552070379
 40
0.2
100
AcDbArc
 50
286.8110169452
 51
360.0
  0
ARC
  5
280
100
AcDbEntity
  8
0
100
AcDbCircle
 62
7
  6
BYLAYER
 10
21.3651011582
 20
50.3161627588
 40
0.2
100
AcDbArc
 50
0.0
 51
73.1889830548
  0
ARC
  5
281
100
AcDbEntity
  8
0
100
AcDbCircle
 62
7
  6
BYLAYER
 10
12.1401011582
 20
14.6691165689
 40
0.2
100
AcDbArc
 50
90.0
 51
180.0
  0
ARC
  5
282
100
AcDbEntity
  8
0
100
AcDbCircle
 62
7
  6
BYLAYER
 10
27.6401011582
 20
14.6691165689
 40
0.2
100
AcDbArc
 50
0.0
 51
90.0
  0
LINE
  5
283
100
AcDbEntity
  8
0
100
AcDbLine
 62
7
  6
BYLAYER
 10
21.4230161995
 20
45.4341165689
 11
21.4228641797
 21
45.4718468378
  0
SPLINE
  5
284
100
AcDbEntity
  8
0
100
AcDbSpline
 62
7
  6
BYLAYER
 70
0
 71
3
 72
11
 73
7
 74
0
 42
0.0000001
 43
0.0000001
 44
0.0000000001
 40
0.0
 40
0.0
 40
0.0
 40
0.0
 40
0.2500019724
 40
0.5000023334
 40
0.7500012115
 40
1.0
 40
1.0
 40
1.0
 40
1.0
 10
24.7975784463
 20
17.4514575857
 30
0.0
 10
24.3909085854
 20
17.3969741553
 30
0.0
 10
23.5761843844
 20
17.2979703775
 30
0.0
 10
22.3502187685
 20
17.1855544374
 30
0.0
 10
21.1210810723
 20
17.1151323116
 30
0.0
 10
20.3003992604
 20
17.0991165689
 30
0.0
 10
19.890101159
 20
17.0991165689
 30
0.0
  0
SPLINE
  5
285
100
AcDbEntity
  8
0
100
AcDbSpline
 62
7
  6
BYLAYER
 70
0
 71
3
 72
11
 73
7
 74
0
 42
0.0000001
 43
0.0000001
 44
0.0000000001
 40
0.0
 40
0.0
 40
0.0
 40
0.0
 40
0.24999879
 40
0.4999976682
 40
0.7499980293
 40
1.0
 40
1.0
 40
1.0
 40
1.0
 10
19.890101159
 20
17.0991165689
 30
0.0
 10
19.4798030552
 20
17.0991165689
 30
0.0
 10
18.6591212414
 20
17.1151323206
 30
0.0
 10
17.4299835384
 20
17.1855544023
 30
0.0
 10
16.2040179373
 20
17.2979704713
 30
0.0
 10
15.3892937283
 20
17.3969741556
 30
0.0
 10
14.9826238701
 20
17.4514575857
 30
0.0
  0
SPLINE
  5
286
100
AcDbEntity
  8
0
100
AcDbSpline
 62
7
  6
BYLAYER
 70
0
 71
3
 72
11
 73
7
 74
0
 42
0.0000001
 43
0.0000001
 44
0.0000000001
 40
0.0
 40
0.0
 40
0.0
 40
0.0
 40
0.2528702685
 40
0.5034894095
 40
0.7522694284
 40
1.0
 40
1.0
 40
1.0
 40
1.0
 10
14.9826238701
 20
17.4514575857
 30
0.0
 10
14.7802409664
 20
17.3972292501
 30
0.0
 10
14.3746810913
 20
17.2985588215
 30
0.0
 10
13.7612310896
 20
17.1858885136
 30
0.0
 10
13.1457152881
 20
17.1152148931
 30
0.0
 10
12.7341487972
 20
17.0991165689
 30
0.0
 10
12.5288852265
 20
17.0991165689
 30
0.0
  0
SPLINE
  5
287
100
AcDbEntity
  8
0
100
AcDbSpline
 62
7
  6
BYLAYER
 70
0
 71
3
 72
11
 73
7
 74
0
 42
0.0000001
 43
0.0000001
 44
0.0000000001
 40
0.0
 40
0.0
 40
0.0
 40
0.0
 40
0.2477305731
 40
0.4965105923
 40
0.7471297326
 40
1.0
 40
1.0
 40
1.0
 40
1.0
 10
12.5288852265
 20
20.5991165689
 30
0.0
 10
12.7341487985
 20
20.5991165689
 30
0.0
 10
13.145715291
 20
20.5830182452
 30
0.0
 10
13.7612310929
 20
20.5123446203
 30
0.0
 10
14.3746810937
 20
20.3996743155
 30
0.0
 10
14.7802409674
 20
20.3010038875
 30
0.0
 10
14.9826238701
 20
20.2467755521
 30
0.0
  0
SPLINE
  5
288
100
AcDbEntity
  8
0
100
AcDbSpline
 62
7
  6
BYLAYER
 70
0
 71
3
 72
11
 73
7
 74
0
 42
0.0000001
 43
0.0000001
 44
0.0000000001
 40
0.0
 40
0.0
 40
0.0
 40
0.0
 40
0.2500019719
 40
0.5000023336
 40
0.7500012116
 40
1.0
 40
1.0
 40
1.0
 40
1.0
 10
14.9826238701
 20
20.2467755521
 30
0.0
 10
15.3892937301
 20
20.3012589824
 30
0.0
 10
16.2040179417
 20
20.4002626673
 30
0.0
 10
17.4299835449
 20
20.5126787394
 30
0.0
 10
18.659121246
 20
20.5831008167
 30
0.0
 10
19.4798030566
 20
20.5991165689
 30
0.0
 10
19.8901011577
 20
20.5991165689
 30
0.0
  0
SPLINE
  5
289
100
AcDbEntity
  8
0
100
AcDbSpline
 62
7
  6
BYLAYER
 70
0
 71
3
 72
11
 73
7
 74
0
 42
0.0000001
 43
0.0000001
 44
0.0000000001
 40
0.0
 40
0.0
 40
0.0
 40
0.0
 40
0.2528702647
 40
0.5034894097
 40
0.7522694285
 40
1.0
 40
1.0
 40
1.0
 40
1.0
 10
10.075146582
 20
20.2467755521
 30
0.0
 10
10.2775294826
 20
20.3010038869
 30
0.0
 10
10.6830893778
 20
20.3996742258
 30
0.0
 10
11.2965393546
 20
20.5123446618
 30
0.0
 10
11.912055167
 20
20.5830182356
 30
0.0
 10
12.3236216559
 20
20.5991165689
 30
0.0
 10
12.5288852265
 20
20.5991165689
 30
0.0
  0
SPLINE
  5
28A
100
AcDbEntity
  8
0
100
AcDbSpline
 62
7
  6
BYLAYER
 70
0
 71
3
 72
11
 73
7
 74
0
 42
0.0000001
 43
0.0000001
 44
0.0000000001
 40
0.0
 40
0.0
 40
0.0
 40
0.0
 40
0.2528702647
 40
0.5034894097
 40
0.7522694285
 40
1.0
 40
1.0
 40
1.0
 40
1.0
 10
24.7975784463
 20
20.2467755521
 30
0.0
 10
24.9999613468
 20
20.3010038869
 30
0.0
 10
25.4055212418
 20
20.3996742257
 30
0.0
 10
26.0189712183
 20
20.5123446617
 30
0.0
 10
26.6344870304
 20
20.5830182355
 30
0.0
 10
27.0460535191
 20
20.5991165689
 30
0.0
 10
27.2513170896
 20
20.5991165689
 30
0.0
  0
SPLINE
  5
28B
100
AcDbEntity
  8
0
100
AcDbSpline
 62
7
  6
BYLAYER
 70
0
 71
3
 72
11
 73
7
 74
0
 42
0.0000001
 43
0.0000001
 44
0.0000000001
 40
0.0
 40
0.0
 40
0.0
 40
0.0
 40
0.2499987901
 40
0.4999976683
 40
0.7499980287
 40
1.0
 40
1.0
 40
1.0
 40
1.0
 10
19.8901011577
 20
20.5991165689
 30
0.0
 10
20.3003992618
 20
20.5991165689
 30
0.0
 10
21.1210810768
 20
20.5831008268
 30
0.0
 10
22.3502187749
 20
20.5126786965
 30
0.0
 10
23.5761843887
 20
20.4002627596
 30
0.0
 10
24.3909085871
 20
20.3012589823
 30
0.0
 10
24.7975784463
 20
20.2467755521
 30
0.0
  0
SPLINE
  5
28C
100
AcDbEntity
  8
0
100
AcDbSpline
 62
7
  6
BYLAYER
 70
0
 71
3
 72
11
 73
7
 74
0
 42
0.0000001
 43
0.0000001
 44
0.0000000001
 40
0.0
 40
0.0
 40
0.0
 40
0.0
 40
0.2477305731
 40
0.4965105922
 40
0.7471297364
 40
1.0
 40
1.0
 40
1.0
 40
1.0
 10
12.5288852265
 20
17.0991165689
 30
0.0
 10
12.3236216546
 20
17.0991165689
 30
0.0
 10
11.9120551641
 20
17.1152149017
 30
0.0
 10
11.2965393513
 20
17.1858884799
 30
0.0
 10
10.6830893754
 20
17.2985589128
 30
0.0
 10
10.2775294816
 20
17.3972292512
 30
0.0
 10
10.075146582
 20
17.4514575857
 30
0.0
  0
SPLINE
  5
28D
100
AcDbEntity
  8
0
100
AcDbSpline
 62
7
  6
BYLAYER
 70
0
 71
3
 72
11
 73
7
 74
0
 42
0.0000001
 43
0.0000001
 44
0.0000000001
 40
0.0
 40
0.0
 40
0.0
 40
0.0
 40
0.2477305731
 40
0.4965105923
 40
0.7471297326
 40
1.0
 40
1.0
 40
1.0
 40
1.0
 10
27.2513170896
 20
20.5991165689
 30
0.0
 10
27.4565806617
 20
20.5991165689
 30
0.0
 10
27.8681471544
 20
20.5830182453
 30
0.0
 10
28.4836629566
 20
20.5123446204
 30
0.0
 10
29.0971129577
 20
20.3996743156
 30
0.0
 10
29.5026728316
 20
20.3010038875
 30
0.0
 10
29.7050557344
 20
20.2467755521
 30
0.0
  0
SPLINE
  5
28E
100
AcDbEntity
  8
0
100
AcDbSpline
 62
7
  6
BYLAYER
 70
0
 71
3
 72
11
 73
7
 74
0
 42
0.0000001
 43
0.0000001
 44
0.0000000001
 40
0.0
 40
0.0
 40
0.0
 40
0.0
 40
0.2528702685
 40
0.5034894095
 40
0.7522694284
 40
1.0
 40
1.0
 40
1.0
 40
1.0
 10
29.7050557344
 20
17.4514575857
 30
0.0
 10
29.5026728306
 20
17.3972292501
 30
0.0
 10
29.0971129554
 20
17.2985588214
 30
0.0
 10
28.4836629533
 20
17.1858885135
 30
0.0
 10
27.8681471515
 20
17.115214893
 30
0.0
 10
27.4565806604
 20
17.0991165689
 30
0.0
 10
27.2513170896
 20
17.0991165689
 30
0.0
  0
SPLINE
  5
28F
100
AcDbEntity
  8
0
100
AcDbSpline
 62
7
  6
BYLAYER
 70
0
 71
3
 72
11
 73
7
 74
0
 42
0.0000001
 43
0.0000001
 44
0.0000000001
 40
0.0
 40
0.0
 40
0.0
 40
0.0
 40
0.2477305731
 40
0.4965105922
 40
0.7471297364
 40
1.0
 40
1.0
 40
1.0
 40
1.0
 10
27.2513170896
 20
17.0991165689
 30
0.0
 10
27.0460535178
 20
17.0991165689
 30
0.0
 10
26.6344870275
 20
17.1152149018
 30
0.0
 10
26.018971215
 20
17.18588848
 30
0.0
 10
25.4055212395
 20
17.2985589129
 30
0.0
 10
24.9999613458
 20
17.3972292512
 30
0.0
 10
24.7975784463
 20
17.4514575857
 30
0.0
  0
SPLINE
  5
290
100
AcDbEntity
  8
0
100
AcDbSpline
 62
7
  6
BYLAYER
 70
0
 71
3
 72
11
 73
7
 74
0
 42
0.0000001
 43
0.0000001
 44
0.0000000001
 40
0.0
 40
0.0
 40
0.0
 40
0.0
 40
0.2500019724
 40
0.5000023334
 40
0.7500012115
 40
1.0
 40
1.0
 40
1.0
 40
1.0
 10
24.7975784463
 20
21.4514575857
 30
0.0
 10
24.3909085854
 20
21.3969741553
 30
0.0
 10
23.5761843844
 20
21.2979703775
 30
0.0
 10
22.3502187685
 20
21.1855544374
 30
0.0
 10
21.1210810723
 20
21.1151323116
 30
0.0
 10
20.3003992604
 20
21.0991165689
 30
0.0
 10
19.890101159
 20
21.0991165689
 30
0.0
  0
SPLINE
  5
291
100
AcDbEntity
  8
0
100
AcDbSpline
 62
7
  6
BYLAYER
 70
0
 71
3
 72
11
 73
7
 74
0
 42
0.0000001
 43
0.0000001
 44
0.0000000001
 40
0.0
 40
0.0
 40
0.0
 40
0.0
 40
0.24999879
 40
0.4999976682
 40
0.7499980293
 40
1.0
 40
1.0
 40
1.0
 40
1.0
 10
19.890101159
 20
21.0991165689
 30
0.0
 10
19.4798030552
 20
21.0991165689
 30
0.0
 10
18.6591212414
 20
21.1151323206
 30
0.0
 10
17.4299835384
 20
21.1855544023
 30
0.0
 10
16.2040179373
 20
21.2979704713
 30
0.0
 10
15.3892937283
 20
21.3969741556
 30
0.0
 10
14.9826238701
 20
21.4514575857
 30
0.0
  0
SPLINE
  5
292
100
AcDbEntity
  8
0
100
AcDbSpline
 62
7
  6
BYLAYER
 70
0
 71
3
 72
11
 73
7
 74
0
 42
0.0000001
 43
0.0000001
 44
0.0000000001
 40
0.0
 40
0.0
 40
0.0
 40
0.0
 40
0.2528702685
 40
0.5034894095
 40
0.7522694284
 40
1.0
 40
1.0
 40
1.0
 40
1.0
 10
14.9826238701
 20
21.4514575857
 30
0.0
 10
14.7802409664
 20
21.3972292501
 30
0.0
 10
14.3746810913
 20
21.2985588215
 30
0.0
 10
13.7612310896
 20
21.1858885136
 30
0.0
 10
13.1457152881
 20
21.1152148931
 30
0.0
 10
12.7341487972
 20
21.0991165689
 30
0.0
 10
12.5288852265
 20
21.0991165689
 30
0.0
  0
SPLINE
  5
293
100
AcDbEntity
  8
0
100
AcDbSpline
 62
7
  6
BYLAYER
 70
0
 71
3
 72
11
 73
7
 74
0
 42
0.0000001
 43
0.0000001
 44
0.0000000001
 40
0.0
 40
0.0
 40
0.0
 40
0.0
 40
0.2477305731
 40
0.4965105923
 40
0.7471297326
 40
1.0
 40
1.0
 40
1.0
 40
1.0
 10
12.5288852265
 20
24.5991165689
 30
0.0
 10
12.7341487985
 20
24.5991165689
 30
0.0
 10
13.145715291
 20
24.5830182452
 30
0.0
 10
13.7612310929
 20
24.5123446203
 30
0.0
 10
14.3746810937
 20
24.3996743155
 30
0.0
 10
14.7802409674
 20
24.3010038875
 30
0.0
 10
14.9826238701
 20
24.2467755521
 30
0.0
  0
SPLINE
  5
294
100
AcDbEntity
  8
0
100
AcDbSpline
 62
7
  6
BYLAYER
 70
0
 71
3
 72
11
 73
7
 74
0
 42
0.0000001
 43
0.0000001
 44
0.0000000001
 40
0.0
 40
0.0
 40
0.0
 40
0.0
 40
0.2500019719
 40
0.5000023336
 40
0.7500012116
 40
1.0
 40
1.0
 40
1.0
 40
1.0
 10
14.9826238701
 20
24.2467755521
 30
0.0
 10
15.3892937301
 20
24.3012589824
 30
0.0
 10
16.2040179417
 20
24.4002626673
 30
0.0
 10
17.4299835449
 20
24.5126787394
 30
0.0
 10
18.659121246
 20
24.5831008167
 30
0.0
 10
19.4798030566
 20
24.5991165689
 30
0.0
 10
19.8901011577
 20
24.5991165689
 30
0.0
  0
SPLINE
  5
295
100
AcDbEntity
  8
0
100
AcDbSpline
 62
7
  6
BYLAYER
 70
0
 71
3
 72
11
 73
7
 74
0
 42
0.0000001
 43
0.0000001
 44
0.0000000001
 40
0.0
 40
0.0
 40
0.0
 40
0.0
 40
0.2528702647
 40
0.5034894097
 40
0.7522694285
 40
1.0
 40
1.0
 40
1.0
 40
1.0
 10
10.075146582
 20
24.2467755521
 30
0.0
 10
10.2775294826
 20
24.3010038869
 30
0.0
 10
10.6830893778
 20
24.3996742258
 30
0.0
 10
11.2965393546
 20
24.5123446618
 30
0.0
 10
11.912055167
 20
24.5830182356
 30
0.0
 10
12.3236216559
 20
24.5991165689
 30
0.0
 10
12.5288852265
 20
24.5991165689
 30
0.0
  0
SPLINE
  5
296
100
AcDbEntity
  8
0
100
AcDbSpline
 62
7
  6
BYLAYER
 70
0
 71
3
 72
11
 73
7
 74
0
 42
0.0000001
 43
0.0000001
 44
0.0000000001
 40
0.0
 40
0.0
 40
0.0
 40
0.0
 40
0.2528702647
 40
0.5034894097
 40
0.7522694285
 40
1.0
 40
1.0
 40
1.0
 40
1.0
 10
24.7975784463
 20
24.2467755521
 30
0.0
 10
24.9999613468
 20
24.3010038869
 30
0.0
 10
25.4055212418
 20
24.3996742257
 30
0.0
 10
26.0189712183
 20
24.5123446617
 30
0.0
 10
26.6344870304
 20
24.5830182355
 30
0.0
 10
27.0460535191
 20
24.5991165689
 30
0.0
 10
27.2513170896
 20
24.5991165689
 30
0.0
  0
SPLINE
  5
297
100
AcDbEntity
  8
0
100
AcDbSpline
 62
7
  6
BYLAYER
 70
0
 71
3
 72
11
 73
7
 74
0
 42
0.0000001
 43
0.0000001
 44
0.0000000001
 40
0.0
 40
0.0
 40
0.0
 40
0.0
 40
0.2499987901
 40
0.4999976683
 40
0.7499980287
 40
1.0
 40
1.0
 40
1.0
 40
1.0
 10
19.8901011577
 20
24.5991165689
 30
0.0
 10
20.3003992618
 20
24.5991165689
 30
0.0
 10
21.1210810768
 20
24.5831008268
 30
0.0
 10
22.3502187749
 20
24.5126786965
 30
0.0
 10
23.5761843887
 20
24.4002627596
 30
0.0
 10
24.3909085871
 20
24.3012589823
 30
0.0
 10
24.7975784463
 20
24.2467755521
 30
0.0
  0
SPLINE
  5
298
100
AcDbEntity
  8
0
100
AcDbSpline
 62
7
  6
BYLAYER
 70
0
 71
3
 72
11
 73
7
 74
0
 42
0.0000001
 43
0.0000001
 44
0.0000000001
 40
0.0
 40
0.0
 40
0.0
 40
0.0
 40
0.2477305731
 40
0.4965105922
 40
0.7471297364
 40
1.0
 40
1.0
 40
1.0
 40
1.0
 10
12.5288852265
 20
21.0991165689
 30
0.0
 10
12.3236216546
 20
21.0991165689
 30
0.0
 10
11.9120551641
 20
21.1152149017
 30
0.0
 10
11.2965393513
 20
21.1858884799
 30
0.0
 10
10.6830893754
 20
21.2985589128
 30
0.0
 10
10.2775294816
 20
21.3972292512
 30
0.0
 10
10.075146582
 20
21.4514575857
 30
0.0
  0
SPLINE
  5
299
100
AcDbEntity
  8
0
100
AcDbSpline
 62
7
  6
BYLAYER
 70
0
 71
3
 72
11
 73
7
 74
0
 42
0.0000001
 43
0.0000001
 44
0.0000000001
 40
0.0
 40
0.0
 40
0.0
 40
0.0
 40
0.2477305731
 40
0.4965105923
 40
0.7471297326
 40
1.0
 40
1.0
 40
1.0
 40
1.0
 10
27.2513170896
 20
24.5991165689
 30
0.0
 10
27.4565806617
 20
24.5991165689
 30
0.0
 10
27.8681471544
 20
24.5830182453
 30
0.0
 10
28.4836629566
 20
24.5123446204
 30
0.0
 10
29.0971129577
 20
24.3996743156
 30
0.0
 10
29.5026728316
 20
24.3010038875
 30
0.0
 10
29.7050557344
 20
24.2467755521
 30
0.0
  0
SPLINE
  5
29A
100
AcDbEntity
  8
0
100
AcDbSpline
 62
7
  6
BYLAYER
 70
0
 71
3
 72
11
 73
7
 74
0
 42
0.0000001
 43
0.0000001
 44
0.0000000001
 40
0.0
 40
0.0
 40
0.0
 40
0.0
 40
0.2528702685
 40
0.5034894095
 40
0.7522694284
 40
1.0
 40
1.0
 40
1.0
 40
1.0
 10
29.7050557344
 20
21.4514575857
 30
0.0
 10
29.5026728306
 20
21.3972292501
 30
0.0
 10
29.0971129554
 20
21.2985588214
 30
0.0
 10
28.4836629533
 20
21.1858885135
 30
0.0
 10
27.8681471515
 20
21.115214893
 30
0.0
 10
27.4565806604
 20
21.0991165689
 30
0.0
 10
27.2513170896
 20
21.0991165689
 30
0.0
  0
SPLINE
  5
29B
100
AcDbEntity
  8
0
100
AcDbSpline
 62
7
  6
BYLAYER
 70
0
 71
3
 72
11
 73
7
 74
0
 42
0.0000001
 43
0.0000001
 44
0.0000000001
 40
0.0
 40
0.0
 40
0.0
 40
0.0
 40
0.2477305731
 40
0.4965105922
 40
0.7471297364
 40
1.0
 40
1.0
 40
1.0
 40
1.0
 10
27.2513170896
 20
21.0991165689
 30
0.0
 10
27.0460535178
 20
21.0991165689
 30
0.0
 10
26.6344870275
 20
21.1152149018
 30
0.0
 10
26.018971215
 20
21.18588848
 30
0.0
 10
25.4055212395
 20
21.2985589129
 30
0.0
 10
24.9999613458
 20
21.3972292512
 30
0.0
 10
24.7975784463
 20
21.4514575857
 30
0.0
  0
SPLINE
  5
29C
100
AcDbEntity
  8
0
100
AcDbSpline
 62
7
  6
BYLAYER
 70
0
 71
3
 72
20
 73
16
 74
0
 42
0.0000001
 43
0.0000001
 44
0.0000000001
 40
0.0
 40
0.0
 40
0.0
 40
0.0
 40
0.0484797704
 40
0.1688327056
 40
0.3262561994
 40
0.4120685073
 40
0.4998380634
 40
0.5876184057
 40
0.6734532577
 40
0.7553375029
 40
0.8310186774
 40
0.8976775997
 40
0.9514864712
 40
0.9872799073
 40
1.0
 40
1.0
 40
1.0
 40
1.0
 10
23.3901011582
 20
47.3441165689
 30
0.0
 10
23.3697075273
 20
47.285643855
 30
0.0
 10
23.3008967243
 20
47.0812111941
 30
0.0
 10
23.1845254297
 20
46.6807388585
 30
0.0
 10
23.0931139073
 20
46.2243000712
 30
0.0
 10
23.0483775517
 20
45.8035362038
 30
0.0
 10
23.0362621865
 20
45.4695816657
 30
0.0
 10
23.0482755678
 20
45.1355995651
 30
0.0
 10
23.0828301305
 20
44.810795883
 30
0.0
 10
23.1350790125
 20
44.5041019735
 30
0.0
 10
23.1983807132
 20
44.2246261758
 30
0.0
 10
23.264418069
 20
43.9828499966
 30
0.0
 10
23.3231577709
 20
43.792042589
 30
0.0
 10
23.3645266261
 20
43.6680417387
 30
0.0
 10
23.3847574454
 20
43.6094621059
 30
0.0
 10
23.3901011582
 20
43.5941165689
 30
0.0
  0
SPLINE
  5
29D
100
AcDbEntity
  8
0
100
AcDbSpline
 62
7
  6
BYLAYER
 70
0
 71
3
 72
20
 73
16
 74
0
 42
0.0000001
 43
0.0000001
 44
0.0000000001
 40
0.0
 40
0.0
 40
0.0
 40
0.0
 40
0.048479032
 40
0.1688306604
 40
0.3262544648
 40
0.4120672102
 40
0.4998371126
 40
0.5876175596
 40
0.6734526718
 40
0.7553371333
 40
0.8310192743
 40
0.8976786323
 40
0.9514862162
 40
0.9872806643
 40
1.0
 40
1.0
 40
1.0
 40
1.0
 10
16.3901011582
 20
43.5941165689
 30
0.0
 10
16.4104945263
 20
43.6525883795
 30
0.0
 10
16.4793046374
 20
43.8570185146
 30
0.0
 10
16.5956756531
 20
44.2574885908
 30
0.0
 10
16.6870884442
 20
44.7139264831
 30
0.0
 10
16.7318236666
 20
45.1346918694
 30
0.0
 10
16.7439403155
 20
45.4686474819
 30
0.0
 10
16.7319269975
 20
45.8026305073
 30
0.0
 10
16.6973730702
 20
46.1274350239
 30
0.0
 10
16.6451223206
 20
46.434130525
 30
0.0
 10
16.5818204284
 20
46.7136082875
 30
0.0
 10
16.5157867022
 20
46.9553857289
 30
0.0
 10
16.4570409876
 20
47.1461914488
 30
0.0
 10
16.4156771638
 20
47.2701925849
 30
0.0
 10
16.3954451828
 20
47.3287721597
 30
0.0
 10
16.3901011582
 20
47.3441165689
 30
0.0
  0
ENDSEC
  0
SECTION
  2
OBJECTS
  0
DICTIONARY
  5
C
100
AcDbDictionary
280
0
281
1
  3
ACAD_GROUP
350
D
  3
ACAD_MLINESTYLE
350
17
  3
ACAD_LAYOUT
350
1A
  3
ACAD_PLOTSETTINGS
350
19
  3
ACAD_PLOTSTYLENAME
350
E
  0
DICTIONARY
  5
D
102
{ACAD_REACTORS
330
C
102
}
100
AcDbDictionary
280
0
281
1
  0
ACDBDICTIONARYWDFLT
  5
E
102
{ACAD_REACTORS
330
C
102
}
100
AcDbDictionary
281
1
  3
Normal
350
F
100
AcDbDictionaryWithDefault
340
F
  0
DICTIONARY
  5
17
102
{ACAD_REACTORS
330
C
102
}
100
AcDbDictionary
280
0
281
1
  3
Standard
350
18
  0
DICTIONARY
  5
19
102
{ACAD_REACTORS
330
C
102
}
100
AcDbDictionary
281
1
  0
DICTIONARY
  5
1A
102
{ACAD_REACTORS
330
C
102
}
100
AcDbDictionary
281
1
  3
Model
350
29E
  3
Layout1
350
29F
  0
ACDBPLACEHOLDER
  5
F
102
{ACAD_REACTORS
330
E
102
}
  0
MLINESTYLE
  5
18
102
{ACAD_REACTORS
330
17
102
}
100
AcDbMlineStyle
  2
STANDARD
 70
0
  3

 62
256
 51
90.0
 52
90.0
 71
2
 49
0.5
 62
256
  6
BYLAYER
 49
-0.5
 62
256
  6
BYLAYER
  0
LAYOUT
  5
29E
102
{ACAD_REACTORS
330
1A
102
}
100
AcDbPlotSettings
  1

  2
none_device
  4

  6

 40
0.0
 41
0.0
 42
0.0
 43
0.0
 44
210.0
 45
297.0
 46
0.0
 47
0.0
 48
0.0
 49
0.0
140
0.0
141
0.0
142
1.0
143
1.0
 70
1024
 72
1
 73
0
 74
0
  7

 75
0
147
1.0
148
0.0
149
0.0
100
AcDbLayout
  1
Model
 70
0
 71
0
 10
0.0
 20
0.0
 11
210.0
 21
297.0
 12
0.0
 22
0.0
 32
0.0
 14
0.0
 24
0.0
 34
0.0
 15
0.0
 25
0.0
 35
0.0
146
0.0
 13
0.0
 23
0.0
 33
0.0
 16
1.0
 26
0.0
 36
0.0
 17
0.0
 27
1.0
 37
0.0
 76
0
330
210
345
0
346
0
  0
LAYOUT
  5
29F
102
{ACAD_REACTORS
330
1A
102
}
100
AcDbPlotSettings
  1

  2
none_device
  4

  6

 40
0.0
 41
0.0
 42
0.0
 43
0.0
 44
210.0
 45
297.0
 46
0.0
 47
0.0
 48
0.0
 49
0.0
140
0.0
141
0.0
142
1.0
143
1.0
 70
0
 72
1
 73
0
 74
0
  7

 75
0
147
1.0
148
0.0
149
0.0
100
AcDbLayout
  1
Layout1
 70
0
 71
1
 10
0.0
 20
0.0
 11
210.0
 21
297.0
 12
0.0
 22
0.0
 32
0.0
 14
0.0
 24
0.0
 34
0.0
 15
0.0
 25
0.0
 35
0.0
146
0.0
 13
0.0
 23
0.0
 33
0.0
 16
1.0
 26
0.0
 36
0.0
 17
0.0
 27
1.0
 37
0.0
 76
0
330
211
345
0
346
0
  0
ENDSEC
  0
EOF
