999
DXF file: C:\Users\sesa63760\Dev\_Creo\CAD\MCADID0004818_3D-CAD\drw0001_5.dxf
999
Pro/ENGINEER 2019471 by Parametric Technology Corporation
  0
SECTION
  2
HEADER
  9
$ACADVER
  1
AC1024
  9
$DWGCODEPAGE
  3
ANSI_1252
  9
$EXTMAX
 10
66.6456169408
 20
94.2559439592
 30
0.0
  9
$EXTMIN
 10
0.0
 20
0.0
 30
0.0
  9
$LIMMIN
 10
0.0
 20
0.0
  9
$LIMMAX
 10
66.6456169408
 20
94.2559439592
  9
$VIEWCTR
 10
33.3228084704
 20
47.1279719796
  9
$VIEWSIZE
 40
94.2559439592
  9
$CLAYER
  8
0
  9
$LTSCALE
 40
6.1440911618
  9
$CELTYPE
  6
BYLAYER
  9
$DIMSCALE
 40
1.0
  9
$DIMASZ
 40
0.7934002017
  9
$DIMEXO
 40
1.0
  9
$DIMDLI
 40
4.2450084391
  9
$DIMEXE
 40
1.0
  9
$DIMCEN
 40
1.0053967356
  9
$DIMLFAC
 40
1.0
  9
$DIMBLK
  1
_FILLED
  9
$DIMALT
 70
0
  9
$DIMALTF
 40
0.0393700787
  9
$DIMTXT
 40
1.1107602823
  9
$DIMTOL
 70
1
  9
$DIMLIM
 70
0
  9
$DIMTFAC
 40
1.0
  9
$DIMTP
 40
0.01
  9
$DIMTM
 40
0.01
  9
$DIMGAP
 40
0.625
  9
$DIMDSEP
 70
46
  9
$AUNITS
 70
0
  9
$PDMODE
 70
3
  9
$PDSIZE
 40
0.3125
  9
$HANDSEED
  5
27C
  9
$TILEMODE
 70
1
  9
$MEASUREMENT
 70
1
  9
$INSUNITS
 70
4
  0
ENDSEC
  0
SECTION
  2
CLASSES
  0
CLASS
  1
ACDBDICTIONARYWDFLT
  2
AcDbDictionaryWithDefault
  3
AutoCAD 2000
 90
0
 91
1
280
0
281
0
  0
CLASS
  1
ACDBPLACEHOLDER
  2
AcDbPlaceHolder
  3
AutoCAD 2000
 90
0
 91
1
280
0
281
0
  0
CLASS
  1
LAYOUT
  2
AcDbLayout
  3
AutoCAD 2000
 90
0
 91
0
280
0
281
0
  0
ENDSEC
  0
SECTION
  2
TABLES
  0
TABLE
  2
VPORT
  5
8
100
AcDbSymbolTable
 70
2
  0
VPORT
  5
1F4
100
AcDbSymbolTableRecord
100
AcDbViewportTableRecord
  2
*ACTIVE
 70
0
 10
0.0
 20
0.0
 11
1.0
 21
1.0
 12
33.3228084704
 22
47.1279719796
 13
0.0
 23
0.0
 14
1.0
 24
1.0
 15
0.0
 25
0.0
 16
0.0
 26
0.0
 36
1.0
 17
0.0
 27
0.0
 37
0.0
 40
94.2559439592
 41
0.7070707071
 42
50.0
 43
0.0
 44
0.0
 50
0.0
 51
0.0
 71
0
 72
100
 73
1
 74
1
 75
0
 76
0
 77
0
 78
0
  0
ENDTAB
  0
TABLE
  2
LTYPE
  5
5
100
AcDbSymbolTable
 70
6
  0
LTYPE
  5
14
100
AcDbSymbolTableRecord
100
AcDbLinetypeTableRecord
  2
BYBLOCK
 70
0
  3

 72
65
 73
0
 40
0.0
  0
LTYPE
  5
15
100
AcDbSymbolTableRecord
100
AcDbLinetypeTableRecord
  2
BYLAYER
 70
0
  3

 72
65
 73
0
 40
0.0
  0
LTYPE
  5
16
100
AcDbSymbolTableRecord
100
AcDbLinetypeTableRecord
  2
CONTINUOUS
 70
64
  3
Solid line
 72
65
 73
0
 40
0.0
  0
LTYPE
  5
1F5
100
AcDbSymbolTableRecord
100
AcDbLinetypeTableRecord
  2
CENTER
 70
64
  3
____ _ ____ _ ____ _ ____ _ ____ _ ____ _ ____
 72
65
 73
4
 40
0.6
 49
0.375
 74
0
 49
-0.075
 74
0
 49
0.075
 74
0
 49
-0.075
 74
0
  0
LTYPE
  5
1F6
100
AcDbSymbolTableRecord
100
AcDbLinetypeTableRecord
  2
HIDDEN
 70
64
  3
- - - - - - - - - - - - - - - - - - - -
 72
65
 73
2
 40
0.2
 49
0.1
 74
0
 49
-0.1
 74
0
  0
LTYPE
  5
1F7
100
AcDbSymbolTableRecord
100
AcDbLinetypeTableRecord
  2
PHANTOM
 70
64
  3
_____ _ _ _____ _ _ _____ _ _ _____
 72
65
 73
6
 40
0.8
 49
0.45
 74
0
 49
-0.05
 74
0
 49
0.1
 74
0
 49
-0.05
 74
0
 49
0.1
 74
0
 49
-0.05
 74
0
  0
LTYPE
  5
1F8
100
AcDbSymbolTableRecord
100
AcDbLinetypeTableRecord
  2
DOT
 70
64
  3
. . . . . . . . . . . . . . . . . . . .
 72
65
 73
2
 40
0.2
 49
0.1
 74
0
 49
-0.1
 74
0
  0
LTYPE
  5
1F9
100
AcDbSymbolTableRecord
100
AcDbLinetypeTableRecord
  2
DASHED
 70
64
  3
- - - - - - - - - - - - - - - - - - - -
 72
65
 73
2
 40
0.2
 49
0.1
 74
0
 49
-0.1
 74
0
  0
ENDTAB
  0
TABLE
  2
LAYER
  5
2
100
AcDbSymbolTable
 70
36
  0
LAYER
  5
10
100
AcDbSymbolTableRecord
100
AcDbLayerTableRecord
  2
0
 70
0
 62
7
  6
CONTINUOUS
370
-3
390
F
  0
LAYER
  5
1FA
100
AcDbSymbolTableRecord
100
AcDbLayerTableRecord
  2
DEFAULT_1
 70
0
 62
7
  6
CENTER
370
-3
390
F
  0
LAYER
  5
1FB
100
AcDbSymbolTableRecord
100
AcDbLayerTableRecord
  2
DEFAULT_2
 70
0
 62
7
  6
HIDDEN
370
-3
390
F
  0
LAYER
  5
1FC
100
AcDbSymbolTableRecord
100
AcDbLayerTableRecord
  2
DEFAULT_3
 70
0
 62
7
  6
PHANTOM
370
-3
390
F
  0
LAYER
  5
1FD
100
AcDbSymbolTableRecord
100
AcDbLayerTableRecord
  2
00_COMPONENTS
 70
0
 62
7
  6
CONTINUOUS
370
-3
390
F
  0
LAYER
  5
1FE
100
AcDbSymbolTableRecord
100
AcDbLayerTableRecord
  2
01_1_DEFAULT_DATUMS
 70
0
 62
7
  6
CONTINUOUS
370
-3
390
F
  0
LAYER
  5
1FF
100
AcDbSymbolTableRecord
100
AcDbLayerTableRecord
  2
01_PLANES
 70
0
 62
7
  6
CONTINUOUS
370
-3
390
F
  0
LAYER
  5
200
100
AcDbSymbolTableRecord
100
AcDbLayerTableRecord
  2
02_COORD_SYS
 70
0
 62
7
  6
CONTINUOUS
370
-3
390
F
  0
LAYER
  5
201
100
AcDbSymbolTableRecord
100
AcDbLayerTableRecord
  2
03_AXES
 70
0
 62
7
  6
CONTINUOUS
370
-3
390
F
  0
LAYER
  5
202
100
AcDbSymbolTableRecord
100
AcDbLayerTableRecord
  2
04_POINTS
 70
0
 62
7
  6
CONTINUOUS
370
-3
390
F
  0
LAYER
  5
203
100
AcDbSymbolTableRecord
100
AcDbLayerTableRecord
  2
05_CURVES
 70
0
 62
7
  6
CONTINUOUS
370
-3
390
F
  0
LAYER
  5
204
100
AcDbSymbolTableRecord
100
AcDbLayerTableRecord
  2
06_SURFS
 70
0
 62
7
  6
CONTINUOUS
370
-3
390
F
  0
LAYER
  5
205
100
AcDbSymbolTableRecord
100
AcDbLayerTableRecord
  2
07_COSMETICS
 70
0
 62
7
  6
CONTINUOUS
370
-3
390
F
  0
LAYER
  5
206
100
AcDbSymbolTableRecord
100
AcDbLayerTableRecord
  2
10_NOTES
 70
0
 62
7
  6
CONTINUOUS
370
-3
390
F
  0
LAYER
  5
207
100
AcDbSymbolTableRecord
100
AcDbLayerTableRecord
  2
11_NOTES_PUB
 70
0
 62
7
  6
CONTINUOUS
370
-3
390
F
  0
LAYER
  5
208
100
AcDbSymbolTableRecord
100
AcDbLayerTableRecord
  2
13_REF_GTOL
 70
0
 62
7
  6
CONTINUOUS
370
-3
390
F
  0
LAYER
  5
209
100
AcDbSymbolTableRecord
100
AcDbLayerTableRecord
  2
16_MISC
 70
0
 62
7
  6
CONTINUOUS
370
-3
390
F
  0
LAYER
  5
20A
100
AcDbSymbolTableRecord
100
AcDbLayerTableRecord
  2
17_NO_PRINT
 70
0
 62
7
  6
CONTINUOUS
370
-3
390
F
  0
LAYER
  5
20B
100
AcDbSymbolTableRecord
100
AcDbLayerTableRecord
  2
18_DATUM_CAMS_JOINTS
 70
0
 62
7
  6
CONTINUOUS
370
-3
390
F
  0
LAYER
  5
20C
100
AcDbSymbolTableRecord
100
AcDbLayerTableRecord
  2
19_DATUM_FUNCTIONAL
 70
0
 62
7
  6
CONTINUOUS
370
-3
390
F
  0
LAYER
  5
20D
100
AcDbSymbolTableRecord
100
AcDbLayerTableRecord
  2
20_DATUM_KINEMATIC_SCHEME
 70
0
 62
7
  6
CONTINUOUS
370
-3
390
F
  0
ENDTAB
  0
TABLE
  2
STYLE
  5
3
100
AcDbSymbolTable
 70
1
  0
STYLE
  5
11
100
AcDbSymbolTableRecord
100
AcDbTextStyleTableRecord
  2
STANDARD
 70
0
 40
0.0
 41
1.0
 50
0.0
 71
0
 42
0.2
  3
ARIAL.TTF
  4

  0
STYLE
  5
20E
100
AcDbSymbolTableRecord
100
AcDbTextStyleTableRecord
  2
TEXTSTYLE_1
 70
0
 40
0.0
 41
0.8
 50
0.0
 71
0
 42
0.2
  3
gdt
  4

  0
ENDTAB
  0
TABLE
  2
VIEW
  5
6
100
AcDbSymbolTable
 70
0
  0
ENDTAB
  0
TABLE
  2
UCS
  5
7
100
AcDbSymbolTable
 70
0
  0
ENDTAB
  0
TABLE
  2
APPID
  5
9
100
AcDbSymbolTable
 70
1
  0
APPID
  5
20F
100
AcDbSymbolTableRecord
100
AcDbRegAppTableRecord
  2
ACAD
 70
0
  0
ENDTAB
  0
TABLE
  2
BLOCK_RECORD
  5
1
100
AcDbSymbolTable
 70
0
  0
BLOCK_RECORD
  5
210
100
AcDbSymbolTableRecord
100
AcDbBlockTableRecord
  2
*Model_Space
  0
BLOCK_RECORD
  5
211
100
AcDbSymbolTableRecord
100
AcDbBlockTableRecord
  2
*Paper_Space
  0
BLOCK_RECORD
  5
212
100
AcDbSymbolTableRecord
100
AcDbBlockTableRecord
  2
_FILLED
  0
ENDTAB
  0
TABLE
  2
DIMSTYLE
  5
A
100
AcDbSymbolTable
 70
1
100
AcDbDimStyleTable
 71
0
  0
DIMSTYLE
105
213
100
AcDbSymbolTableRecord
100
AcDbDimStyleTableRecord
  2
STANDARD
 70
0
  3

  4

 40
1.0
 41
0.7934002017
 42
1.0
 43
0.38
 44
1.0
 45
0.0
 46
0.0
 47
0.01
 48
0.01
140
1.1107602823
141
0.09
142
0.0
143
25.4
144
1.0
145
0.0
146
1.0
147
0.625
 71
1
 72
0
 73
0
 74
0
 75
0
 76
0
 77
1
 78
8
 79
2
170
0
171
1
172
0
173
0
174
0
175
0
176
0
177
0
178
0
270
2
179
2
271
2
272
2
273
2
274
2
275
0
280
0
281
0
282
0
283
1
284
8
285
0
286
0
287
3
288
0
340
11
278
46
341
212
342
212
343
212
344
212
  0
ENDTAB
  0
ENDSEC
  0
SECTION
  2
BLOCKS
  0
BLOCK
  5
20
100
AcDbEntity
  8
0
100
AcDbBlockBegin
  2
*Model_Space
 70
0
 10
0.0
 20
0.0
 30
0.0
  3
*Model_Space
  1

  0
ENDBLK
  5
21
100
AcDbEntity
  8
0
100
AcDbBlockEnd
  0
BLOCK
  5
1C
100
AcDbEntity
  8
0
100
AcDbBlockBegin
  2
*Paper_Space
 70
0
 10
0.0
 20
0.0
 30
0.0
  3
*Paper_Space
  1

  0
ENDBLK
  5
1D
100
AcDbEntity
  8
0
100
AcDbBlockEnd
  0
BLOCK
  5
214
100
AcDbEntity
  8
0
100
AcDbBlockBegin
  2
_FILLED
 70
64
 10
0.0
 20
0.0
  3
_FILLED
  1

  0
SOLID
  5
215
100
AcDbEntity
  8
0
  6
BYBLOCK
 62
0
100
AcDbTrace
 10
0.0
 20
0.0
 11
-1.0
 21
0.25
 12
-1.0
 22
-0.25
 13
-1.0
 23
-0.25
  0
ENDBLK
  5
216
100
AcDbEntity
  8
0
  6
BYBLOCK
 62
0
100
AcDbBlockEnd
  0
ENDSEC
  0
SECTION
  2
ENTITIES
  0
LINE
  5
217
100
AcDbEntity
  8
0
100
AcDbLine
 62
7
  6
BYLAYER
 10
7.7687184007
 20
39.2433510271
 11
7.7687184007
 21
55.2433287941
  0
LINE
  5
218
100
AcDbEntity
  8
0
100
AcDbLine
 62
7
  6
BYLAYER
 10
9.5787184007
 20
39.9433399106
 11
9.5787184007
 21
54.5433399106
  0
LINE
  5
219
100
AcDbEntity
  8
0
100
AcDbLine
 62
7
  6
BYLAYER
 10
17.7687187248
 20
39.2504199528
 11
17.7687186879
 21
39.2557414296
  0
LINE
  5
21A
100
AcDbEntity
  8
0
100
AcDbLine
 62
7
  6
BYLAYER
 10
17.7687180423
 20
55.2362679008
 11
17.7687180832
 21
55.230945809
  0
LINE
  5
21B
100
AcDbEntity
  8
0
100
AcDbLine
 62
7
  6
BYLAYER
 10
47.8937184007
 20
42.0433399106
 11
48.2187184007
 21
42.1304233982
  0
LWPOLYLINE
  5
21C
100
AcDbEntity
  8
0
100
AcDbPolyline
 62
7
  6
BYLAYER
 90
4
 70
0
 10
16.962082173
 20
39.2433167174
 10
17.1944408254
 20
39.245032958
 10
17.5321232302
 20
39.2492463046
 10
17.7687187248
 20
39.2504199528
  0
LINE
  5
21D
100
AcDbEntity
  8
0
100
AcDbLine
 62
7
  6
BYLAYER
 10
7.7687184007
 20
39.2433399106
 11
57.4687184007
 21
39.2433399106
  0
LINE
  5
21E
100
AcDbEntity
  8
0
100
AcDbLine
 62
7
  6
BYLAYER
 10
52.7687004666
 20
39.9433403233
 11
9.5787184007
 21
39.9433399106
  0
LWPOLYLINE
  5
21F
100
AcDbEntity
  8
0
100
AcDbPolyline
 62
7
  6
BYLAYER
 90
4
 70
0
 10
17.7687187809
 20
39.2504105872
 10
17.9965020932
 20
39.2493318216
 10
18.3341545763
 20
39.2451419888
 10
18.5753593697
 20
39.2433115775
  0
LINE
  5
220
100
AcDbEntity
  8
0
100
AcDbLine
 62
7
  6
BYLAYER
 10
46.2187184007
 20
40.2433399106
 11
57.7687184007
 21
40.2433399106
  0
LINE
  5
221
100
AcDbEntity
  8
0
100
AcDbLine
 62
7
  6
BYLAYER
 10
57.6687184007
 20
40.3433399106
 11
45.2187184007
 21
40.3433399106
  0
LINE
  5
222
100
AcDbEntity
  8
0
100
AcDbLine
 62
7
  6
BYLAYER
 10
53.3687184007
 20
41.9433399106
 11
45.2187184007
 21
41.9433399106
  0
LINE
  5
223
100
AcDbEntity
  8
0
100
AcDbLine
 62
7
  6
BYLAYER
 10
47.8937184007
 20
42.0433399106
 11
47.5437184007
 21
42.0433399106
  0
LINE
  5
224
100
AcDbEntity
  8
0
100
AcDbLine
 62
7
  6
BYLAYER
 10
48.2287184007
 20
42.4933399106
 11
48.2187184007
 21
42.4933399106
  0
LINE
  5
225
100
AcDbEntity
  8
0
100
AcDbLine
 62
7
  6
BYLAYER
 10
47.1687184007
 20
42.4933399106
 11
47.2187184007
 21
42.4933399106
  0
LINE
  5
226
100
AcDbEntity
  8
0
100
AcDbLine
 62
7
  6
BYLAYER
 10
48.2287184007
 20
42.7433399106
 11
48.2187184007
 21
42.7433399106
  0
LINE
  5
227
100
AcDbEntity
  8
0
100
AcDbLine
 62
7
  6
BYLAYER
 10
47.1687184007
 20
42.7433399106
 11
47.2187184007
 21
42.7433399106
  0
LINE
  5
228
100
AcDbEntity
  8
0
100
AcDbLine
 62
7
  6
BYLAYER
 10
49.9900661697
 20
42.7433399106
 11
53.3687184007
 21
42.7433399106
  0
LINE
  5
229
100
AcDbEntity
  8
0
100
AcDbLine
 62
7
  6
BYLAYER
 10
47.1687184007
 20
43.1933399106
 11
46.2187184007
 21
43.1933399106
  0
LINE
  5
22A
100
AcDbEntity
  8
0
100
AcDbLine
 62
7
  6
BYLAYER
 10
57.6687184007
 20
43.5433399106
 11
47.8492469978
 21
43.5433399106
  0
LINE
  5
22B
100
AcDbEntity
  8
0
100
AcDbLine
 62
7
  6
BYLAYER
 10
46.2187184007
 20
43.8933399106
 11
47.0825306774
 21
43.8933399106
  0
LINE
  5
22C
100
AcDbEntity
  8
0
100
AcDbLine
 62
7
  6
BYLAYER
 10
47.2187184007
 20
42.1304233982
 11
47.5437184007
 21
42.0433399106
  0
LINE
  5
22D
100
AcDbEntity
  8
0
100
AcDbLine
 62
7
  6
BYLAYER
 10
47.5437184007
 20
52.4433399106
 11
47.2187184007
 21
52.3562564231
  0
LINE
  5
22E
100
AcDbEntity
  8
0
100
AcDbLine
 62
7
  6
BYLAYER
 10
57.6687184007
 20
50.9433399106
 11
47.8492469978
 21
50.9433399106
  0
LINE
  5
22F
100
AcDbEntity
  8
0
100
AcDbLine
 62
7
  6
BYLAYER
 10
48.2287184007
 20
51.7433399106
 11
48.2187184007
 21
51.7433399106
  0
LINE
  5
230
100
AcDbEntity
  8
0
100
AcDbLine
 62
7
  6
BYLAYER
 10
47.1687184007
 20
51.7433399106
 11
47.2187184007
 21
51.7433399106
  0
LINE
  5
231
100
AcDbEntity
  8
0
100
AcDbLine
 62
7
  6
BYLAYER
 10
49.9900661697
 20
51.7433399106
 11
53.3687184007
 21
51.7433399106
  0
LINE
  5
232
100
AcDbEntity
  8
0
100
AcDbLine
 62
7
  6
BYLAYER
 10
48.2287184007
 20
51.9933399106
 11
48.2187184007
 21
51.9933399106
  0
LINE
  5
233
100
AcDbEntity
  8
0
100
AcDbLine
 62
7
  6
BYLAYER
 10
47.1687184007
 20
51.9933399106
 11
47.2187184007
 21
51.9933399106
  0
LINE
  5
234
100
AcDbEntity
  8
0
100
AcDbLine
 62
7
  6
BYLAYER
 10
47.8937184007
 20
52.4433399106
 11
47.5437184007
 21
52.4433399106
  0
LINE
  5
235
100
AcDbEntity
  8
0
100
AcDbLine
 62
7
  6
BYLAYER
 10
53.3687184007
 20
52.5433399106
 11
45.2187184007
 21
52.5433399106
  0
LINE
  5
236
100
AcDbEntity
  8
0
100
AcDbLine
 62
7
  6
BYLAYER
 10
57.6687184007
 20
54.1433399106
 11
45.2187184007
 21
54.1433399106
  0
LINE
  5
237
100
AcDbEntity
  8
0
100
AcDbLine
 62
7
  6
BYLAYER
 10
57.7687184007
 20
54.2433399106
 11
46.2187184007
 21
54.2433399106
  0
LINE
  5
238
100
AcDbEntity
  8
0
100
AcDbLine
 62
7
  6
BYLAYER
 10
9.5787184007
 20
54.5433399106
 11
52.7687184007
 21
54.5433399106
  0
LINE
  5
239
100
AcDbEntity
  8
0
100
AcDbLine
 62
7
  6
BYLAYER
 10
48.2287184007
 20
43.2310541963
 11
48.7146643466
 21
43.3976642349
  0
LWPOLYLINE
  5
23A
100
AcDbEntity
  8
0
100
AcDbPolyline
 62
7
  6
BYLAYER
 90
4
 70
0
 10
18.5753543596
 20
55.2433683574
 10
18.3432161521
 20
55.2416454296
 10
18.0055339613
 20
55.237430472
 10
17.7687180423
 20
55.2362679005
  0
LINE
  5
23B
100
AcDbEntity
  8
0
100
AcDbLine
 62
7
  6
BYLAYER
 10
7.7687184007
 20
55.2433399106
 11
16.9621051119
 21
55.2433399106
  0
LINE
  5
23C
100
AcDbEntity
  8
0
100
AcDbLine
 62
7
  6
BYLAYER
 10
16.9669156778
 20
55.2433399106
 11
57.4687184007
 21
55.2433399106
  0
LWPOLYLINE
  5
23D
100
AcDbEntity
  8
0
100
AcDbPolyline
 62
7
  6
BYLAYER
 90
4
 70
0
 10
17.7687179803
 20
55.2362558067
 10
17.5413452823
 20
55.2373414878
 10
17.2036934767
 20
55.2415245816
 10
16.9620770449
 20
55.2433770075
  0
LINE
  5
23E
100
AcDbEntity
  8
0
100
AcDbLine
 62
7
  6
BYLAYER
 10
48.2187184007
 20
52.3562564231
 11
47.8937184007
 21
52.4433399106
  0
LINE
  5
23F
100
AcDbEntity
  8
0
100
AcDbLine
 62
7
  6
BYLAYER
 10
45.2187184007
 20
40.3433399106
 11
45.2187184007
 21
41.9433399106
  0
LINE
  5
240
100
AcDbEntity
  8
0
100
AcDbLine
 62
7
  6
BYLAYER
 10
45.2187184007
 20
52.5433399106
 11
45.2187184007
 21
54.1433399106
  0
LINE
  5
241
100
AcDbEntity
  8
0
100
AcDbLine
 62
7
  6
BYLAYER
 10
46.2187184007
 20
40.2433399106
 11
46.2187184007
 21
45.5412287099
  0
LINE
  5
242
100
AcDbEntity
  8
0
100
AcDbLine
 62
7
  6
BYLAYER
 10
46.2187184007
 20
48.9461998413
 11
46.2187184007
 21
54.2433399106
  0
LINE
  5
243
100
AcDbEntity
  8
0
100
AcDbLine
 62
7
  6
BYLAYER
 10
46.4104280238
 20
43.8933399106
 11
46.4104280238
 21
43.1933399106
  0
LINE
  5
244
100
AcDbEntity
  8
0
100
AcDbLine
 62
7
  6
BYLAYER
 10
46.8001394555
 20
43.1933399106
 11
46.8001394555
 21
43.8933399106
  0
LINE
  5
245
100
AcDbEntity
  8
0
100
AcDbLine
 62
7
  6
BYLAYER
 10
47.0888145901
 20
43.8898092613
 11
47.0888145901
 21
43.1933399106
  0
LINE
  5
246
100
AcDbEntity
  8
0
100
AcDbLine
 62
7
  6
BYLAYER
 10
47.1687184007
 20
42.4933525726
 11
47.1687184007
 21
43.8449148857
  0
LINE
  5
247
100
AcDbEntity
  8
0
100
AcDbLine
 62
7
  6
BYLAYER
 10
47.1687184007
 20
50.6421270611
 11
47.1687184007
 21
51.9933323435
  0
LINE
  5
248
100
AcDbEntity
  8
0
100
AcDbLine
 62
7
  6
BYLAYER
 10
47.2187184007
 20
42.1304233982
 11
47.2187184007
 21
43.8168221232
  0
LINE
  5
249
100
AcDbEntity
  8
0
100
AcDbLine
 62
7
  6
BYLAYER
 10
47.2187184007
 20
50.67025268
 11
47.2187184007
 21
52.3562564231
  0
LINE
  5
24A
100
AcDbEntity
  8
0
100
AcDbLine
 62
7
  6
BYLAYER
 10
48.2187184007
 20
42.1304233982
 11
48.2187184007
 21
43.5433399106
  0
LINE
  5
24B
100
AcDbEntity
  8
0
100
AcDbLine
 62
7
  6
BYLAYER
 10
48.2187184007
 20
50.9433399106
 11
48.2187184007
 21
52.3562564231
  0
LINE
  5
24C
100
AcDbEntity
  8
0
100
AcDbLine
 62
7
  6
BYLAYER
 10
48.2287184007
 20
51.9933272487
 11
48.2287184007
 21
50.9433399106
  0
LINE
  5
24D
100
AcDbEntity
  8
0
100
AcDbLine
 62
7
  6
BYLAYER
 10
48.2287184007
 20
43.5433399106
 11
48.2287184007
 21
42.4933474778
  0
LINE
  5
24E
100
AcDbEntity
  8
0
100
AcDbLine
 62
7
  6
BYLAYER
 10
49.9900661697
 20
42.7433399106
 11
49.9900661697
 21
43.5433399106
  0
LINE
  5
24F
100
AcDbEntity
  8
0
100
AcDbLine
 62
7
  6
BYLAYER
 10
49.9900661697
 20
50.9433399106
 11
49.9900661697
 21
51.7433399106
  0
LINE
  5
250
100
AcDbEntity
  8
0
100
AcDbLine
 62
7
  6
BYLAYER
 10
52.7687184007
 20
54.5433399106
 11
52.7687184007
 21
54.2433399106
  0
LINE
  5
251
100
AcDbEntity
  8
0
100
AcDbLine
 62
7
  6
BYLAYER
 10
52.7687004666
 20
39.9433403233
 11
52.7687184007
 21
40.2433399106
  0
LINE
  5
252
100
AcDbEntity
  8
0
100
AcDbLine
 62
7
  6
BYLAYER
 10
53.1687184007
 20
51.7433399106
 11
53.1687184007
 21
50.9433399106
  0
LINE
  5
253
100
AcDbEntity
  8
0
100
AcDbLine
 62
7
  6
BYLAYER
 10
53.1687184007
 20
43.5433399106
 11
53.1687184007
 21
42.7433399106
  0
LINE
  5
254
100
AcDbEntity
  8
0
100
AcDbLine
 62
7
  6
BYLAYER
 10
53.3687184007
 20
52.5433399106
 11
53.3687184007
 21
50.9433399106
  0
LINE
  5
255
100
AcDbEntity
  8
0
100
AcDbLine
 62
7
  6
BYLAYER
 10
53.3687184007
 20
43.5433399106
 11
53.3687184007
 21
41.9433399106
  0
LINE
  5
256
100
AcDbEntity
  8
0
100
AcDbLine
 62
7
  6
BYLAYER
 10
56.2187184007
 20
54.2433399106
 11
56.2187184007
 21
54.1433399106
  0
LINE
  5
257
100
AcDbEntity
  8
0
100
AcDbLine
 62
7
  6
BYLAYER
 10
56.2187184007
 20
40.3433399106
 11
56.2187184007
 21
40.2433399106
  0
LINE
  5
258
100
AcDbEntity
  8
0
100
AcDbLine
 62
7
  6
BYLAYER
 10
57.6687184007
 20
40.3433399106
 11
57.6687184007
 21
43.6386270931
  0
LINE
  5
259
100
AcDbEntity
  8
0
100
AcDbLine
 62
7
  6
BYLAYER
 10
57.6687184007
 20
50.8480527281
 11
57.6687184007
 21
54.1433399106
  0
LINE
  5
25A
100
AcDbEntity
  8
0
100
AcDbLine
 62
7
  6
BYLAYER
 10
57.7687184007
 20
39.5433399106
 11
57.7687184007
 21
40.2433399106
  0
LINE
  5
25B
100
AcDbEntity
  8
0
100
AcDbLine
 62
7
  6
BYLAYER
 10
57.7687184007
 20
54.2433399106
 11
57.7687184007
 21
54.9433399106
  0
ARC
  5
25C
100
AcDbEntity
  8
0
100
AcDbCircle
 62
7
  6
BYLAYER
 10
45.9848303453
 20
-55.1180474932
 40
95.2847955412
100
AcDbArc
 50
84.3775294577
 51
85.2765745635
  0
ARC
  5
25D
100
AcDbEntity
  8
0
100
AcDbCircle
 62
7
  6
BYLAYER
 10
46.0587064885
 20
148.8148806889
 40
94.4915195973
100
AcDbArc
 50
274.7183423519
 51
275.624813234
  0
ARC
  5
25E
100
AcDbEntity
  8
0
100
AcDbCircle
 62
7
  6
BYLAYER
 10
57.0478991783
 20
47.2433399106
 40
3.7
100
AcDbArc
 50
270.0
 51
90.0
  0
ARC
  5
25F
100
AcDbEntity
  8
0
100
AcDbCircle
 62
7
  6
BYLAYER
 10
57.4687184007
 20
54.9433399106
 40
0.3
100
AcDbArc
 50
0.0
 51
90.0
  0
ARC
  5
260
100
AcDbEntity
  8
0
100
AcDbCircle
 62
7
  6
BYLAYER
 10
57.4687184007
 20
39.5433399106
 40
0.3
100
AcDbArc
 50
270.0
 51
360.0
  0
ARC
  5
261
100
AcDbEntity
  8
0
100
AcDbCircle
 62
7
  6
BYLAYER
 10
48.6647184007
 20
43.5433399106
 40
0.154
100
AcDbArc
 50
288.924644416
 51
0.0009509473
  0
SPLINE
  5
262
100
AcDbEntity
  8
0
100
AcDbSpline
 62
7
  6
BYLAYER
 70
0
 71
3
 72
21
 73
17
 74
0
 42
0.0000001
 43
0.0000001
 44
0.0000000001
 40
0.0
 40
0.0
 40
0.0
 40
0.0
 40
0.0410224956
 40
0.0831637365
 40
0.1274148512
 40
0.1745646504
 40
0.2251606184
 40
0.279533512
 40
0.3378143541
 40
0.3999771525
 40
0.4658602681
 40
0.5352002532
 40
0.6076495406
 40
0.6827818847
 40
0.8391036727
 40
1.0
 40
1.0
 40
1.0
 40
1.0
 10
47.849247001
 20
50.9433230078
 30
0.0
 10
47.7878222219
 20
50.9433229204
 30
0.0
 10
47.6629743526
 20
50.9310553696
 30
0.0
 10
47.4791319383
 20
50.8763532662
 30
0.0
 10
47.2995322528
 20
50.7863489052
 30
0.0
 10
47.1259870962
 20
50.6622239469
 30
0.0
 10
46.9598913378
 20
50.5054827541
 30
0.0
 10
46.8026849916
 20
50.3176682165
 30
0.0
 10
46.6556808048
 20
50.1006122176
 30
0.0
 10
46.5202065201
 20
49.8563469364
 30
0.0
 10
46.3974863679
 20
49.5871762942
 30
0.0
 10
46.2886584215
 20
49.2956368718
 30
0.0
 10
46.1947663751
 20
48.9844784198
 30
0.0
 10
46.0892734628
 20
48.5415976765
 30
0.0
 10
46.0013473405
 20
47.9595539611
 30
0.0
 10
45.9780126151
 20
47.4842570272
 30
0.0
 10
45.9780126151
 20
47.2433399106
 30
0.0
  0
SPLINE
  5
263
100
AcDbEntity
  8
0
100
AcDbSpline
 62
7
  6
BYLAYER
 70
0
 71
3
 72
21
 73
17
 74
0
 42
0.0000001
 43
0.0000001
 44
0.0000000001
 40
0.0
 40
0.0
 40
0.0
 40
0.0
 40
0.1608937616
 40
0.3172134163
 40
0.3923455179
 40
0.4647945514
 40
0.5341347896
 40
0.6000183821
 40
0.6621820349
 40
0.7204636911
 40
0.7748375058
 40
0.8254342105
 40
0.8725846048
 40
0.9168360842
 40
0.9589775044
 40
1.0
 40
1.0
 40
1.0
 40
1.0
 10
45.9780126151
 20
47.2433399106
 30
0.0
 10
45.9780126151
 20
47.0024266356
 30
0.0
 10
46.0013461892
 20
46.5271366773
 30
0.0
 10
46.0892709089
 20
45.9451003687
 30
0.0
 10
46.1947597604
 20
45.5022226813
 30
0.0
 10
46.2886515832
 20
45.1910645632
 30
0.0
 10
46.3974771946
 20
44.8995234945
 30
0.0
 10
46.5201981352
 20
44.6303506206
 30
0.0
 10
46.6556715397
 20
44.3860811618
 30
0.0
 10
46.8026777554
 20
44.1690218398
 30
0.0
 10
46.9598849975
 20
43.9812032239
 30
0.0
 10
47.1259830357
 20
43.8244594721
 30
0.0
 10
47.2995297907
 20
43.700332398
 30
0.0
 10
47.4791309083
 20
43.6103269672
 30
0.0
 10
47.6629740877
 20
43.555624687
 30
0.0
 10
47.7878222156
 20
43.543356726
 30
0.0
 10
47.8492469947
 20
43.5433568134
 30
0.0
  0
SPLINE
  5
264
100
AcDbEntity
  8
0
100
AcDbSpline
 62
7
  6
BYLAYER
 70
0
 71
3
 72
18
 73
14
 74
0
 42
0.0000001
 43
0.0000001
 44
0.0000000001
 40
0.0
 40
0.0
 40
0.0
 40
0.0
 40
0.1337991772
 40
0.2663050315
 40
0.3964050687
 40
0.5232836519
 40
0.6465835196
 40
0.7070070935
 40
0.7666492671
 40
0.825619929
 40
0.8840565645
 40
0.9421232369
 40
1.0
 40
1.0
 40
1.0
 40
1.0
 10
58.180137205
 20
47.2433399106
 30
0.0
 10
58.180137205
 20
47.0018568341
 30
0.0
 10
58.139455727
 20
46.5202147381
 30
0.0
 10
57.9582899471
 20
45.8245948122
 30
0.0
 10
57.6636234056
 20
45.1821670369
 30
0.0
 10
57.2662781476
 20
44.6177228233
 30
0.0
 10
56.8582160974
 20
44.227364123
 30
0.0
 10
56.4971069133
 20
43.9761128868
 30
0.0
 10
56.2133046508
 20
43.8202871003
 30
0.0
 10
55.9176363745
 20
43.6974352183
 30
0.0
 10
55.6128878268
 20
43.6088356615
 30
0.0
 10
55.3021071207
 20
43.555272338
 30
0.0
 10
55.092654047
 20
43.5433512526
 30
0.0
 10
54.9881970607
 20
43.5433512526
 30
0.0
  0
SPLINE
  5
265
100
AcDbEntity
  8
0
100
AcDbSpline
 62
7
  6
BYLAYER
 70
0
 71
3
 72
21
 73
17
 74
0
 42
0.0000001
 43
0.0000001
 44
0.0000000001
 40
0.0
 40
0.0
 40
0.0
 40
0.0
 40
0.0410224956
 40
0.0831637365
 40
0.1274148512
 40
0.1745646504
 40
0.2251606184
 40
0.279533512
 40
0.3378143541
 40
0.3999771525
 40
0.4658602681
 40
0.5352002532
 40
0.6076495406
 40
0.6827818847
 40
0.8391036727
 40
1.0
 40
1.0
 40
1.0
 40
1.0
 10
47.8492469947
 20
43.5433568134
 30
0.0
 10
47.9106717738
 20
43.5433569008
 30
0.0
 10
48.0355196431
 20
43.5556244517
 30
0.0
 10
48.2193620574
 20
43.6103265551
 30
0.0
 10
48.3989617429
 20
43.700330916
 30
0.0
 10
48.5725068995
 20
43.8244558744
 30
0.0
 10
48.7386026579
 20
43.9811970672
 30
0.0
 10
48.8958090041
 20
44.1690116047
 30
0.0
 10
49.0428131909
 20
44.3860676037
 30
0.0
 10
49.1782874755
 20
44.6303328848
 30
0.0
 10
49.3010076278
 20
44.8995035271
 30
0.0
 10
49.4098355742
 20
45.1910429494
 30
0.0
 10
49.5037276206
 20
45.5022014014
 30
0.0
 10
49.6092205329
 20
45.9450821447
 30
0.0
 10
49.6971466552
 20
46.5271258601
 30
0.0
 10
49.7204813805
 20
47.0024227941
 30
0.0
 10
49.7204813805
 20
47.2433399106
 30
0.0
  0
SPLINE
  5
266
100
AcDbEntity
  8
0
100
AcDbSpline
 62
7
  6
BYLAYER
 70
0
 71
3
 72
21
 73
17
 74
0
 42
0.0000001
 43
0.0000001
 44
0.0000000001
 40
0.0
 40
0.0
 40
0.0
 40
0.0
 40
0.1608937616
 40
0.3172134163
 40
0.3923455179
 40
0.4647945514
 40
0.5341347896
 40
0.6000183821
 40
0.6621820349
 40
0.7204636911
 40
0.7748375058
 40
0.8254342105
 40
0.8725846048
 40
0.9168360842
 40
0.9589775044
 40
1.0
 40
1.0
 40
1.0
 40
1.0
 10
49.7204813805
 20
47.2433399106
 30
0.0
 10
49.7204813805
 20
47.4842531857
 30
0.0
 10
49.6971478065
 20
47.9595431439
 30
0.0
 10
49.6092230868
 20
48.5415794525
 30
0.0
 10
49.5037342353
 20
48.9844571399
 30
0.0
 10
49.4098424125
 20
49.295615258
 30
0.0
 10
49.3010168011
 20
49.5871563268
 30
0.0
 10
49.1782958605
 20
49.8563292006
 30
0.0
 10
49.042822456
 20
50.1005986595
 30
0.0
 10
48.8958162403
 20
50.3176579814
 30
0.0
 10
48.7386089982
 20
50.5054765973
 30
0.0
 10
48.57251096
 20
50.6622203491
 30
0.0
 10
48.398964205
 20
50.7863474232
 30
0.0
 10
48.2193630874
 20
50.876352854
 30
0.0
 10
48.035519908
 20
50.9310551342
 30
0.0
 10
47.9106717801
 20
50.9433230952
 30
0.0
 10
47.849247001
 20
50.9433230078
 30
0.0
  0
SPLINE
  5
267
100
AcDbEntity
  8
0
100
AcDbSpline
 62
7
  6
BYLAYER
 70
0
 71
3
 72
18
 73
14
 74
0
 42
0.0000001
 43
0.0000001
 44
0.0000000001
 40
0.0
 40
0.0
 40
0.0
 40
0.0
 40
0.0578767631
 40
0.1159434355
 40
0.174380071
 40
0.2333507329
 40
0.2929929065
 40
0.3534164804
 40
0.4767163481
 40
0.6035949313
 40
0.7336949685
 40
0.8662008228
 40
1.0
 40
1.0
 40
1.0
 40
1.0
 10
54.9881970607
 20
50.9433285686
 30
0.0
 10
55.092654047
 20
50.9433285686
 30
0.0
 10
55.3021071207
 20
50.9314074833
 30
0.0
 10
55.6128878268
 20
50.8778441597
 30
0.0
 10
55.9176363745
 20
50.7892446029
 30
0.0
 10
56.2133046508
 20
50.6663927209
 30
0.0
 10
56.4971069133
 20
50.5105669344
 30
0.0
 10
56.8582160974
 20
50.2593156983
 30
0.0
 10
57.2662781476
 20
49.8689569979
 30
0.0
 10
57.6636234056
 20
49.3045127844
 30
0.0
 10
57.9582899471
 20
48.662085009
 30
0.0
 10
58.139455727
 20
47.9664650832
 30
0.0
 10
58.180137205
 20
47.4848229871
 30
0.0
 10
58.180137205
 20
47.2433399106
 30
0.0
  0
SPLINE
  5
268
100
AcDbEntity
  8
0
100
AcDbSpline
 62
7
  6
BYLAYER
 70
0
 71
3
 72
18
 73
14
 74
0
 42
0.0000001
 43
0.0000001
 44
0.0000000001
 40
0.0
 40
0.0
 40
0.0
 40
0.0
 40
0.1855356695
 40
0.3641431621
 40
0.5285057773
 40
0.6730802325
 40
0.7935089605
 40
0.8437077465
 40
0.8870297935
 40
0.9235456237
 40
0.9536791681
 40
0.9784912318
 40
1.0
 40
1.0
 40
1.0
 40
1.0
 10
9.5787184085
 20
39.943340117
 30
0.0
 10
9.5787184118
 20
39.8972315762
 30
0.0
 10
9.5765395887
 20
39.8067202378
 30
0.0
 10
9.5669601239
 20
39.6756755046
 30
0.0
 10
9.5515403233
 20
39.5554192107
 30
0.0
 10
9.5310845576
 20
39.4506212552
 30
0.0
 10
9.5097218815
 20
39.3750787325
 30
0.0
 10
9.4901464477
 20
39.3255930077
 30
0.0
 10
9.4757391336
 20
39.2966107679
 30
0.0
 10
9.4608184058
 20
39.2736144175
 30
0.0
 10
9.4453924499
 20
39.2567276337
 30
0.0
 10
9.4293904075
 20
39.2460013297
 30
0.0
 10
9.4178107471
 20
39.2433399106
 30
0.0
 10
9.4124654789
 20
39.2433399106
 30
0.0
  0
SPLINE
  5
269
100
AcDbEntity
  8
0
100
AcDbSpline
 62
7
  6
BYLAYER
 70
0
 71
3
 72
18
 73
14
 74
0
 42
0.0000001
 43
0.0000001
 44
0.0000000001
 40
0.0
 40
0.0
 40
0.0
 40
0.0
 40
0.185531808
 40
0.3641299272
 40
0.5284812041
 40
0.6730479894
 40
0.7934744629
 40
0.8436775091
 40
0.8870061301
 40
0.9235282937
 40
0.9536695601
 40
0.9784886247
 40
1.0
 40
1.0
 40
1.0
 40
1.0
 10
9.5787184007
 20
54.5433399106
 30
0.0
 10
9.5787184007
 20
54.5894474925
 30
0.0
 10
9.5765383092
 20
54.6799555387
 30
0.0
 10
9.5669575677
 20
54.8109940181
 30
0.0
 10
9.5515396005
 20
54.9312433808
 30
0.0
 10
9.5310873335
 20
55.0360366067
 30
0.0
 10
9.5097288655
 20
55.11157871
 30
0.0
 10
9.4901575433
 20
55.1610682852
 30
0.0
 10
9.4757517224
 20
55.1900561032
 30
0.0
 10
9.4608283131
 20
55.2130570032
 30
0.0
 10
9.4453981516
 20
55.2299470589
 30
0.0
 10
9.4293932227
 20
55.2406764264
 30
0.0
 10
9.4178113951
 20
55.2433399106
 30
0.0
 10
9.4124654789
 20
55.2433399106
 30
0.0
  0
SPLINE
  5
26A
100
AcDbEntity
  8
0
100
AcDbSpline
 62
7
  6
BYLAYER
 70
0
 71
3
 72
17
 73
13
 74
0
 42
0.0000001
 43
0.0000001
 44
0.0000000001
 40
0.0
 40
0.0
 40
0.0
 40
0.0
 40
0.3568956039
 40
0.5318492779
 40
0.6892193441
 40
0.8181284238
 40
0.8700396355
 40
0.9128725053
 40
0.9463606387
 40
0.9711250286
 40
0.988297622
 40
1.0
 40
1.0
 40
1.0
 40
1.0
 10
53.8311265753
 20
39.8428520866
 30
0.0
 10
53.8245567704
 20
39.7692695125
 30
0.0
 10
53.8124154225
 20
39.6597939313
 30
0.0
 10
53.7909505948
 20
39.518735167
 30
0.0
 10
53.7735249372
 20
39.424847673
 30
0.0
 10
53.7575444601
 20
39.3566419083
 30
0.0
 10
53.7444119663
 20
39.3122343023
 30
0.0
 10
53.7356120996
 20
39.2871770799
 30
0.0
 10
53.727245332
 20
39.2679655662
 30
0.0
 10
53.7193012751
 20
39.2544608077
 30
0.0
 10
53.7119975573
 20
39.2459858318
 30
0.0
 10
53.7061644308
 20
39.2433403023
 30
0.0
 10
53.7037421077
 20
39.2433399107
 30
0.0
  0
SPLINE
  5
26B
100
AcDbEntity
  8
0
100
AcDbSpline
 62
7
  6
BYLAYER
 70
0
 71
3
 72
10
 73
6
 74
0
 42
0.0000001
 43
0.0000001
 44
0.0000000001
 40
0.0
 40
0.0
 40
0.0
 40
0.0
 40
0.2938308947
 40
0.6179499196
 40
1.0
 40
1.0
 40
1.0
 40
1.0
 10
7.7787184007
 20
39.2433399106
 30
0.0
 10
7.8771235399
 20
40.022781433
 30
0.0
 10
8.0545858716
 20
41.6657089043
 30
0.0
 10
8.2393849909
 20
44.3335664681
 30
0.0
 10
8.2854755204
 20
46.2219030359
 30
0.0
 10
8.2854755204
 20
47.2433399106
 30
0.0
  0
SPLINE
  5
26C
100
AcDbEntity
  8
0
100
AcDbSpline
 62
7
  6
BYLAYER
 70
0
 71
3
 72
15
 73
11
 74
0
 42
0.0000001
 43
0.0000001
 44
0.0000000001
 40
0.0
 40
0.0
 40
0.0
 40
0.0
 40
0.1533236262
 40
0.3122702936
 40
0.4692701844
 40
0.615412239
 40
0.7429591063
 40
0.8484779727
 40
0.932031666
 40
1.0
 40
1.0
 40
1.0
 40
1.0
 10
55.3201886131
 20
39.708348263
 30
0.0
 10
55.3179013387
 20
39.6800964824
 30
0.0
 10
55.3109665844
 20
39.6227204574
 30
0.0
 10
55.2937442299
 20
39.5375855181
 30
0.0
 10
55.2690047255
 20
39.4556872219
 30
0.0
 10
55.2381752835
 20
39.3820588342
 30
0.0
 10
55.2021030259
 20
39.3216369859
 30
0.0
 10
55.1635112053
 20
39.2770372853
 30
0.0
 10
55.123593308
 20
39.2499463615
 30
0.0
 10
55.0954624197
 20
39.2433399127
 30
0.0
 10
55.082897433
 20
39.2433399106
 30
0.0
  0
SPLINE
  5
26D
100
AcDbEntity
  8
0
100
AcDbSpline
 62
7
  6
BYLAYER
 70
0
 71
3
 72
15
 73
11
 74
0
 42
0.0000001
 43
0.0000001
 44
0.0000000001
 40
0.0
 40
0.0
 40
0.0
 40
0.0
 40
0.1533222322
 40
0.3122655835
 40
0.4692608838
 40
0.6153985513
 40
0.7429429894
 40
0.8484629888
 40
0.9320223993
 40
1.0
 40
1.0
 40
1.0
 40
1.0
 10
55.32018878
 20
54.7783288968
 30
0.0
 10
55.3179038316
 20
54.8065809861
 30
0.0
 10
55.3109733818
 20
54.8639574562
 30
0.0
 10
55.2937561251
 20
54.9490928964
 30
0.0
 10
55.2690201521
 20
55.0309911294
 30
0.0
 10
55.238192457
 20
55.1046191918
 30
0.0
 10
55.2021198682
 20
55.1650408063
 30
0.0
 10
55.163525625
 20
55.2096406747
 30
0.0
 10
55.1236035661
 20
55.2367319525
 30
0.0
 10
55.0954698587
 20
55.243339114
 30
0.0
 10
55.0829029914
 20
55.2433399104
 30
0.0
  0
SPLINE
  5
26E
100
AcDbEntity
  8
0
100
AcDbSpline
 62
7
  6
BYLAYER
 70
0
 71
3
 72
9
 73
5
 74
0
 42
0.0000001
 43
0.0000001
 44
0.0000000001
 40
0.0
 40
0.0
 40
0.0
 40
0.0
 40
0.5064660227
 40
1.0
 40
1.0
 40
1.0
 40
1.0
 10
17.768718398
 20
39.2557546887
 30
0.0
 10
17.6325279741
 20
39.255739862
 30
0.0
 10
17.3636505608
 20
39.2510048222
 30
0.0
 10
17.0948180648
 20
39.2433529005
 30
0.0
 10
16.9621051115
 20
39.2433399106
 30
0.0
  0
SPLINE
  5
26F
100
AcDbEntity
  8
0
100
AcDbSpline
 62
7
  6
BYLAYER
 70
0
 71
3
 72
15
 73
11
 74
0
 42
0.0000001
 43
0.0000001
 44
0.0000000001
 40
0.0
 40
0.0
 40
0.0
 40
0.0
 40
0.0730051681
 40
0.1451220983
 40
0.21574573
 40
0.2845647674
 40
0.4164360881
 40
0.5415288938
 40
0.7763123894
 40
1.0
 40
1.0
 40
1.0
 40
1.0
 10
52.7687005386
 20
39.943340117
 30
0.0
 10
52.7775581389
 20
39.9142447019
 30
0.0
 10
52.7971862041
 20
39.856975188
 30
0.0
 10
52.8341810988
 20
39.7749182985
 30
0.0
 10
52.8777270829
 20
39.6981463862
 30
0.0
 10
52.9420972291
 20
39.6050929984
 30
0.0
 10
53.0336570343
 20
39.503892756
 30
0.0
 10
53.1950077119
 20
39.3764378012
 30
0.0
 10
53.4186101993
 20
39.2717081975
 30
0.0
 10
53.6105534292
 20
39.24334025
 30
0.0
 10
53.7037412709
 20
39.2433399106
 30
0.0
  0
SPLINE
  5
270
100
AcDbEntity
  8
0
100
AcDbSpline
 62
7
  6
BYLAYER
 70
0
 71
3
 72
17
 73
13
 74
0
 42
0.0000001
 43
0.0000001
 44
0.0000000001
 40
0.0
 40
0.0
 40
0.0
 40
0.0
 40
0.3568629822
 40
0.5318128834
 40
0.6891875333
 40
0.8181072188
 40
0.8700244816
 40
0.912862971
 40
0.9463556682
 40
0.9711232218
 40
0.9882973748
 40
1.0
 40
1.0
 40
1.0
 40
1.0
 10
53.8313396252
 20
54.6438664835
 30
0.0
 10
53.824767007
 20
54.7174378393
 30
0.0
 10
53.8126219046
 20
54.8268991408
 30
0.0
 10
53.7911536037
 20
54.9679425591
 30
0.0
 10
53.7737252343
 20
55.0618264643
 30
0.0
 10
53.757742792
 20
55.1300322063
 30
0.0
 10
53.7446089869
 20
55.1744415032
 30
0.0
 10
53.7358082619
 20
55.1995003928
 30
0.0
 10
53.7274408662
 20
55.2187133547
 30
0.0
 10
53.7194963562
 20
55.2322190535
 30
0.0
 10
53.7121926346
 20
55.2406945155
 30
0.0
 10
53.7063591855
 20
55.2433399242
 30
0.0
 10
53.7039369479
 20
55.2433399134
 30
0.0
  0
SPLINE
  5
271
100
AcDbEntity
  8
0
100
AcDbSpline
 62
7
  6
BYLAYER
 70
0
 71
3
 72
12
 73
8
 74
0
 42
0.0000001
 43
0.0000001
 44
0.0000000001
 40
0.0
 40
0.0
 40
0.0
 40
0.0
 40
0.2686618311
 40
0.5365100069
 40
0.7929649456
 40
0.9080670062
 40
1.0
 40
1.0
 40
1.0
 40
1.0
 10
53.8313262843
 20
54.6438652707
 30
0.0
 10
53.7360536032
 20
54.6360199018
 30
0.0
 10
53.5460684743
 20
54.6171242764
 30
0.0
 10
53.2656375324
 20
54.5860918688
 30
0.0
 10
53.0393209887
 20
54.5626124239
 30
0.0
 10
52.8749439313
 20
54.5491853684
 30
0.0
 10
52.8014017943
 20
54.5446971953
 30
0.0
 10
52.7687184015
 20
54.5433398926
 30
0.0
  0
SPLINE
  5
272
100
AcDbEntity
  8
0
100
AcDbSpline
 62
7
  6
BYLAYER
 70
0
 71
3
 72
23
 73
19
 74
0
 42
0.0000001
 43
0.0000001
 44
0.0000000001
 40
0.0
 40
0.0
 40
0.0
 40
0.0
 40
0.0010696877
 40
0.0042748415
 40
0.0096097119
 40
0.0170685751
 40
0.0266457323
 40
0.0383348857
 40
0.0679918713
 40
0.1059031755
 40
0.151923397
 40
0.2058571881
 40
0.2674799319
 40
0.3365466366
 40
0.4127480086
 40
0.5852480821
 40
0.782157986
 40
1.0
 40
1.0
 40
1.0
 40
1.0
 10
57.7687184007
 20
54.9433399107
 30
0.0
 10
57.7678462531
 20
54.9434129031
 30
0.0
 10
57.7643424893
 20
54.9431169448
 30
0.0
 10
57.7564888631
 20
54.9431478098
 30
0.0
 10
57.7433991626
 20
54.9426986081
 30
0.0
 10
57.7251041042
 20
54.94225814
 30
0.0
 10
57.7016109351
 20
54.941556958
 30
0.0
 10
57.6599667613
 20
54.9402778195
 30
0.0
 10
57.5951573952
 20
54.9380557134
 30
0.0
 10
57.5022894546
 20
54.9345030424
 30
0.0
 10
57.3895921797
 20
54.9297132566
 30
0.0
 10
57.2575377837
 20
54.9235269914
 30
0.0
 10
57.1066811655
 20
54.915778064
 30
0.0
 10
56.9376717278
 20
54.9063084029
 30
0.0
 10
56.6781604253
 20
54.8905008718
 30
0.0
 10
56.3144231086
 20
54.865467646
 30
0.0
 10
55.835465485
 20
54.8271542385
 30
0.0
 10
55.4975522762
 20
54.7959226393
 30
0.0
 10
55.3201887246
 20
54.7783302277
 30
0.0
  0
SPLINE
  5
273
100
AcDbEntity
  8
0
100
AcDbSpline
 62
7
  6
BYLAYER
 70
0
 71
3
 72
9
 73
5
 74
0
 42
0.0000001
 43
0.0000001
 44
0.0000000001
 40
0.0
 40
0.0
 40
0.0
 40
0.0
 40
0.5064658827
 40
1.0
 40
1.0
 40
1.0
 40
1.0
 10
17.7687184009
 20
55.2309251326
 30
0.0
 10
17.9049087881
 20
55.2309365165
 30
0.0
 10
18.1737862121
 20
55.2356741703
 30
0.0
 10
18.4426186981
 20
55.2433305045
 30
0.0
 10
18.57533169
 20
55.2433399106
 30
0.0
  0
SPLINE
  5
274
100
AcDbEntity
  8
0
100
AcDbSpline
 62
7
  6
BYLAYER
 70
0
 71
3
 72
23
 73
19
 74
0
 42
0.0000001
 43
0.0000001
 44
0.0000000001
 40
0.0
 40
0.0
 40
0.0
 40
0.0
 40
0.2178423077
 40
0.4147522978
 40
0.5872524671
 40
0.6634538546
 40
0.7325205131
 40
0.7941431674
 40
0.848076878
 40
0.8940969983
 40
0.9320082362
 40
0.9616651767
 40
0.9733543013
 40
0.9829314373
 40
0.9903902896
 40
0.9957251565
 40
0.9989303109
 40
1.0
 40
1.0
 40
1.0
 40
1.0
 10
55.3201879515
 20
39.7083483205
 30
0.0
 10
55.4975502742
 20
39.6907384362
 30
0.0
 10
55.8354620095
 20
39.6594812919
 30
0.0
 10
56.3144192424
 20
39.6211485845
 30
0.0
 10
56.678157104
 20
39.5961124024
 30
0.0
 10
56.9376691448
 20
39.5803097224
 30
0.0
 10
57.1066790673
 20
39.570845941
 30
0.0
 10
57.2575361237
 20
39.5631045992
 30
0.0
 10
57.3895909007
 20
39.5569269773
 30
0.0
 10
57.502288525
 20
39.5521462878
 30
0.0
 10
57.5951567741
 20
39.5486024493
 30
0.0
 10
57.6599663576
 20
39.5463876311
 30
0.0
 10
57.701610687
 20
39.5451134014
 30
0.0
 10
57.7251038991
 20
39.5444156779
 30
0.0
 10
57.743399101
 20
39.5439766813
 30
0.0
 10
57.7564886807
 20
39.54353174
 30
0.0
 10
57.7643426542
 20
39.5435596447
 30
0.0
 10
57.7678461161
 20
39.5432685447
 30
0.0
 10
57.7687184007
 20
39.5433399106
 30
0.0
  0
SPLINE
  5
275
100
AcDbEntity
  8
0
100
AcDbSpline
 62
7
  6
BYLAYER
 70
0
 71
3
 72
12
 73
8
 74
0
 42
0.0000001
 43
0.0000001
 44
0.0000000001
 40
0.0
 40
0.0
 40
0.0
 40
0.0
 40
0.0919326506
 40
0.2070360772
 40
0.4634942414
 40
0.7313421945
 40
1.0
 40
1.0
 40
1.0
 40
1.0
 10
52.7687094572
 20
39.9433402949
 30
0.0
 10
52.801386824
 20
39.9419833634
 30
0.0
 10
52.8749160467
 20
39.9374962998
 30
0.0
 10
53.0392649623
 20
39.9240724205
 30
0.0
 10
53.2655423198
 20
39.9005989696
 30
0.0
 10
53.5459228441
 20
39.8695780244
 30
0.0
 10
53.7358729619
 20
39.8506941163
 30
0.0
 10
53.8311273764
 20
39.8428549684
 30
0.0
  0
SPLINE
  5
276
100
AcDbEntity
  8
0
100
AcDbSpline
 62
7
  6
BYLAYER
 70
0
 71
3
 72
9
 73
5
 74
0
 42
0.0000001
 43
0.0000001
 44
0.0000000001
 40
0.0
 40
0.0
 40
0.0
 40
0.0
 40
0.4935290487
 40
1.0
 40
1.0
 40
1.0
 40
1.0
 10
18.5753316897
 20
39.2433399106
 30
0.0
 10
18.4426200597
 20
39.2433527156
 30
0.0
 10
18.1737876176
 20
39.2510073359
 30
0.0
 10
17.9049101494
 20
39.2557421502
 30
0.0
 10
17.768718398
 20
39.2557546887
 30
0.0
  0
SPLINE
  5
277
100
AcDbEntity
  8
0
100
AcDbSpline
 62
7
  6
BYLAYER
 70
0
 71
3
 72
10
 73
6
 74
0
 42
0.0000001
 43
0.0000001
 44
0.0000000001
 40
0.0
 40
0.0
 40
0.0
 40
0.0
 40
0.3820441803
 40
0.7061647638
 40
1.0
 40
1.0
 40
1.0
 40
1.0
 10
8.2854755204
 20
47.2433399106
 30
0.0
 10
8.2854755204
 20
48.2647610159
 30
0.0
 10
8.239382505
 20
50.1530858035
 30
0.0
 10
8.054592009
 20
52.8209439905
 30
0.0
 10
7.8771282772
 20
54.4638871421
 30
0.0
 10
7.7787184007
 20
55.2433399106
 30
0.0
  0
SPLINE
  5
278
100
AcDbEntity
  8
0
100
AcDbSpline
 62
7
  6
BYLAYER
 70
0
 71
3
 72
15
 73
11
 74
0
 42
0.0000001
 43
0.0000001
 44
0.0000000001
 40
0.0
 40
0.0
 40
0.0
 40
0.0
 40
0.0730015523
 40
0.1451145375
 40
0.2157344101
 40
0.2845491126
 40
0.4164124504
 40
0.5414989482
 40
0.7762845218
 40
1.0
 40
1.0
 40
1.0
 40
1.0
 10
52.7687184007
 20
54.5433399106
 30
0.0
 10
52.7775792516
 20
54.5724373343
 30
0.0
 10
52.7971834057
 20
54.6297208179
 30
0.0
 10
52.8341908395
 20
54.7117823564
 30
0.0
 10
52.8777428789
 20
54.7885590759
 30
0.0
 10
52.942119881
 20
54.8816195909
 30
0.0
 10
53.0336950386
 20
54.98282235
 30
0.0
 10
53.1950773409
 20
55.1102775124
 30
0.0
 10
53.4187401868
 20
55.2149885234
 30
0.0
 10
53.6107236259
 20
55.2433395899
 30
0.0
 10
53.7039364836
 20
55.2433399106
 30
0.0
  0
SPLINE
  5
279
100
AcDbEntity
  8
0
100
AcDbSpline
 62
7
  6
BYLAYER
 70
0
 71
3
 72
9
 73
5
 74
0
 42
0.0000001
 43
0.0000001
 44
0.0000000001
 40
0.0
 40
0.0
 40
0.0
 40
0.0
 40
0.4935316259
 40
1.0
 40
1.0
 40
1.0
 40
1.0
 10
16.9621051114
 20
55.2433399106
 30
0.0
 10
17.0948174331
 20
55.2433320315
 30
0.0
 10
17.3636499412
 20
55.2356757545
 30
0.0
 10
17.632527344
 20
55.2309345258
 30
0.0
 10
17.7687184009
 20
55.2309251326
 30
0.0
  0
ENDSEC
  0
SECTION
  2
OBJECTS
  0
DICTIONARY
  5
C
100
AcDbDictionary
280
0
281
1
  3
ACAD_GROUP
350
D
  3
ACAD_MLINESTYLE
350
17
  3
ACAD_LAYOUT
350
1A
  3
ACAD_PLOTSETTINGS
350
19
  3
ACAD_PLOTSTYLENAME
350
E
  0
DICTIONARY
  5
D
102
{ACAD_REACTORS
330
C
102
}
100
AcDbDictionary
280
0
281
1
  0
ACDBDICTIONARYWDFLT
  5
E
102
{ACAD_REACTORS
330
C
102
}
100
AcDbDictionary
281
1
  3
Normal
350
F
100
AcDbDictionaryWithDefault
340
F
  0
DICTIONARY
  5
17
102
{ACAD_REACTORS
330
C
102
}
100
AcDbDictionary
280
0
281
1
  3
Standard
350
18
  0
DICTIONARY
  5
19
102
{ACAD_REACTORS
330
C
102
}
100
AcDbDictionary
281
1
  0
DICTIONARY
  5
1A
102
{ACAD_REACTORS
330
C
102
}
100
AcDbDictionary
281
1
  3
Model
350
27A
  3
Layout1
350
27B
  0
ACDBPLACEHOLDER
  5
F
102
{ACAD_REACTORS
330
E
102
}
  0
MLINESTYLE
  5
18
102
{ACAD_REACTORS
330
17
102
}
100
AcDbMlineStyle
  2
STANDARD
 70
0
  3

 62
256
 51
90.0
 52
90.0
 71
2
 49
0.5
 62
256
  6
BYLAYER
 49
-0.5
 62
256
  6
BYLAYER
  0
LAYOUT
  5
27A
102
{ACAD_REACTORS
330
1A
102
}
100
AcDbPlotSettings
  1

  2
none_device
  4

  6

 40
0.0
 41
0.0
 42
0.0
 43
0.0
 44
210.0
 45
297.0
 46
0.0
 47
0.0
 48
0.0
 49
0.0
140
0.0
141
0.0
142
1.0
143
1.0
 70
1024
 72
1
 73
0
 74
0
  7

 75
0
147
1.0
148
0.0
149
0.0
100
AcDbLayout
  1
Model
 70
0
 71
0
 10
0.0
 20
0.0
 11
210.0
 21
297.0
 12
0.0
 22
0.0
 32
0.0
 14
0.0
 24
0.0
 34
0.0
 15
0.0
 25
0.0
 35
0.0
146
0.0
 13
0.0
 23
0.0
 33
0.0
 16
1.0
 26
0.0
 36
0.0
 17
0.0
 27
1.0
 37
0.0
 76
0
330
210
345
0
346
0
  0
LAYOUT
  5
27B
102
{ACAD_REACTORS
330
1A
102
}
100
AcDbPlotSettings
  1

  2
none_device
  4

  6

 40
0.0
 41
0.0
 42
0.0
 43
0.0
 44
210.0
 45
297.0
 46
0.0
 47
0.0
 48
0.0
 49
0.0
140
0.0
141
0.0
142
1.0
143
1.0
 70
0
 72
1
 73
0
 74
0
  7

 75
0
147
1.0
148
0.0
149
0.0
100
AcDbLayout
  1
Layout1
 70
0
 71
1
 10
0.0
 20
0.0
 11
210.0
 21
297.0
 12
0.0
 22
0.0
 32
0.0
 14
0.0
 24
0.0
 34
0.0
 15
0.0
 25
0.0
 35
0.0
146
0.0
 13
0.0
 23
0.0
 33
0.0
 16
1.0
 26
0.0
 36
0.0
 17
0.0
 27
1.0
 37
0.0
 76
0
330
211
345
0
346
0
  0
ENDSEC
  0
EOF
