999
DXF file: C:\Users\sesa63760\Dev\_Creo\CAD\MCADID0004335_3D-CAD\drw0001_2.dxf
999
Pro/ENGINEER 2019471 by Parametric Technology Corporation
  0
SECTION
  2
HEADER
  9
$ACADVER
  1
AC1024
  9
$DWGCODEPAGE
  3
ANSI_1252
  9
$EXTMAX
 10
89.7011160594
 20
126.8630069983
 30
0.0
  9
$EXTMIN
 10
0.0
 20
0.0
 30
0.0
  9
$LIMMIN
 10
0.0
 20
0.0
  9
$LIMMAX
 10
89.7011160594
 20
126.8630069983
  9
$VIEWCTR
 10
44.8505580297
 20
63.4315034992
  9
$VIEWSIZE
 40
126.8630069983
  9
$CLAYER
  8
0
  9
$LTSCALE
 40
8.2695886043
  9
$CELTYPE
  6
BYLAYER
  9
$DIMSCALE
 40
1.0
  9
$DIMASZ
 40
1.0678704293
  9
$DIMEXO
 40
1.0
  9
$DIMDLI
 40
5.7135339448
  9
$DIMEXE
 40
1.0
  9
$DIMCEN
 40
1.353205408
  9
$DIMLFAC
 40
1.0
  9
$DIMBLK
  1
_FILLED
  9
$DIMALT
 70
0
  9
$DIMALTF
 40
0.0393700787
  9
$DIMTXT
 40
1.495018601
  9
$DIMTOL
 70
1
  9
$DIMLIM
 70
0
  9
$DIMTFAC
 40
1.0
  9
$DIMTP
 40
0.01
  9
$DIMTM
 40
0.01
  9
$DIMGAP
 40
0.625
  9
$DIMDSEP
 70
46
  9
$AUNITS
 70
0
  9
$PDMODE
 70
3
  9
$PDSIZE
 40
0.3125
  9
$HANDSEED
  5
2C3
  9
$TILEMODE
 70
1
  9
$MEASUREMENT
 70
1
  9
$INSUNITS
 70
4
  0
ENDSEC
  0
SECTION
  2
CLASSES
  0
CLASS
  1
ACDBDICTIONARYWDFLT
  2
AcDbDictionaryWithDefault
  3
AutoCAD 2000
 90
0
 91
1
280
0
281
0
  0
CLASS
  1
ACDBPLACEHOLDER
  2
AcDbPlaceHolder
  3
AutoCAD 2000
 90
0
 91
1
280
0
281
0
  0
CLASS
  1
LAYOUT
  2
AcDbLayout
  3
AutoCAD 2000
 90
0
 91
0
280
0
281
0
  0
ENDSEC
  0
SECTION
  2
TABLES
  0
TABLE
  2
VPORT
  5
8
100
AcDbSymbolTable
 70
2
  0
VPORT
  5
1F4
100
AcDbSymbolTableRecord
100
AcDbViewportTableRecord
  2
*ACTIVE
 70
0
 10
0.0
 20
0.0
 11
1.0
 21
1.0
 12
44.8505580297
 22
63.4315034992
 13
0.0
 23
0.0
 14
1.0
 24
1.0
 15
0.0
 25
0.0
 16
0.0
 26
0.0
 36
1.0
 17
0.0
 27
0.0
 37
0.0
 40
126.8630069983
 41
0.7070707071
 42
50.0
 43
0.0
 44
0.0
 50
0.0
 51
0.0
 71
0
 72
100
 73
1
 74
1
 75
0
 76
0
 77
0
 78
0
  0
ENDTAB
  0
TABLE
  2
LTYPE
  5
5
100
AcDbSymbolTable
 70
6
  0
LTYPE
  5
14
100
AcDbSymbolTableRecord
100
AcDbLinetypeTableRecord
  2
BYBLOCK
 70
0
  3

 72
65
 73
0
 40
0.0
  0
LTYPE
  5
15
100
AcDbSymbolTableRecord
100
AcDbLinetypeTableRecord
  2
BYLAYER
 70
0
  3

 72
65
 73
0
 40
0.0
  0
LTYPE
  5
16
100
AcDbSymbolTableRecord
100
AcDbLinetypeTableRecord
  2
CONTINUOUS
 70
64
  3
Solid line
 72
65
 73
0
 40
0.0
  0
LTYPE
  5
1F5
100
AcDbSymbolTableRecord
100
AcDbLinetypeTableRecord
  2
CENTER
 70
64
  3
____ _ ____ _ ____ _ ____ _ ____ _ ____ _ ____
 72
65
 73
4
 40
0.6
 49
0.375
 74
0
 49
-0.075
 74
0
 49
0.075
 74
0
 49
-0.075
 74
0
  0
LTYPE
  5
1F6
100
AcDbSymbolTableRecord
100
AcDbLinetypeTableRecord
  2
HIDDEN
 70
64
  3
- - - - - - - - - - - - - - - - - - - -
 72
65
 73
2
 40
0.2
 49
0.1
 74
0
 49
-0.1
 74
0
  0
LTYPE
  5
1F7
100
AcDbSymbolTableRecord
100
AcDbLinetypeTableRecord
  2
PHANTOM
 70
64
  3
_____ _ _ _____ _ _ _____ _ _ _____
 72
65
 73
6
 40
0.8
 49
0.45
 74
0
 49
-0.05
 74
0
 49
0.1
 74
0
 49
-0.05
 74
0
 49
0.1
 74
0
 49
-0.05
 74
0
  0
LTYPE
  5
1F8
100
AcDbSymbolTableRecord
100
AcDbLinetypeTableRecord
  2
DOT
 70
64
  3
. . . . . . . . . . . . . . . . . . . .
 72
65
 73
2
 40
0.2
 49
0.1
 74
0
 49
-0.1
 74
0
  0
LTYPE
  5
1F9
100
AcDbSymbolTableRecord
100
AcDbLinetypeTableRecord
  2
DASHED
 70
64
  3
- - - - - - - - - - - - - - - - - - - -
 72
65
 73
2
 40
0.2
 49
0.1
 74
0
 49
-0.1
 74
0
  0
ENDTAB
  0
TABLE
  2
LAYER
  5
2
100
AcDbSymbolTable
 70
36
  0
LAYER
  5
10
100
AcDbSymbolTableRecord
100
AcDbLayerTableRecord
  2
0
 70
0
 62
7
  6
CONTINUOUS
370
-3
390
F
  0
LAYER
  5
1FA
100
AcDbSymbolTableRecord
100
AcDbLayerTableRecord
  2
DEFAULT_1
 70
0
 62
7
  6
CENTER
370
-3
390
F
  0
LAYER
  5
1FB
100
AcDbSymbolTableRecord
100
AcDbLayerTableRecord
  2
DEFAULT_2
 70
0
 62
7
  6
HIDDEN
370
-3
390
F
  0
LAYER
  5
1FC
100
AcDbSymbolTableRecord
100
AcDbLayerTableRecord
  2
DEFAULT_3
 70
0
 62
7
  6
PHANTOM
370
-3
390
F
  0
LAYER
  5
1FD
100
AcDbSymbolTableRecord
100
AcDbLayerTableRecord
  2
00_COMPONENTS
 70
0
 62
7
  6
CONTINUOUS
370
-3
390
F
  0
LAYER
  5
1FE
100
AcDbSymbolTableRecord
100
AcDbLayerTableRecord
  2
01_1_DEFAULT_DATUMS
 70
0
 62
7
  6
CONTINUOUS
370
-3
390
F
  0
LAYER
  5
1FF
100
AcDbSymbolTableRecord
100
AcDbLayerTableRecord
  2
01_PLANES
 70
0
 62
7
  6
CONTINUOUS
370
-3
390
F
  0
LAYER
  5
200
100
AcDbSymbolTableRecord
100
AcDbLayerTableRecord
  2
02_COORD_SYS
 70
0
 62
7
  6
CONTINUOUS
370
-3
390
F
  0
LAYER
  5
201
100
AcDbSymbolTableRecord
100
AcDbLayerTableRecord
  2
03_AXES
 70
0
 62
7
  6
CONTINUOUS
370
-3
390
F
  0
LAYER
  5
202
100
AcDbSymbolTableRecord
100
AcDbLayerTableRecord
  2
04_POINTS
 70
0
 62
7
  6
CONTINUOUS
370
-3
390
F
  0
LAYER
  5
203
100
AcDbSymbolTableRecord
100
AcDbLayerTableRecord
  2
05_CURVES
 70
0
 62
7
  6
CONTINUOUS
370
-3
390
F
  0
LAYER
  5
204
100
AcDbSymbolTableRecord
100
AcDbLayerTableRecord
  2
06_SURFS
 70
0
 62
7
  6
CONTINUOUS
370
-3
390
F
  0
LAYER
  5
205
100
AcDbSymbolTableRecord
100
AcDbLayerTableRecord
  2
07_COSMETICS
 70
0
 62
7
  6
CONTINUOUS
370
-3
390
F
  0
LAYER
  5
206
100
AcDbSymbolTableRecord
100
AcDbLayerTableRecord
  2
10_NOTES
 70
0
 62
7
  6
CONTINUOUS
370
-3
390
F
  0
LAYER
  5
207
100
AcDbSymbolTableRecord
100
AcDbLayerTableRecord
  2
11_NOTES_PUB
 70
0
 62
7
  6
CONTINUOUS
370
-3
390
F
  0
LAYER
  5
208
100
AcDbSymbolTableRecord
100
AcDbLayerTableRecord
  2
13_REF_GTOL
 70
0
 62
7
  6
CONTINUOUS
370
-3
390
F
  0
LAYER
  5
209
100
AcDbSymbolTableRecord
100
AcDbLayerTableRecord
  2
16_MISC
 70
0
 62
7
  6
CONTINUOUS
370
-3
390
F
  0
LAYER
  5
20A
100
AcDbSymbolTableRecord
100
AcDbLayerTableRecord
  2
17_NO_PRINT
 70
0
 62
7
  6
CONTINUOUS
370
-3
390
F
  0
LAYER
  5
20B
100
AcDbSymbolTableRecord
100
AcDbLayerTableRecord
  2
18_DATUM_CAMS_JOINTS
 70
0
 62
7
  6
CONTINUOUS
370
-3
390
F
  0
LAYER
  5
20C
100
AcDbSymbolTableRecord
100
AcDbLayerTableRecord
  2
19_DATUM_FUNCTIONAL
 70
0
 62
7
  6
CONTINUOUS
370
-3
390
F
  0
LAYER
  5
20D
100
AcDbSymbolTableRecord
100
AcDbLayerTableRecord
  2
20_DATUM_KINEMATIC_SCHEME
 70
0
 62
7
  6
CONTINUOUS
370
-3
390
F
  0
ENDTAB
  0
TABLE
  2
STYLE
  5
3
100
AcDbSymbolTable
 70
1
  0
STYLE
  5
11
100
AcDbSymbolTableRecord
100
AcDbTextStyleTableRecord
  2
STANDARD
 70
0
 40
0.0
 41
1.0
 50
0.0
 71
0
 42
0.2
  3
ARIAL.TTF
  4

  0
STYLE
  5
20E
100
AcDbSymbolTableRecord
100
AcDbTextStyleTableRecord
  2
TEXTSTYLE_1
 70
0
 40
0.0
 41
0.8
 50
0.0
 71
0
 42
0.2
  3
gdt
  4

  0
ENDTAB
  0
TABLE
  2
VIEW
  5
6
100
AcDbSymbolTable
 70
0
  0
ENDTAB
  0
TABLE
  2
UCS
  5
7
100
AcDbSymbolTable
 70
0
  0
ENDTAB
  0
TABLE
  2
APPID
  5
9
100
AcDbSymbolTable
 70
1
  0
APPID
  5
20F
100
AcDbSymbolTableRecord
100
AcDbRegAppTableRecord
  2
ACAD
 70
0
  0
ENDTAB
  0
TABLE
  2
BLOCK_RECORD
  5
1
100
AcDbSymbolTable
 70
0
  0
BLOCK_RECORD
  5
210
100
AcDbSymbolTableRecord
100
AcDbBlockTableRecord
  2
*Model_Space
  0
BLOCK_RECORD
  5
211
100
AcDbSymbolTableRecord
100
AcDbBlockTableRecord
  2
*Paper_Space
  0
BLOCK_RECORD
  5
212
100
AcDbSymbolTableRecord
100
AcDbBlockTableRecord
  2
_FILLED
  0
ENDTAB
  0
TABLE
  2
DIMSTYLE
  5
A
100
AcDbSymbolTable
 70
1
100
AcDbDimStyleTable
 71
0
  0
DIMSTYLE
105
213
100
AcDbSymbolTableRecord
100
AcDbDimStyleTableRecord
  2
STANDARD
 70
0
  3

  4

 40
1.0
 41
1.0678704293
 42
1.0
 43
0.38
 44
1.0
 45
0.0
 46
0.0
 47
0.01
 48
0.01
140
1.495018601
141
0.09
142
0.0
143
25.4
144
1.0
145
0.0
146
1.0
147
0.625
 71
1
 72
0
 73
0
 74
0
 75
0
 76
0
 77
1
 78
8
 79
2
170
0
171
1
172
0
173
0
174
0
175
0
176
0
177
0
178
0
270
2
179
2
271
2
272
2
273
2
274
2
275
0
280
0
281
0
282
0
283
1
284
8
285
0
286
0
287
3
288
0
340
11
278
46
341
212
342
212
343
212
344
212
  0
ENDTAB
  0
ENDSEC
  0
SECTION
  2
BLOCKS
  0
BLOCK
  5
20
100
AcDbEntity
  8
0
100
AcDbBlockBegin
  2
*Model_Space
 70
0
 10
0.0
 20
0.0
 30
0.0
  3
*Model_Space
  1

  0
ENDBLK
  5
21
100
AcDbEntity
  8
0
100
AcDbBlockEnd
  0
BLOCK
  5
1C
100
AcDbEntity
  8
0
100
AcDbBlockBegin
  2
*Paper_Space
 70
0
 10
0.0
 20
0.0
 30
0.0
  3
*Paper_Space
  1

  0
ENDBLK
  5
1D
100
AcDbEntity
  8
0
100
AcDbBlockEnd
  0
BLOCK
  5
214
100
AcDbEntity
  8
0
100
AcDbBlockBegin
  2
_FILLED
 70
64
 10
0.0
 20
0.0
  3
_FILLED
  1

  0
SOLID
  5
215
100
AcDbEntity
  8
0
  6
BYBLOCK
 62
0
100
AcDbTrace
 10
0.0
 20
0.0
 11
-1.0
 21
0.25
 12
-1.0
 22
-0.25
 13
-1.0
 23
-0.25
  0
ENDBLK
  5
216
100
AcDbEntity
  8
0
  6
BYBLOCK
 62
0
100
AcDbBlockEnd
  0
ENDSEC
  0
SECTION
  2
ENTITIES
  0
LINE
  5
217
100
AcDbEntity
  8
0
100
AcDbLine
 62
7
  6
BYLAYER
 10
24.9972638931
 20
111.3093263632
 11
26.2792908802
 21
112.3803868841
  0
LINE
  5
218
100
AcDbEntity
  8
0
100
AcDbLine
 62
7
  6
BYLAYER
 10
19.543875395
 20
109.3552251347
 11
19.1706248634
 21
109.1685998689
  0
LINE
  5
219
100
AcDbEntity
  8
0
100
AcDbLine
 62
7
  6
BYLAYER
 10
69.9765622381
 20
11.5235848817
 11
48.971689493
 21
11.5235848817
  0
LINE
  5
21A
100
AcDbEntity
  8
0
100
AcDbLine
 62
7
  6
BYLAYER
 10
70.3751887376
 20
12.0386468953
 11
62.256530125
 21
12.0386468953
  0
LINE
  5
21B
100
AcDbEntity
  8
0
100
AcDbLine
 62
7
  6
BYLAYER
 10
56.6917216061
 20
12.0386468953
 11
48.5730629935
 21
12.0386468953
  0
LINE
  5
21C
100
AcDbEntity
  8
0
100
AcDbLine
 62
7
  6
BYLAYER
 10
19.4442515581
 20
109.6997575705
 11
20.0076006356
 21
110.9874126047
  0
LINE
  5
21D
100
AcDbEntity
  8
0
100
AcDbLine
 62
7
  6
BYLAYER
 10
16.6041258655
 20
25.4186244677
 11
14.2341258655
 21
29.5235848817
  0
LINE
  5
21E
100
AcDbEntity
  8
0
100
AcDbLine
 62
7
  6
BYLAYER
 10
60.7296910916
 20
112.2267805751
 11
61.083796226
 21
112.3716417664
  0
LINE
  5
21F
100
AcDbEntity
  8
0
100
AcDbLine
 62
7
  6
BYLAYER
 10
48.9524250685
 20
22.9021553608
 11
53.3741258655
 21
23.5235848817
  0
LINE
  5
220
100
AcDbEntity
  8
0
100
AcDbLine
 62
7
  6
BYLAYER
 10
53.1751595398
 20
23.5235848817
 11
74.4751595398
 21
23.5235848817
  0
LINE
  5
221
100
AcDbEntity
  8
0
100
AcDbLine
 62
7
  6
BYLAYER
 10
10.0869381173
 20
23.5275848817
 11
52.3763644853
 21
23.5275848817
  0
LINE
  5
222
100
AcDbEntity
  8
0
100
AcDbLine
 62
7
  6
BYLAYER
 10
12.1142852305
 20
24.021358966
 11
52.4903612149
 21
24.021358966
  0
LINE
  5
223
100
AcDbEntity
  8
0
100
AcDbLine
 62
7
  6
BYLAYER
 10
53.2325473906
 20
24.5309680754
 11
53.4077322755
 21
24.5309680754
  0
LINE
  5
224
100
AcDbEntity
  8
0
100
AcDbLine
 62
7
  6
BYLAYER
 10
16.6041258655
 20
25.4186244677
 11
21.3441258655
 21
25.4186244677
  0
LINE
  5
225
100
AcDbEntity
  8
0
100
AcDbLine
 62
7
  6
BYLAYER
 10
66.6041258655
 20
25.4186244677
 11
71.3441258655
 21
25.4186244677
  0
LINE
  5
226
100
AcDbEntity
  8
0
100
AcDbLine
 62
7
  6
BYLAYER
 10
26.5805052868
 20
25.4191844602
 11
34.3064354919
 21
25.4191844602
  0
LINE
  5
227
100
AcDbEntity
  8
0
100
AcDbLine
 62
7
  6
BYLAYER
 10
36.5759274896
 20
25.4191844602
 11
41.3080597402
 21
25.4191844602
  0
LINE
  5
228
100
AcDbEntity
  8
0
100
AcDbLine
 62
7
  6
BYLAYER
 10
9.8351258655
 20
111.9692495682
 11
9.8351258655
 21
108.0901887778
  0
LINE
  5
229
100
AcDbEntity
  8
0
100
AcDbLine
 62
7
  6
BYLAYER
 10
9.8351258655
 20
31.9575848817
 11
9.8351258655
 21
23.8212146344
  0
LINE
  5
22A
100
AcDbEntity
  8
0
100
AcDbLine
 62
7
  6
BYLAYER
 10
11.1545946099
 20
23.5275848817
 11
11.1545946099
 21
32.0261811161
  0
LINE
  5
22B
100
AcDbEntity
  8
0
100
AcDbLine
 62
7
  6
BYLAYER
 10
11.1545946099
 20
108.022631978
 11
11.1545946099
 21
111.0758761149
  0
LINE
  5
22C
100
AcDbEntity
  8
0
100
AcDbLine
 62
7
  6
BYLAYER
 10
11.2998334669
 20
108.0151957486
 11
11.2998334669
 21
32.0338851811
  0
LINE
  5
22D
100
AcDbEntity
  8
0
100
AcDbLine
 62
7
  6
BYLAYER
 10
12.1142852305
 20
24.021358966
 11
12.1142852305
 21
32.07622671
  0
LINE
  5
22E
100
AcDbEntity
  8
0
100
AcDbLine
 62
7
  6
BYLAYER
 10
12.1142852305
 20
32.2911633912
 11
12.1142852305
 21
107.8047234072
  0
LINE
  5
22F
100
AcDbEntity
  8
0
100
AcDbLine
 62
7
  6
BYLAYER
 10
12.1142852305
 20
107.9376051571
 11
12.1142852305
 21
110.7185312521
  0
LINE
  5
230
100
AcDbEntity
  8
0
100
AcDbLine
 62
7
  6
BYLAYER
 10
28.4741258655
 20
26.7735848817
 11
31.9741258655
 21
26.7735848817
  0
LINE
  5
231
100
AcDbEntity
  8
0
100
AcDbLine
 62
7
  6
BYLAYER
 10
48.971689493
 20
11.5235848817
 11
48.5691341732
 21
11.9261402015
  0
LINE
  5
232
100
AcDbEntity
  8
0
100
AcDbLine
 62
7
  6
BYLAYER
 10
21.3441258655
 20
33.6285452956
 11
23.7141258655
 21
29.5235848817
  0
LINE
  5
233
100
AcDbEntity
  8
0
100
AcDbLine
 62
7
  6
BYLAYER
 10
26.5805052868
 20
25.4191844602
 11
24.2144391615
 21
29.5235848817
  0
LINE
  5
234
100
AcDbEntity
  8
0
100
AcDbLine
 62
7
  6
BYLAYER
 10
11.2998334669
 20
32.2474611015
 11
14.5992004503
 21
32.4245003055
  0
LINE
  5
235
100
AcDbEntity
  8
0
100
AcDbLine
 62
7
  6
BYLAYER
 10
15.098166776
 20
32.2313520503
 11
9.8351258655
 21
31.9575848817
  0
LINE
  5
236
100
AcDbEntity
  8
0
100
AcDbLine
 62
7
  6
BYLAYER
 10
31.9741258655
 20
32.2735848817
 11
28.4741258655
 21
32.2735848817
  0
LINE
  5
237
100
AcDbEntity
  8
0
100
AcDbLine
 62
7
  6
BYLAYER
 10
41.3080597402
 20
33.6279853031
 11
36.5759274896
 21
33.6279853031
  0
LINE
  5
238
100
AcDbEntity
  8
0
100
AcDbLine
 62
7
  6
BYLAYER
 10
34.3064354919
 20
33.6279853031
 11
26.5805052868
 21
33.6279853031
  0
LINE
  5
239
100
AcDbEntity
  8
0
100
AcDbLine
 62
7
  6
BYLAYER
 10
71.3441258655
 20
33.6285452956
 11
66.6041258655
 21
33.6285452956
  0
LINE
  5
23A
100
AcDbEntity
  8
0
100
AcDbLine
 62
7
  6
BYLAYER
 10
21.3441258655
 20
33.6285452956
 11
16.6041258655
 21
33.6285452956
  0
LINE
  5
23B
100
AcDbEntity
  8
0
100
AcDbLine
 62
7
  6
BYLAYER
 10
18.1241561064
 20
69.8469747364
 11
19.315237013
 21
107.4143103587
  0
LINE
  5
23C
100
AcDbEntity
  8
0
100
AcDbLine
 62
7
  6
BYLAYER
 10
19.8946817784
 20
107.575267238
 11
18.6875051838
 21
69.8308790485
  0
LINE
  5
23D
100
AcDbEntity
  8
0
100
AcDbLine
 62
7
  6
BYLAYER
 10
14.5992004503
 20
32.4245003055
 11
18.1241561064
 21
69.8469747364
  0
LINE
  5
23E
100
AcDbEntity
  8
0
100
AcDbLine
 62
7
  6
BYLAYER
 10
18.6875051838
 20
69.8308790485
 11
15.098166776
 21
32.2313520503
  0
LINE
  5
23F
100
AcDbEntity
  8
0
100
AcDbLine
 62
7
  6
BYLAYER
 10
36.5759274896
 20
25.4191844602
 11
35.8838129087
 21
26.6424567427
  0
LINE
  5
240
100
AcDbEntity
  8
0
100
AcDbLine
 62
7
  6
BYLAYER
 10
59.8283325677
 20
111.3093263632
 11
60.7296910916
 21
112.2267805751
  0
LINE
  5
241
100
AcDbEntity
  8
0
100
AcDbLine
 62
7
  6
BYLAYER
 10
74.9741258655
 20
45.3225512074
 11
67.4511223548
 21
43.5857289951
  0
LINE
  5
242
100
AcDbEntity
  8
0
100
AcDbLine
 62
7
  6
BYLAYER
 10
68.4915052082
 20
44.6257223328
 11
75.0366766729
 21
46.1367942294
  0
LINE
  5
243
100
AcDbEntity
  8
0
100
AcDbLine
 62
7
  6
BYLAYER
 10
34.3064354919
 20
33.6279853031
 11
35.0146457607
 21
32.4047130207
  0
LINE
  5
244
100
AcDbEntity
  8
0
100
AcDbLine
 62
7
  6
BYLAYER
 10
27.9741258655
 20
112.2917183849
 11
27.9741258655
 21
114.3735685808
  0
LINE
  5
245
100
AcDbEntity
  8
0
100
AcDbLine
 62
7
  6
BYLAYER
 10
28.4741258655
 20
112.2543785726
 11
28.4741258655
 21
114.8735848817
  0
LINE
  5
246
100
AcDbEntity
  8
0
100
AcDbLine
 62
7
  6
BYLAYER
 10
41.3080597402
 20
33.6279853031
 11
43.6741258655
 21
29.5235848817
  0
LINE
  5
247
100
AcDbEntity
  8
0
100
AcDbLine
 62
7
  6
BYLAYER
 10
33.2353179775
 20
114.8735848817
 11
33.2353179775
 21
112.2543785726
  0
LINE
  5
248
100
AcDbEntity
  8
0
100
AcDbLine
 62
7
  6
BYLAYER
 10
19.4442515581
 20
109.6997575705
 11
19.543875395
 21
109.3552251347
  0
LINE
  5
249
100
AcDbEntity
  8
0
100
AcDbLine
 62
7
  6
BYLAYER
 10
17.3357164397
 20
109.5388006912
 11
17.0942811208
 21
110.4884462789
  0
LINE
  5
24A
100
AcDbEntity
  8
0
100
AcDbLine
 62
7
  6
BYLAYER
 10
35.7691384435
 20
112.331905028
 11
35.7691384435
 21
113.7406874039
  0
LINE
  5
24B
100
AcDbEntity
  8
0
100
AcDbLine
 62
7
  6
BYLAYER
 10
14.2341258655
 20
29.5235848817
 11
16.6041258655
 21
33.6285452956
  0
LINE
  5
24C
100
AcDbEntity
  8
0
100
AcDbLine
 62
7
  6
BYLAYER
 10
78.2949579435
 20
111.0866267454
 11
79.316812308
 21
112.0847086902
  0
LINE
  5
24D
100
AcDbEntity
  8
0
100
AcDbLine
 62
7
  6
BYLAYER
 10
64.2341258655
 20
103.5235848817
 11
66.6041258655
 21
107.6285452956
  0
LINE
  5
24E
100
AcDbEntity
  8
0
100
AcDbLine
 62
7
  6
BYLAYER
 10
24.2144391615
 20
29.5235848817
 11
26.5805052868
 21
33.6279853031
  0
LINE
  5
24F
100
AcDbEntity
  8
0
100
AcDbLine
 62
7
  6
BYLAYER
 10
64.2341258655
 20
102.5235848817
 11
64.5228010001
 21
103.0235848817
  0
LINE
  5
250
100
AcDbEntity
  8
0
100
AcDbLine
 62
7
  6
BYLAYER
 10
23.7141258655
 20
29.5235848817
 11
21.3441258655
 21
25.4186244677
  0
LINE
  5
251
100
AcDbEntity
  8
0
100
AcDbLine
 62
7
  6
BYLAYER
 10
66.6041258655
 20
25.4186244677
 11
64.2341258655
 21
29.5235848817
  0
LINE
  5
252
100
AcDbEntity
  8
0
100
AcDbLine
 62
7
  6
BYLAYER
 10
73.7141258655
 20
103.5235848817
 11
73.425450731
 21
103.0235848817
  0
LINE
  5
253
100
AcDbEntity
  8
0
100
AcDbLine
 62
7
  6
BYLAYER
 10
53.2988371904
 20
24.0592916414
 11
53.2325473906
 21
24.5309680754
  0
LINE
  5
254
100
AcDbEntity
  8
0
100
AcDbLine
 62
7
  6
BYLAYER
 10
54.1734761662
 20
112.2378807093
 11
54.1734761662
 21
112.5935848817
  0
LINE
  5
255
100
AcDbEntity
  8
0
100
AcDbLine
 62
7
  6
BYLAYER
 10
54.2021881429
 20
112.6420727678
 11
54.2021881429
 21
112.5935848817
  0
LINE
  5
256
100
AcDbEntity
  8
0
100
AcDbLine
 62
7
  6
BYLAYER
 10
48.5691341732
 20
11.9261402015
 11
48.9524250685
 21
22.9021553608
  0
LINE
  5
257
100
AcDbEntity
  8
0
100
AcDbLine
 62
7
  6
BYLAYER
 10
35.8838129087
 20
32.4047130207
 11
36.5759274896
 21
33.6279853031
  0
LINE
  5
258
100
AcDbEntity
  8
0
100
AcDbLine
 62
7
  6
BYLAYER
 10
73.7141258655
 20
102.5235848817
 11
71.3441258655
 21
98.4186244677
  0
LINE
  5
259
100
AcDbEntity
  8
0
100
AcDbLine
 62
7
  6
BYLAYER
 10
71.3441258655
 20
33.6285452956
 11
73.7141258655
 21
29.5235848817
  0
LINE
  5
25A
100
AcDbEntity
  8
0
100
AcDbLine
 62
7
  6
BYLAYER
 10
35.0146457607
 20
26.6424567427
 11
34.3064354919
 21
25.4191844602
  0
LINE
  5
25B
100
AcDbEntity
  8
0
100
AcDbLine
 62
7
  6
BYLAYER
 10
10.0054997547
 20
112.2342038322
 11
11.1543582157
 21
111.0761444274
  0
LINE
  5
25C
100
AcDbEntity
  8
0
100
AcDbLine
 62
7
  6
BYLAYER
 10
59.7460635882
 20
112.5935848817
 11
59.7460635882
 21
112.6420727678
  0
LINE
  5
25D
100
AcDbEntity
  8
0
100
AcDbLine
 62
7
  6
BYLAYER
 10
59.7747755649
 20
112.5935848817
 11
59.7747755649
 21
112.0815931044
  0
LINE
  5
25E
100
AcDbEntity
  8
0
100
AcDbLine
 62
7
  6
BYLAYER
 10
59.8283325677
 20
111.9105204615
 11
59.8283325677
 21
111.3093263632
  0
LINE
  5
25F
100
AcDbEntity
  8
0
100
AcDbLine
 62
7
  6
BYLAYER
 10
52.4893497735
 20
24.0169779319
 11
52.3763644853
 21
23.5275848817
  0
LINE
  5
260
100
AcDbEntity
  8
0
100
AcDbLine
 62
7
  6
BYLAYER
 10
52.4903612149
 20
24.021358966
 11
53.8720969823
 21
30.0063141069
  0
LINE
  5
261
100
AcDbEntity
  8
0
100
AcDbLine
 62
7
  6
BYLAYER
 10
54.9119817521
 20
31.0465883924
 11
53.1751595398
 21
23.5235848817
  0
LINE
  5
262
100
AcDbEntity
  8
0
100
AcDbLine
 62
7
  6
BYLAYER
 10
43.6741258655
 20
29.5235848817
 11
41.3080597402
 21
25.4191844602
  0
LINE
  5
263
100
AcDbEntity
  8
0
100
AcDbLine
 62
7
  6
BYLAYER
 10
66.2241258655
 20
103.5235848817
 11
66.2241258655
 21
102.0235848817
  0
LINE
  5
264
100
AcDbEntity
  8
0
100
AcDbLine
 62
7
  6
BYLAYER
 10
71.7227969042
 20
86.2967677981
 11
73.7508535831
 21
95.0689177185
  0
LINE
  5
265
100
AcDbEntity
  8
0
100
AcDbLine
 62
7
  6
BYLAYER
 10
14.9696503144
 20
112.2589719509
 11
16.8850371777
 21
110.7781686616
  0
LINE
  5
266
100
AcDbEntity
  8
0
100
AcDbLine
 62
7
  6
BYLAYER
 10
70.3791175579
 20
11.9261402015
 11
69.9741258655
 21
23.5235848817
  0
LINE
  5
267
100
AcDbEntity
  8
0
100
AcDbLine
 62
7
  6
BYLAYER
 10
71.7241258655
 20
102.0235848817
 11
71.7241258655
 21
103.5235848817
  0
LINE
  5
268
100
AcDbEntity
  8
0
100
AcDbLine
 62
7
  6
BYLAYER
 10
73.7508535831
 20
110.9610962033
 11
73.7508535831
 21
95.0689177185
  0
LINE
  5
269
100
AcDbEntity
  8
0
100
AcDbLine
 62
7
  6
BYLAYER
 10
74.9741258655
 20
24.0180989782
 11
74.9741258655
 21
45.3225512074
  0
LINE
  5
26A
100
AcDbEntity
  8
0
100
AcDbLine
 62
7
  6
BYLAYER
 10
53.8720969823
 20
30.0063141069
 11
68.4915052082
 21
44.6257223328
  0
LINE
  5
26B
100
AcDbEntity
  8
0
100
AcDbLine
 62
7
  6
BYLAYER
 10
35.7691384435
 20
113.7406874039
 11
37.0354161477
 21
112.3254358521
  0
LINE
  5
26C
100
AcDbEntity
  8
0
100
AcDbLine
 62
7
  6
BYLAYER
 10
75.473341233
 20
49.7433200413
 11
75.473341233
 21
51.8312634697
  0
LINE
  5
26D
100
AcDbEntity
  8
0
100
AcDbLine
 62
7
  6
BYLAYER
 10
77.5644122393
 20
110.9610962033
 11
77.5644122393
 21
63.7118177346
  0
LINE
  5
26E
100
AcDbEntity
  8
0
100
AcDbLine
 62
7
  6
BYLAYER
 10
78.294767369
 20
74.2743130832
 11
78.294767369
 21
111.0864189774
  0
LINE
  5
26F
100
AcDbEntity
  8
0
100
AcDbLine
 62
7
  6
BYLAYER
 10
79.5294545907
 20
103.3580565271
 11
77.9359814859
 21
65.8229122807
  0
LINE
  5
270
100
AcDbEntity
  8
0
100
AcDbLine
 62
7
  6
BYLAYER
 10
75.0366766729
 20
46.1367942294
 11
75.473341233
 21
49.7433200413
  0
LINE
  5
271
100
AcDbEntity
  8
0
100
AcDbLine
 62
7
  6
BYLAYER
 10
75.473341233
 20
51.8312634697
 11
77.9359814859
 21
65.8229122807
  0
LINE
  5
272
100
AcDbEntity
  8
0
100
AcDbLine
 62
7
  6
BYLAYER
 10
64.2341258655
 20
29.5235848817
 11
66.6041258655
 21
33.6285452956
  0
LINE
  5
273
100
AcDbEntity
  8
0
100
AcDbLine
 62
7
  6
BYLAYER
 10
79.3846814265
 20
111.8996732148
 11
79.5294545907
 21
103.3580565271
  0
LINE
  5
274
100
AcDbEntity
  8
0
100
AcDbLine
 62
7
  6
BYLAYER
 10
79.8041258655
 20
111.174234581
 11
79.8041258655
 21
111.1455226044
  0
LINE
  5
275
100
AcDbEntity
  8
0
100
AcDbLine
 62
7
  6
BYLAYER
 10
79.8041258655
 20
105.601647159
 11
79.8041258655
 21
105.5729351823
  0
LINE
  5
276
100
AcDbEntity
  8
0
100
AcDbLine
 62
7
  6
BYLAYER
 10
79.8526137517
 20
111.1455226044
 11
79.8526137517
 21
105.601647159
  0
LINE
  5
277
100
AcDbEntity
  8
0
100
AcDbLine
 62
7
  6
BYLAYER
 10
80.3515800774
 20
110.9665102396
 11
80.3515800774
 21
105.7806595237
  0
LINE
  5
278
100
AcDbEntity
  8
0
100
AcDbLine
 62
7
  6
BYLAYER
 10
66.6041258655
 20
98.4186244677
 11
71.3441258655
 21
98.4186244677
  0
LINE
  5
279
100
AcDbEntity
  8
0
100
AcDbLine
 62
7
  6
BYLAYER
 10
14.6638322437
 20
112.3716417664
 11
14.9696503144
 21
112.2589719509
  0
LINE
  5
27A
100
AcDbEntity
  8
0
100
AcDbLine
 62
7
  6
BYLAYER
 10
66.6041258655
 20
98.4186244677
 11
64.2341258655
 21
102.5235848817
  0
LINE
  5
27B
100
AcDbEntity
  8
0
100
AcDbLine
 62
7
  6
BYLAYER
 10
64.5228010001
 20
103.0235848817
 11
64.2341258655
 21
103.5235848817
  0
LINE
  5
27C
100
AcDbEntity
  8
0
100
AcDbLine
 62
7
  6
BYLAYER
 10
73.7141258655
 20
29.5235848817
 11
71.3441258655
 21
25.4186244677
  0
LINE
  5
27D
100
AcDbEntity
  8
0
100
AcDbLine
 62
7
  6
BYLAYER
 10
79.8041258655
 20
105.5729351823
 11
79.4919142745
 21
105.5729351823
  0
LINE
  5
27E
100
AcDbEntity
  8
0
100
AcDbLine
 62
7
  6
BYLAYER
 10
79.8041258655
 20
105.601647159
 11
79.8526137517
 21
105.601647159
  0
LINE
  5
27F
100
AcDbEntity
  8
0
100
AcDbLine
 62
7
  6
BYLAYER
 10
71.3441258655
 20
107.6285452956
 11
66.6041258655
 21
107.6285452956
  0
LINE
  5
280
100
AcDbEntity
  8
0
100
AcDbLine
 62
7
  6
BYLAYER
 10
17.8346827654
 20
109.1685998689
 11
19.1706248634
 21
109.1685998689
  0
LINE
  5
281
100
AcDbEntity
  8
0
100
AcDbLine
 62
7
  6
BYLAYER
 10
11.2998334669
 20
107.9755346836
 11
19.8946817784
 21
107.575267238
  0
LINE
  5
282
100
AcDbEntity
  8
0
100
AcDbLine
 62
7
  6
BYLAYER
 10
11.2998334669
 20
108.0151957486
 11
9.8351258655
 21
108.0901887778
  0
LINE
  5
283
100
AcDbEntity
  8
0
100
AcDbLine
 62
7
  6
BYLAYER
 10
11.2998334669
 20
107.8488804305
 11
19.315237013
 21
107.4143103587
  0
LINE
  5
284
100
AcDbEntity
  8
0
100
AcDbLine
 62
7
  6
BYLAYER
 10
73.425450731
 20
103.0235848817
 11
73.7141258655
 21
102.5235848817
  0
LINE
  5
285
100
AcDbEntity
  8
0
100
AcDbLine
 62
7
  6
BYLAYER
 10
71.3441258655
 20
107.6285452956
 11
73.7141258655
 21
103.5235848817
  0
LINE
  5
286
100
AcDbEntity
  8
0
100
AcDbLine
 62
7
  6
BYLAYER
 10
10.1409439362
 20
112.2750676388
 11
12.845019508
 21
112.3716417664
  0
LINE
  5
287
100
AcDbEntity
  8
0
100
AcDbLine
 62
7
  6
BYLAYER
 10
12.1142852305
 20
110.7185312521
 11
16.9629185425
 21
110.7185312521
  0
LINE
  5
288
100
AcDbEntity
  8
0
100
AcDbLine
 62
7
  6
BYLAYER
 10
19.8899650438
 20
110.7185312521
 11
73.7508535831
 21
110.7185312521
  0
LINE
  5
289
100
AcDbEntity
  8
0
100
AcDbLine
 62
7
  6
BYLAYER
 10
11.6981645006
 20
110.9415259999
 11
16.6737380119
 21
110.9415259999
  0
LINE
  5
28A
100
AcDbEntity
  8
0
100
AcDbLine
 62
7
  6
BYLAYER
 10
19.987525246
 20
110.9415259999
 11
73.7508535831
 21
110.9415259999
  0
LINE
  5
28B
100
AcDbEntity
  8
0
100
AcDbLine
 62
7
  6
BYLAYER
 10
73.7508535831
 20
110.9610962033
 11
77.5644122393
 21
110.9610962033
  0
LINE
  5
28C
100
AcDbEntity
  8
0
100
AcDbLine
 62
7
  6
BYLAYER
 10
79.8526137517
 20
111.1455226044
 11
79.8041258655
 21
111.1455226044
  0
LINE
  5
28D
100
AcDbEntity
  8
0
100
AcDbLine
 62
7
  6
BYLAYER
 10
79.3969769966
 20
111.174234581
 11
79.8041258655
 21
111.174234581
  0
LINE
  5
28E
100
AcDbEntity
  8
0
100
AcDbLine
 62
7
  6
BYLAYER
 10
24.9972638931
 20
111.3093263632
 11
20.7480022803
 21
111.3093263632
  0
LINE
  5
28F
100
AcDbEntity
  8
0
100
AcDbLine
 62
7
  6
BYLAYER
 10
79.0847245083
 20
112.1945891992
 11
78.7729572581
 21
112.1945891992
  0
LINE
  5
290
100
AcDbEntity
  8
0
100
AcDbLine
 62
7
  6
BYLAYER
 10
28.4741258655
 20
112.2543785726
 11
33.2353179775
 21
112.2543785726
  0
LINE
  5
291
100
AcDbEntity
  8
0
100
AcDbLine
 62
7
  6
BYLAYER
 10
78.4993305634
 20
112.3716417664
 11
61.083796226
 21
112.3716417664
  0
LINE
  5
292
100
AcDbEntity
  8
0
100
AcDbLine
 62
7
  6
BYLAYER
 10
14.6638322437
 20
112.3716417664
 11
12.845019508
 21
112.3716417664
  0
LINE
  5
293
100
AcDbEntity
  8
0
100
AcDbLine
 62
7
  6
BYLAYER
 10
54.1734761662
 20
112.5935848817
 11
54.2021881429
 21
112.5935848817
  0
LINE
  5
294
100
AcDbEntity
  8
0
100
AcDbLine
 62
7
  6
BYLAYER
 10
59.7460635882
 20
112.5935848817
 11
59.7747755649
 21
112.5935848817
  0
LINE
  5
295
100
AcDbEntity
  8
0
100
AcDbLine
 62
7
  6
BYLAYER
 10
54.2021881429
 20
112.6420727678
 11
59.7460635882
 21
112.6420727678
  0
LINE
  5
296
100
AcDbEntity
  8
0
100
AcDbLine
 62
7
  6
BYLAYER
 10
54.3812005076
 20
113.1410390935
 11
59.5670512235
 21
113.1410390935
  0
LINE
  5
297
100
AcDbEntity
  8
0
100
AcDbLine
 62
7
  6
BYLAYER
 10
26.2792908802
 20
112.3803868841
 11
27.9741258655
 21
112.3717282892
  0
LINE
  5
298
100
AcDbEntity
  8
0
100
AcDbLine
 62
7
  6
BYLAYER
 10
35.736947091
 20
112.3320694876
 11
59.5304784356
 21
112.2105127868
  0
LINE
  5
299
100
AcDbEntity
  8
0
100
AcDbLine
 62
7
  6
BYLAYER
 10
70.3791175579
 20
11.9261402015
 11
69.9765622381
 21
11.5235848817
  0
LINE
  5
29A
100
AcDbEntity
  8
0
100
AcDbLine
 62
7
  6
BYLAYER
 10
28.4741258655
 20
114.8735848817
 11
33.2353179775
 21
114.8735848817
  0
LINE
  5
29B
100
AcDbEntity
  8
0
100
AcDbLine
 62
7
  6
BYLAYER
 10
78.4993305634
 20
112.3716417664
 11
78.7729572581
 21
112.1945891992
  0
ARC
  5
29C
100
AcDbEntity
  8
0
100
AcDbCircle
 62
7
  6
BYLAYER
 10
259.4377171279
 20
-2.6595664593
 40
207.7260712552
100
AcDbArc
 50
154.6441671311
 51
170.8113108772
  0
ARC
  5
29D
100
AcDbEntity
  8
0
100
AcDbCircle
 62
7
  6
BYLAYER
 10
33.2353179775
 20
111.4735848817
 40
3.4
100
AcDbArc
 50
41.8201698801
 51
90.0
  0
CIRCLE
  5
29E
100
AcDbEntity
  8
0
100
AcDbCircle
 62
7
  6
BYLAYER
 10
68.9741258655
 20
29.5235848817
 40
2.75
  0
ARC
  5
29F
100
AcDbEntity
  8
0
100
AcDbCircle
 62
7
  6
BYLAYER
 10
68.9741258655
 20
103.5235848817
 40
2.75
100
AcDbArc
 50
0.0
 51
180.0
  0
ARC
  5
2A0
100
AcDbEntity
  8
0
100
AcDbCircle
 62
7
  6
BYLAYER
 10
68.9741258655
 20
102.0235848817
 40
2.75
100
AcDbArc
 50
180.0
 51
360.0
  0
CIRCLE
  5
2A1
100
AcDbEntity
  8
0
100
AcDbCircle
 62
7
  6
BYLAYER
 10
18.9741258655
 20
29.5235848817
 40
2.75
  0
CIRCLE
  5
2A2
100
AcDbEntity
  8
0
100
AcDbCircle
 62
7
  6
BYLAYER
 10
38.9741258655
 20
29.5235848817
 40
2.75
  0
ARC
  5
2A3
100
AcDbEntity
  8
0
100
AcDbCircle
 62
7
  6
BYLAYER
 10
31.9741258655
 20
29.5235848817
 40
2.75
100
AcDbArc
 50
270.0
 51
90.0
  0
ARC
  5
2A4
100
AcDbEntity
  8
0
100
AcDbCircle
 62
7
  6
BYLAYER
 10
28.4741258655
 20
29.5235848817
 40
2.75
100
AcDbArc
 50
90.0
 51
270.0
  0
ARC
  5
2A5
100
AcDbEntity
  8
0
100
AcDbCircle
 62
7
  6
BYLAYER
 10
20.7718851532
 20
110.2419769847
 40
1.0676165451
100
AcDbArc
 50
91.2818291234
 51
135.7153022285
  0
ARC
  5
2A6
100
AcDbEntity
  8
0
100
AcDbCircle
 62
7
  6
BYLAYER
 10
35.4492293347
 20
26.2959351536
 40
0.5558237981
100
AcDbArc
 50
38.5676208296
 51
141.4323791703
  0
ARC
  5
2A7
100
AcDbEntity
  8
0
100
AcDbCircle
 62
7
  6
BYLAYER
 10
35.4492293347
 20
32.7512346098
 40
0.5558237981
100
AcDbArc
 50
218.5676208297
 51
321.4323791704
  0
ARC
  5
2A8
100
AcDbEntity
  8
0
100
AcDbCircle
 62
7
  6
BYLAYER
 10
17.8505947126
 20
109.7114067327
 40
0.5430400368
100
AcDbArc
 50
198.5330369436
 51
268.3209010993
  0
ARC
  5
2A9
100
AcDbEntity
  8
0
100
AcDbCircle
 62
7
  6
BYLAYER
 10
28.4741258655
 20
114.3735848817
 40
0.5
100
AcDbArc
 50
90.0
 51
180.0
  0
ARC
  5
2AA
100
AcDbEntity
  8
0
100
AcDbCircle
 62
7
  6
BYLAYER
 10
74.4794929942
 20
24.018217753
 40
0.4946518535
100
AcDbArc
 50
269.4980473144
 51
0.5019526856
  0
ARC
  5
2AB
100
AcDbEntity
  8
0
100
AcDbCircle
 62
7
  6
BYLAYER
 10
16.6456138198
 20
110.3848302879
 40
0.4604765147
100
AcDbArc
 50
13.0039987764
 51
58.6713071322
  0
ARC
  5
2AC
100
AcDbEntity
  8
0
100
AcDbCircle
 62
7
  6
BYLAYER
 10
10.167386852
 20
111.9428066523
 40
0.3333115524
100
AcDbArc
 50
94.5502811377
 51
175.4497188624
  0
ARC
  5
2AD
100
AcDbEntity
  8
0
100
AcDbCircle
 62
7
  6
BYLAYER
 10
10.1369200142
 20
23.8252385564
 40
0.3018209736
100
AcDbArc
 50
180.7638984605
 51
260.4678423976
  0
ARC
  5
2AE
100
AcDbEntity
  8
0
100
AcDbCircle
 62
7
  6
BYLAYER
 10
59.5283325677
 20
111.9105204615
 40
0.3
100
AcDbArc
 50
0.0
 51
89.5901659347
  0
ARC
  5
2AF
100
AcDbEntity
  8
0
100
AcDbCircle
 62
7
  6
BYLAYER
 10
79.0847245083
 20
111.8945891992
 40
0.3
100
AcDbArc
 50
0.9710219311
 51
90.0
  0
SPLINE
  5
2B0
100
AcDbEntity
  8
0
100
AcDbSpline
 62
7
  6
BYLAYER
 70
0
 71
3
 72
11
 73
7
 74
0
 42
0.0000001
 43
0.0000001
 44
0.0000000001
 40
0.0
 40
0.0
 40
0.0
 40
0.0
 40
0.2500115097
 40
0.5
 40
0.7499884903
 40
1.0
 40
1.0
 40
1.0
 40
1.0
 10
62.256530125
 20
12.0386468953
 30
0.0
 10
61.802082802
 20
11.9254088532
 30
0.0
 10
60.8799187735
 20
11.7477150674
 30
0.0
 10
59.4741258655
 20
11.6557631103
 30
0.0
 10
58.0683329575
 20
11.7477150674
 30
0.0
 10
57.1461689291
 20
11.9254088532
 30
0.0
 10
56.6917216061
 20
12.0386468953
 30
0.0
  0
SPLINE
  5
2B1
100
AcDbEntity
  8
0
100
AcDbSpline
 62
7
  6
BYLAYER
 70
0
 71
3
 72
12
 73
8
 74
0
 42
0.0000001
 43
0.0000001
 44
0.0000000001
 40
0.0
 40
0.0
 40
0.0
 40
0.0
 40
0.1250006457
 40
0.2500015655
 40
0.5000004045
 40
0.7499999106
 40
1.0
 40
1.0
 40
1.0
 40
1.0
 10
62.256530125
 20
12.0386468953
 30
0.0
 10
62.3478357044
 20
12.5138395126
 30
0.0
 10
62.5221278606
 20
13.4658348368
 30
0.0
 10
62.8448560068
 20
15.3743107772
 30
0.0
 10
63.2096744039
 20
17.7662118189
 30
0.0
 10
63.6048338381
 20
20.6425477472
 30
0.0
 10
63.8469645971
 20
22.5629090813
 30
0.0
 10
63.9638916274
 20
23.5235848817
 30
0.0
  0
SPLINE
  5
2B2
100
AcDbEntity
  8
0
100
AcDbSpline
 62
7
  6
BYLAYER
 70
0
 71
3
 72
12
 73
8
 74
0
 42
0.0000001
 43
0.0000001
 44
0.0000000001
 40
0.0
 40
0.0
 40
0.0
 40
0.0
 40
0.1250006456
 40
0.2500015661
 40
0.5000004048
 40
0.749999911
 40
1.0
 40
1.0
 40
1.0
 40
1.0
 10
56.6917216061
 20
12.0386468953
 30
0.0
 10
56.6004160285
 20
12.5138395035
 30
0.0
 10
56.4261277403
 20
13.4658355327
 30
0.0
 10
56.1034018227
 20
15.3743117862
 30
0.0
 10
55.7385827032
 20
17.7662126541
 30
0.0
 10
55.3434188139
 20
20.6425479106
 30
0.0
 10
55.1012871316
 20
22.5629091013
 30
0.0
 10
54.9843601037
 20
23.5235848817
 30
0.0
  0
SPLINE
  5
2B3
100
AcDbEntity
  8
0
100
AcDbSpline
 62
7
  6
BYLAYER
 70
0
 71
3
 72
12
 73
8
 74
0
 42
0.0000001
 43
0.0000001
 44
0.0000000001
 40
0.0
 40
0.0
 40
0.0
 40
0.0
 40
0.2499712063
 40
0.4999241767
 40
0.7498684178
 40
0.8749302426
 40
1.0
 40
1.0
 40
1.0
 40
1.0
 10
80.3514046521
 20
105.7805965568
 30
0.0
 10
80.4784663714
 20
105.9703312773
 30
0.0
 10
80.7037118925
 20
106.3700935099
 30
0.0
 10
80.9446407759
 20
107.0140653803
 30
0.0
 10
81.0607822998
 20
107.5755277498
 30
0.0
 10
81.1025376079
 20
108.0307427208
 30
0.0
 10
81.1082228205
 20
108.259332763
 30
0.0
 10
81.1082228205
 20
108.3735848817
 30
0.0
  0
SPLINE
  5
2B4
100
AcDbEntity
  8
0
100
AcDbSpline
 62
7
  6
BYLAYER
 70
0
 71
3
 72
12
 73
8
 74
0
 42
0.0000001
 43
0.0000001
 44
0.0000000001
 40
0.0
 40
0.0
 40
0.0
 40
0.0
 40
0.1250692379
 40
0.2501302086
 40
0.5000728962
 40
0.7500261549
 40
1.0
 40
1.0
 40
1.0
 40
1.0
 10
81.1082228205
 20
108.3735848817
 30
0.0
 10
81.1082228205
 20
108.4878365179
 30
0.0
 10
81.1025372854
 20
108.7164252681
 30
0.0
 10
81.0607830989
 20
109.1716376342
 30
0.0
 10
80.9446418161
 20
109.733097918
 30
0.0
 10
80.7037160248
 20
110.3770722856
 30
0.0
 10
80.4784680941
 20
110.7768363562
 30
0.0
 10
80.3514050424
 20
110.9665730664
 30
0.0
  0
LINE
  5
2B5
100
AcDbEntity
  8
0
100
AcDbLine
 62
7
  6
BYLAYER
 10
79.8526137517
 20
105.601647159
 11
80.3514046521
 21
105.7805965568
  0
LINE
  5
2B6
100
AcDbEntity
  8
0
100
AcDbLine
 62
7
  6
BYLAYER
 10
80.3514050424
 20
110.9665730664
 11
79.8526137517
 21
111.1455226044
  0
SPLINE
  5
2B7
100
AcDbEntity
  8
0
100
AcDbSpline
 62
7
  6
BYLAYER
 70
0
 71
3
 72
12
 73
8
 74
0
 42
0.0000001
 43
0.0000001
 44
0.0000000001
 40
0.0
 40
0.0
 40
0.0
 40
0.0
 40
0.2499712063
 40
0.4999241767
 40
0.7498684178
 40
0.8749302426
 40
1.0
 40
1.0
 40
1.0
 40
1.0
 10
59.5671141904
 20
113.1408636682
 30
0.0
 10
59.3773794699
 20
113.2679253875
 30
0.0
 10
58.9776172373
 20
113.4931709086
 30
0.0
 10
58.3336453669
 20
113.734099792
 30
0.0
 10
57.7721829974
 20
113.850241316
 30
0.0
 10
57.3169680264
 20
113.891996624
 30
0.0
 10
57.0883779842
 20
113.8976818367
 30
0.0
 10
56.9741258655
 20
113.8976818367
 30
0.0
  0
SPLINE
  5
2B8
100
AcDbEntity
  8
0
100
AcDbSpline
 62
7
  6
BYLAYER
 70
0
 71
3
 72
12
 73
8
 74
0
 42
0.0000001
 43
0.0000001
 44
0.0000000001
 40
0.0
 40
0.0
 40
0.0
 40
0.0
 40
0.1250692379
 40
0.2501302086
 40
0.5000728962
 40
0.7500261549
 40
1.0
 40
1.0
 40
1.0
 40
1.0
 10
56.9741258655
 20
113.8976818367
 30
0.0
 10
56.8598742293
 20
113.8976818367
 30
0.0
 10
56.6312854791
 20
113.8919963015
 30
0.0
 10
56.176073113
 20
113.850242115
 30
0.0
 10
55.6146128292
 20
113.7341008323
 30
0.0
 10
54.9706384616
 20
113.4931750409
 30
0.0
 10
54.570874391
 20
113.2679271103
 30
0.0
 10
54.3811376808
 20
113.1408640585
 30
0.0
  0
LINE
  5
2B9
100
AcDbEntity
  8
0
100
AcDbLine
 62
7
  6
BYLAYER
 10
59.7460635882
 20
112.6420727678
 11
59.5671141904
 21
113.1408636682
  0
LINE
  5
2BA
100
AcDbEntity
  8
0
100
AcDbLine
 62
7
  6
BYLAYER
 10
54.3811376808
 20
113.1408640585
 11
54.2021881429
 21
112.6420727678
  0
SPLINE
  5
2BB
100
AcDbEntity
  8
0
100
AcDbSpline
 62
7
  6
BYLAYER
 70
0
 71
3
 72
11
 73
7
 74
0
 42
0.0000001
 43
0.0000001
 44
0.0000000001
 40
0.0
 40
0.0
 40
0.0
 40
0.0
 40
0.2451429682
 40
0.493357083
 40
0.7452064656
 40
1.0
 40
1.0
 40
1.0
 40
1.0
 10
11.6981645006
 20
110.9415259999
 30
0.0
 10
11.724659343
 20
110.9120561236
 30
0.0
 10
11.7814428013
 20
110.855696937
 30
0.0
 10
11.8791394596
 20
110.7842049007
 30
0.0
 10
11.9909898022
 20
110.7328646977
 30
0.0
 10
12.0731012603
 20
110.7191737787
 30
0.0
 10
12.1142852305
 20
110.7185312521
 30
0.0
  0
SPLINE
  5
2BC
100
AcDbEntity
  8
0
100
AcDbSpline
 62
7
  6
BYLAYER
 70
0
 71
3
 72
20
 73
16
 74
0
 42
0.0000001
 43
0.0000001
 44
0.0000000001
 40
0.0
 40
0.0
 40
0.0
 40
0.0
 40
0.0182801706
 40
0.0365532293
 40
0.054832589
 40
0.0730963236
 40
0.1095870231
 40
0.1460095098
 40
0.2905464929
 40
0.4320007213
 40
0.5684092805
 40
0.6971784022
 40
0.8149677463
 40
0.917159122
 40
1.0
 40
1.0
 40
1.0
 40
1.0
 10
12.1183565183
 20
24.0170706054
 30
0.0
 10
12.1134330804
 20
24.0135950539
 30
0.0
 10
12.1042194208
 20
24.0058013517
 30
0.0
 10
12.0898758198
 20
23.9947872636
 30
0.0
 10
12.074810911
 20
23.9847918101
 30
0.0
 10
12.0552325465
 20
23.970775838
 30
0.0
 10
12.0306155508
 20
23.9535258125
 30
0.0
 10
11.9720179768
 20
23.9122271647
 30
0.0
 10
11.8848471172
 20
23.8514012884
 30
0.0
 10
11.769768444
 20
23.7729780823
 30
0.0
 10
11.6574786668
 20
23.6997154433
 30
0.0
 10
11.5497057367
 20
23.6339266793
 30
0.0
 10
11.4482060933
 20
23.5795501704
 30
0.0
 10
11.3563724336
 20
23.5404810027
 30
0.0
 10
11.2955976421
 20
23.5271725935
 30
0.0
 10
11.2682898821
 20
23.5275848817
 30
0.0
  0
SPLINE
  5
2BD
100
AcDbEntity
  8
0
100
AcDbSpline
 62
7
  6
BYLAYER
 70
0
 71
3
 72
16
 73
12
 74
0
 42
0.0000001
 43
0.0000001
 44
0.0000000001
 40
0.0
 40
0.0
 40
0.0
 40
0.0
 40
0.0070269449
 40
0.0195053974
 40
0.0655456868
 40
0.142318577
 40
0.251973786
 40
0.3956724788
 40
0.5727203645
 40
0.7780985133
 40
1.0
 40
1.0
 40
1.0
 40
1.0
 10
27.9741258655
 20
112.2917195442
 30
0.0
 10
27.9741258655
 20
112.2905378781
 30
0.0
 10
27.9765398967
 20
112.2876659819
 30
0.0
 10
27.9864754282
 20
112.2832627097
 30
0.0
 10
28.0089107802
 20
112.2779394345
 30
0.0
 10
28.0474649706
 20
112.2722966347
 30
0.0
 10
28.1027804263
 20
112.2667430005
 30
0.0
 10
28.1749666197
 20
112.261745963
 30
0.0
 10
28.2633636705
 20
112.2576801827
 30
0.0
 10
28.3649557049
 20
112.2550040729
 30
0.0
 10
28.4368104354
 20
112.2543785726
 30
0.0
 10
28.4741258655
 20
112.2543785726
 30
0.0
  0
SPLINE
  5
2BE
100
AcDbEntity
  8
0
100
AcDbSpline
 62
7
  6
BYLAYER
 70
0
 71
3
 72
13
 73
9
 74
0
 42
0.0000001
 43
0.0000001
 44
0.0000000001
 40
0.0
 40
0.0
 40
0.0
 40
0.0
 40
0.3441218688
 40
0.6420402608
 40
0.7646293475
 40
0.8659936578
 40
0.9443646972
 40
1.0
 40
1.0
 40
1.0
 40
1.0
 10
77.5667684647
 20
110.9610962033
 30
0.0
 10
77.6523973884
 20
110.962644457
 30
0.0
 10
77.8120880986
 20
110.9705377812
 30
0.0
 10
78.0013724686
 20
110.9927052166
 30
0.0
 10
78.1287892604
 20
111.0180838198
 30
0.0
 10
78.2015243091
 20
111.037949379
 30
0.0
 10
78.2560505963
 20
111.0593209393
 30
0.0
 10
78.2850516905
 20
111.0769529372
 30
0.0
 10
78.2949579435
 20
111.0866267454
 30
0.0
  0
SPLINE
  5
2BF
100
AcDbEntity
  8
0
100
AcDbSpline
 62
7
  6
BYLAYER
 70
0
 71
3
 72
12
 73
8
 74
0
 42
0.0000001
 43
0.0000001
 44
0.0000000001
 40
0.0
 40
0.0
 40
0.0
 40
0.0
 40
0.0606247155
 40
0.140214799
 40
0.358128689
 40
0.6494554304
 40
1.0
 40
1.0
 40
1.0
 40
1.0
 10
11.1543582157
 20
111.0761444274
 30
0.0
 10
11.1624160323
 20
111.0680218319
 30
0.0
 10
11.184260903
 20
111.0525367546
 30
0.0
 10
11.2452189341
 20
111.0231231902
 30
0.0
 10
11.3524914113
 20
110.9918769397
 30
0.0
 10
11.5119523228
 20
110.9618122446
 30
0.0
 10
11.6323857553
 20
110.9476167471
 30
0.0
 10
11.6982611418
 20
110.9415259999
 30
0.0
  0
SPLINE
  5
2C0
100
AcDbEntity
  8
0
100
AcDbSpline
 62
7
  6
BYLAYER
 70
0
 71
3
 72
9
 73
5
 74
0
 42
0.0000001
 43
0.0000001
 44
0.0000000001
 40
0.0
 40
0.0
 40
0.0
 40
0.0
 40
0.576206452
 40
1.0
 40
1.0
 40
1.0
 40
1.0
 10
33.2353179775
 20
112.2543785726
 30
0.0
 10
33.7161402814
 20
112.2543785726
 30
0.0
 10
34.5506603232
 20
112.2680187191
 30
0.0
 10
35.3843588715
 20
112.3076815952
 30
0.0
 10
35.7371565669
 20
112.3320684175
 30
0.0
  0
ENDSEC
  0
SECTION
  2
OBJECTS
  0
DICTIONARY
  5
C
100
AcDbDictionary
280
0
281
1
  3
ACAD_GROUP
350
D
  3
ACAD_MLINESTYLE
350
17
  3
ACAD_LAYOUT
350
1A
  3
ACAD_PLOTSETTINGS
350
19
  3
ACAD_PLOTSTYLENAME
350
E
  0
DICTIONARY
  5
D
102
{ACAD_REACTORS
330
C
102
}
100
AcDbDictionary
280
0
281
1
  0
ACDBDICTIONARYWDFLT
  5
E
102
{ACAD_REACTORS
330
C
102
}
100
AcDbDictionary
281
1
  3
Normal
350
F
100
AcDbDictionaryWithDefault
340
F
  0
DICTIONARY
  5
17
102
{ACAD_REACTORS
330
C
102
}
100
AcDbDictionary
280
0
281
1
  3
Standard
350
18
  0
DICTIONARY
  5
19
102
{ACAD_REACTORS
330
C
102
}
100
AcDbDictionary
281
1
  0
DICTIONARY
  5
1A
102
{ACAD_REACTORS
330
C
102
}
100
AcDbDictionary
281
1
  3
Model
350
2C1
  3
Layout1
350
2C2
  0
ACDBPLACEHOLDER
  5
F
102
{ACAD_REACTORS
330
E
102
}
  0
MLINESTYLE
  5
18
102
{ACAD_REACTORS
330
17
102
}
100
AcDbMlineStyle
  2
STANDARD
 70
0
  3

 62
256
 51
90.0
 52
90.0
 71
2
 49
0.5
 62
256
  6
BYLAYER
 49
-0.5
 62
256
  6
BYLAYER
  0
LAYOUT
  5
2C1
102
{ACAD_REACTORS
330
1A
102
}
100
AcDbPlotSettings
  1

  2
none_device
  4

  6

 40
0.0
 41
0.0
 42
0.0
 43
0.0
 44
210.0
 45
297.0
 46
0.0
 47
0.0
 48
0.0
 49
0.0
140
0.0
141
0.0
142
1.0
143
1.0
 70
1024
 72
1
 73
0
 74
0
  7

 75
0
147
1.0
148
0.0
149
0.0
100
AcDbLayout
  1
Model
 70
0
 71
0
 10
0.0
 20
0.0
 11
210.0
 21
297.0
 12
0.0
 22
0.0
 32
0.0
 14
0.0
 24
0.0
 34
0.0
 15
0.0
 25
0.0
 35
0.0
146
0.0
 13
0.0
 23
0.0
 33
0.0
 16
1.0
 26
0.0
 36
0.0
 17
0.0
 27
1.0
 37
0.0
 76
0
330
210
345
0
346
0
  0
LAYOUT
  5
2C2
102
{ACAD_REACTORS
330
1A
102
}
100
AcDbPlotSettings
  1

  2
none_device
  4

  6

 40
0.0
 41
0.0
 42
0.0
 43
0.0
 44
210.0
 45
297.0
 46
0.0
 47
0.0
 48
0.0
 49
0.0
140
0.0
141
0.0
142
1.0
143
1.0
 70
0
 72
1
 73
0
 74
0
  7

 75
0
147
1.0
148
0.0
149
0.0
100
AcDbLayout
  1
Layout1
 70
0
 71
1
 10
0.0
 20
0.0
 11
210.0
 21
297.0
 12
0.0
 22
0.0
 32
0.0
 14
0.0
 24
0.0
 34
0.0
 15
0.0
 25
0.0
 35
0.0
146
0.0
 13
0.0
 23
0.0
 33
0.0
 16
1.0
 26
0.0
 36
0.0
 17
0.0
 27
1.0
 37
0.0
 76
0
330
211
345
0
346
0
  0
ENDSEC
  0
EOF
