999
DXF file: C:\Users\sesa63760\Dev\_Creo\CAD\MCADID0004530_3D-CAD\drw0001_4.dxf
999
Pro/ENGINEER 2019471 by Parametric Technology Corporation
  0
SECTION
  2
HEADER
  9
$ACADVER
  1
AC1024
  9
$DWGCODEPAGE
  3
ANSI_1252
  9
$EXTMAX
 10
65.532752066
 20
92.6820350648
 30
0.0
  9
$EXTMIN
 10
0.0
 20
0.0
 30
0.0
  9
$LIMMIN
 10
0.0
 20
0.0
  9
$LIMMAX
 10
65.532752066
 20
92.6820350648
  9
$VIEWCTR
 10
32.766376033
 20
46.3410175324
  9
$VIEWSIZE
 40
92.6820350648
  9
$CLAYER
  8
0
  9
$LTSCALE
 40
6.041495619
  9
$CELTYPE
  6
BYLAYER
  9
$DIMSCALE
 40
1.0
  9
$DIMASZ
 40
0.7801518103
  9
$DIMEXO
 40
1.0
  9
$DIMDLI
 40
4.1741242459
  9
$DIMEXE
 40
1.0
  9
$DIMCEN
 40
0.988608374
  9
$DIMLFAC
 40
1.0
  9
$DIMBLK
  1
_FILLED
  9
$DIMALT
 70
0
  9
$DIMALTF
 40
0.0393700787
  9
$DIMTXT
 40
1.0922125344
  9
$DIMTOL
 70
1
  9
$DIMLIM
 70
0
  9
$DIMTFAC
 40
1.0
  9
$DIMTP
 40
0.01
  9
$DIMTM
 40
0.01
  9
$DIMGAP
 40
0.625
  9
$DIMDSEP
 70
46
  9
$AUNITS
 70
0
  9
$PDMODE
 70
3
  9
$PDSIZE
 40
0.3125
  9
$HANDSEED
  5
26D
  9
$TILEMODE
 70
1
  9
$MEASUREMENT
 70
1
  9
$INSUNITS
 70
4
  0
ENDSEC
  0
SECTION
  2
CLASSES
  0
CLASS
  1
ACDBDICTIONARYWDFLT
  2
AcDbDictionaryWithDefault
  3
AutoCAD 2000
 90
0
 91
1
280
0
281
0
  0
CLASS
  1
ACDBPLACEHOLDER
  2
AcDbPlaceHolder
  3
AutoCAD 2000
 90
0
 91
1
280
0
281
0
  0
CLASS
  1
LAYOUT
  2
AcDbLayout
  3
AutoCAD 2000
 90
0
 91
0
280
0
281
0
  0
ENDSEC
  0
SECTION
  2
TABLES
  0
TABLE
  2
VPORT
  5
8
100
AcDbSymbolTable
 70
2
  0
VPORT
  5
1F4
100
AcDbSymbolTableRecord
100
AcDbViewportTableRecord
  2
*ACTIVE
 70
0
 10
0.0
 20
0.0
 11
1.0
 21
1.0
 12
32.766376033
 22
46.3410175324
 13
0.0
 23
0.0
 14
1.0
 24
1.0
 15
0.0
 25
0.0
 16
0.0
 26
0.0
 36
1.0
 17
0.0
 27
0.0
 37
0.0
 40
92.6820350648
 41
0.7070707071
 42
50.0
 43
0.0
 44
0.0
 50
0.0
 51
0.0
 71
0
 72
100
 73
1
 74
1
 75
0
 76
0
 77
0
 78
0
  0
ENDTAB
  0
TABLE
  2
LTYPE
  5
5
100
AcDbSymbolTable
 70
6
  0
LTYPE
  5
14
100
AcDbSymbolTableRecord
100
AcDbLinetypeTableRecord
  2
BYBLOCK
 70
0
  3

 72
65
 73
0
 40
0.0
  0
LTYPE
  5
15
100
AcDbSymbolTableRecord
100
AcDbLinetypeTableRecord
  2
BYLAYER
 70
0
  3

 72
65
 73
0
 40
0.0
  0
LTYPE
  5
16
100
AcDbSymbolTableRecord
100
AcDbLinetypeTableRecord
  2
CONTINUOUS
 70
64
  3
Solid line
 72
65
 73
0
 40
0.0
  0
LTYPE
  5
1F5
100
AcDbSymbolTableRecord
100
AcDbLinetypeTableRecord
  2
CENTER
 70
64
  3
____ _ ____ _ ____ _ ____ _ ____ _ ____ _ ____
 72
65
 73
4
 40
0.6
 49
0.375
 74
0
 49
-0.075
 74
0
 49
0.075
 74
0
 49
-0.075
 74
0
  0
LTYPE
  5
1F6
100
AcDbSymbolTableRecord
100
AcDbLinetypeTableRecord
  2
HIDDEN
 70
64
  3
- - - - - - - - - - - - - - - - - - - -
 72
65
 73
2
 40
0.2
 49
0.1
 74
0
 49
-0.1
 74
0
  0
LTYPE
  5
1F7
100
AcDbSymbolTableRecord
100
AcDbLinetypeTableRecord
  2
PHANTOM
 70
64
  3
_____ _ _ _____ _ _ _____ _ _ _____
 72
65
 73
6
 40
0.8
 49
0.45
 74
0
 49
-0.05
 74
0
 49
0.1
 74
0
 49
-0.05
 74
0
 49
0.1
 74
0
 49
-0.05
 74
0
  0
LTYPE
  5
1F8
100
AcDbSymbolTableRecord
100
AcDbLinetypeTableRecord
  2
DOT
 70
64
  3
. . . . . . . . . . . . . . . . . . . .
 72
65
 73
2
 40
0.2
 49
0.1
 74
0
 49
-0.1
 74
0
  0
LTYPE
  5
1F9
100
AcDbSymbolTableRecord
100
AcDbLinetypeTableRecord
  2
DASHED
 70
64
  3
- - - - - - - - - - - - - - - - - - - -
 72
65
 73
2
 40
0.2
 49
0.1
 74
0
 49
-0.1
 74
0
  0
ENDTAB
  0
TABLE
  2
LAYER
  5
2
100
AcDbSymbolTable
 70
36
  0
LAYER
  5
10
100
AcDbSymbolTableRecord
100
AcDbLayerTableRecord
  2
0
 70
0
 62
7
  6
CONTINUOUS
370
-3
390
F
  0
LAYER
  5
1FA
100
AcDbSymbolTableRecord
100
AcDbLayerTableRecord
  2
DEFAULT_1
 70
0
 62
7
  6
CENTER
370
-3
390
F
  0
LAYER
  5
1FB
100
AcDbSymbolTableRecord
100
AcDbLayerTableRecord
  2
DEFAULT_2
 70
0
 62
7
  6
HIDDEN
370
-3
390
F
  0
LAYER
  5
1FC
100
AcDbSymbolTableRecord
100
AcDbLayerTableRecord
  2
DEFAULT_3
 70
0
 62
7
  6
PHANTOM
370
-3
390
F
  0
LAYER
  5
1FD
100
AcDbSymbolTableRecord
100
AcDbLayerTableRecord
  2
00_COMPONENTS
 70
0
 62
7
  6
CONTINUOUS
370
-3
390
F
  0
LAYER
  5
1FE
100
AcDbSymbolTableRecord
100
AcDbLayerTableRecord
  2
01_1_DEFAULT_DATUMS
 70
0
 62
7
  6
CONTINUOUS
370
-3
390
F
  0
LAYER
  5
1FF
100
AcDbSymbolTableRecord
100
AcDbLayerTableRecord
  2
01_PLANES
 70
0
 62
7
  6
CONTINUOUS
370
-3
390
F
  0
LAYER
  5
200
100
AcDbSymbolTableRecord
100
AcDbLayerTableRecord
  2
02_COORD_SYS
 70
0
 62
7
  6
CONTINUOUS
370
-3
390
F
  0
LAYER
  5
201
100
AcDbSymbolTableRecord
100
AcDbLayerTableRecord
  2
03_AXES
 70
0
 62
7
  6
CONTINUOUS
370
-3
390
F
  0
LAYER
  5
202
100
AcDbSymbolTableRecord
100
AcDbLayerTableRecord
  2
04_POINTS
 70
0
 62
7
  6
CONTINUOUS
370
-3
390
F
  0
LAYER
  5
203
100
AcDbSymbolTableRecord
100
AcDbLayerTableRecord
  2
05_CURVES
 70
0
 62
7
  6
CONTINUOUS
370
-3
390
F
  0
LAYER
  5
204
100
AcDbSymbolTableRecord
100
AcDbLayerTableRecord
  2
06_SURFS
 70
0
 62
7
  6
CONTINUOUS
370
-3
390
F
  0
LAYER
  5
205
100
AcDbSymbolTableRecord
100
AcDbLayerTableRecord
  2
07_COSMETICS
 70
0
 62
7
  6
CONTINUOUS
370
-3
390
F
  0
LAYER
  5
206
100
AcDbSymbolTableRecord
100
AcDbLayerTableRecord
  2
10_NOTES
 70
0
 62
7
  6
CONTINUOUS
370
-3
390
F
  0
LAYER
  5
207
100
AcDbSymbolTableRecord
100
AcDbLayerTableRecord
  2
11_NOTES_PUB
 70
0
 62
7
  6
CONTINUOUS
370
-3
390
F
  0
LAYER
  5
208
100
AcDbSymbolTableRecord
100
AcDbLayerTableRecord
  2
13_REF_GTOL
 70
0
 62
7
  6
CONTINUOUS
370
-3
390
F
  0
LAYER
  5
209
100
AcDbSymbolTableRecord
100
AcDbLayerTableRecord
  2
16_MISC
 70
0
 62
7
  6
CONTINUOUS
370
-3
390
F
  0
LAYER
  5
20A
100
AcDbSymbolTableRecord
100
AcDbLayerTableRecord
  2
17_NO_PRINT
 70
0
 62
7
  6
CONTINUOUS
370
-3
390
F
  0
LAYER
  5
20B
100
AcDbSymbolTableRecord
100
AcDbLayerTableRecord
  2
18_DATUM_CAMS_JOINTS
 70
0
 62
7
  6
CONTINUOUS
370
-3
390
F
  0
LAYER
  5
20C
100
AcDbSymbolTableRecord
100
AcDbLayerTableRecord
  2
19_DATUM_FUNCTIONAL
 70
0
 62
7
  6
CONTINUOUS
370
-3
390
F
  0
LAYER
  5
20D
100
AcDbSymbolTableRecord
100
AcDbLayerTableRecord
  2
20_DATUM_KINEMATIC_SCHEME
 70
0
 62
7
  6
CONTINUOUS
370
-3
390
F
  0
ENDTAB
  0
TABLE
  2
STYLE
  5
3
100
AcDbSymbolTable
 70
1
  0
STYLE
  5
11
100
AcDbSymbolTableRecord
100
AcDbTextStyleTableRecord
  2
STANDARD
 70
0
 40
0.0
 41
1.0
 50
0.0
 71
0
 42
0.2
  3
ARIAL.TTF
  4

  0
STYLE
  5
20E
100
AcDbSymbolTableRecord
100
AcDbTextStyleTableRecord
  2
TEXTSTYLE_1
 70
0
 40
0.0
 41
0.8
 50
0.0
 71
0
 42
0.2
  3
gdt
  4

  0
ENDTAB
  0
TABLE
  2
VIEW
  5
6
100
AcDbSymbolTable
 70
0
  0
ENDTAB
  0
TABLE
  2
UCS
  5
7
100
AcDbSymbolTable
 70
0
  0
ENDTAB
  0
TABLE
  2
APPID
  5
9
100
AcDbSymbolTable
 70
1
  0
APPID
  5
20F
100
AcDbSymbolTableRecord
100
AcDbRegAppTableRecord
  2
ACAD
 70
0
  0
ENDTAB
  0
TABLE
  2
BLOCK_RECORD
  5
1
100
AcDbSymbolTable
 70
0
  0
BLOCK_RECORD
  5
210
100
AcDbSymbolTableRecord
100
AcDbBlockTableRecord
  2
*Model_Space
  0
BLOCK_RECORD
  5
211
100
AcDbSymbolTableRecord
100
AcDbBlockTableRecord
  2
*Paper_Space
  0
BLOCK_RECORD
  5
212
100
AcDbSymbolTableRecord
100
AcDbBlockTableRecord
  2
_FILLED
  0
ENDTAB
  0
TABLE
  2
DIMSTYLE
  5
A
100
AcDbSymbolTable
 70
1
100
AcDbDimStyleTable
 71
0
  0
DIMSTYLE
105
213
100
AcDbSymbolTableRecord
100
AcDbDimStyleTableRecord
  2
STANDARD
 70
0
  3

  4

 40
1.0
 41
0.7801518103
 42
1.0
 43
0.38
 44
1.0
 45
0.0
 46
0.0
 47
0.01
 48
0.01
140
1.0922125344
141
0.09
142
0.0
143
25.4
144
1.0
145
0.0
146
1.0
147
0.625
 71
1
 72
0
 73
0
 74
0
 75
0
 76
0
 77
1
 78
8
 79
2
170
0
171
1
172
0
173
0
174
0
175
0
176
0
177
0
178
0
270
2
179
2
271
2
272
2
273
2
274
2
275
0
280
0
281
0
282
0
283
1
284
8
285
0
286
0
287
3
288
0
340
11
278
46
341
212
342
212
343
212
344
212
  0
ENDTAB
  0
ENDSEC
  0
SECTION
  2
BLOCKS
  0
BLOCK
  5
20
100
AcDbEntity
  8
0
100
AcDbBlockBegin
  2
*Model_Space
 70
0
 10
0.0
 20
0.0
 30
0.0
  3
*Model_Space
  1

  0
ENDBLK
  5
21
100
AcDbEntity
  8
0
100
AcDbBlockEnd
  0
BLOCK
  5
1C
100
AcDbEntity
  8
0
100
AcDbBlockBegin
  2
*Paper_Space
 70
0
 10
0.0
 20
0.0
 30
0.0
  3
*Paper_Space
  1

  0
ENDBLK
  5
1D
100
AcDbEntity
  8
0
100
AcDbBlockEnd
  0
BLOCK
  5
214
100
AcDbEntity
  8
0
100
AcDbBlockBegin
  2
_FILLED
 70
64
 10
0.0
 20
0.0
  3
_FILLED
  1

  0
SOLID
  5
215
100
AcDbEntity
  8
0
  6
BYBLOCK
 62
0
100
AcDbTrace
 10
0.0
 20
0.0
 11
-1.0
 21
0.25
 12
-1.0
 22
-0.25
 13
-1.0
 23
-0.25
  0
ENDBLK
  5
216
100
AcDbEntity
  8
0
  6
BYBLOCK
 62
0
100
AcDbBlockEnd
  0
ENDSEC
  0
SECTION
  2
ENTITIES
  0
LINE
  5
217
100
AcDbEntity
  8
0
100
AcDbLine
 62
7
  6
BYLAYER
 10
15.3409422084
 20
83.758087868
 11
15.3886258594
 21
83.7854137478
  0
LINE
  5
218
100
AcDbEntity
  8
0
100
AcDbLine
 62
7
  6
BYLAYER
 10
11.2658460112
 20
11.035215452
 11
11.4118765091
 21
10.9319562967
  0
LINE
  5
219
100
AcDbEntity
  8
0
100
AcDbLine
 62
7
  6
BYLAYER
 10
11.1161554441
 20
6.631307373
 11
8.0161554441
 21
6.631307373
  0
LINE
  5
21A
100
AcDbEntity
  8
0
100
AcDbLine
 62
7
  6
BYLAYER
 10
8.0161554441
 20
8.8010408547
 11
11.1161554441
 21
8.8010408547
  0
LINE
  5
21B
100
AcDbEntity
  8
0
100
AcDbLine
 62
7
  6
BYLAYER
 10
12.8260900715
 20
10.5177427343
 11
20.0721708933
 21
10.5177427343
  0
LINE
  5
21C
100
AcDbEntity
  8
0
100
AcDbLine
 62
7
  6
BYLAYER
 10
11.2525751513
 20
12.2682363172
 11
20.0721708933
 21
12.2682363172
  0
LINE
  5
21D
100
AcDbEntity
  8
0
100
AcDbLine
 62
7
  6
BYLAYER
 10
19.9976629467
 20
12.658015039
 11
13.6959385525
 21
12.658015039
  0
LINE
  5
21E
100
AcDbEntity
  8
0
100
AcDbLine
 62
7
  6
BYLAYER
 10
12.0161554441
 20
12.8455896245
 11
14.4976629467
 21
12.8455896245
  0
LINE
  5
21F
100
AcDbEntity
  8
0
100
AcDbLine
 62
7
  6
BYLAYER
 10
11.5758127673
 20
15.53068665
 11
18.3894851081
 21
15.53068665
  0
LINE
  5
220
100
AcDbEntity
  8
0
100
AcDbLine
 62
7
  6
BYLAYER
 10
14.4890519122
 20
15.6781223686
 11
12.0161554441
 21
15.6781223686
  0
LINE
  5
221
100
AcDbEntity
  8
0
100
AcDbLine
 62
7
  6
BYLAYER
 10
15.3886152641
 20
17.2824595321
 11
18.4976065274
 21
17.2824595321
  0
LINE
  5
222
100
AcDbEntity
  8
0
100
AcDbLine
 62
7
  6
BYLAYER
 10
8.0161554441
 20
6.6313713411
 11
8.0161554441
 21
82.0805798661
  0
LINE
  5
223
100
AcDbEntity
  8
0
100
AcDbLine
 62
7
  6
BYLAYER
 10
11.1161554441
 20
12.0963950472
 11
11.1161554441
 21
6.6313711691
  0
LINE
  5
224
100
AcDbEntity
  8
0
100
AcDbLine
 62
7
  6
BYLAYER
 10
11.2525751513
 20
11.9604605822
 11
11.2525751513
 21
12.2682363172
  0
LINE
  5
225
100
AcDbEntity
  8
0
100
AcDbLine
 62
7
  6
BYLAYER
 10
12.0161554441
 20
15.6781223686
 11
12.0161554441
 21
84.1557067942
  0
LINE
  5
226
100
AcDbEntity
  8
0
100
AcDbLine
 62
7
  6
BYLAYER
 10
12.9888317713
 20
12.8455896245
 11
12.9888317713
 21
12.8033148709
  0
LINE
  5
227
100
AcDbEntity
  8
0
100
AcDbLine
 62
7
  6
BYLAYER
 10
13.6959385525
 20
12.658015039
 11
13.6959385525
 21
12.8455896245
  0
LINE
  5
228
100
AcDbEntity
  8
0
100
AcDbLine
 62
7
  6
BYLAYER
 10
13.9976629467
 20
50.4206553768
 11
13.9976629467
 21
69.2687322017
  0
LINE
  5
229
100
AcDbEntity
  8
0
100
AcDbLine
 62
7
  6
BYLAYER
 10
14.4890519122
 20
84.1557067942
 11
14.4890519122
 21
69.2687322017
  0
LINE
  5
22A
100
AcDbEntity
  8
0
100
AcDbLine
 62
7
  6
BYLAYER
 10
14.4890519122
 20
50.4206553768
 11
14.4890519122
 21
15.6781223686
  0
LINE
  5
22B
100
AcDbEntity
  8
0
100
AcDbLine
 62
7
  6
BYLAYER
 10
15.3890519122
 20
17.313325745
 11
15.3890519122
 21
85.4889023617
  0
LINE
  5
22C
100
AcDbEntity
  8
0
100
AcDbLine
 62
7
  6
BYLAYER
 10
18.4976629467
 20
17.313325745
 11
18.4976629467
 21
85.4889022555
  0
LINE
  5
22D
100
AcDbEntity
  8
0
100
AcDbLine
 62
7
  6
BYLAYER
 10
19.9976629467
 20
12.7089557554
 11
19.9976629467
 21
12.3233000248
  0
LINE
  5
22E
100
AcDbEntity
  8
0
100
AcDbLine
 62
7
  6
BYLAYER
 10
20.0721708933
 20
12.2682363172
 11
20.0721708933
 21
10.5177427343
  0
LINE
  5
22F
100
AcDbEntity
  8
0
100
AcDbLine
 62
7
  6
BYLAYER
 10
22.3976629467
 20
12.2139810085
 11
22.3976629467
 21
46.189551734
  0
LINE
  5
230
100
AcDbEntity
  8
0
100
AcDbLine
 62
7
  6
BYLAYER
 10
22.7317230836
 20
46.1757488784
 11
25.1677079173
 21
46.1757488784
  0
LINE
  5
231
100
AcDbEntity
  8
0
100
AcDbLine
 62
7
  6
BYLAYER
 10
22.7317230836
 20
46.1757488784
 11
18.4976629467
 21
46.3506937892
  0
LINE
  5
232
100
AcDbEntity
  8
0
100
AcDbLine
 62
7
  6
BYLAYER
 10
55.0527049393
 20
48.9605203589
 11
55.5498897914
 21
48.9605203589
  0
LINE
  5
233
100
AcDbEntity
  8
0
100
AcDbLine
 62
7
  6
BYLAYER
 10
13.9976629467
 20
50.4206553768
 11
15.3890519122
 21
50.4206553768
  0
LINE
  5
234
100
AcDbEntity
  8
0
100
AcDbLine
 62
7
  6
BYLAYER
 10
43.6160308319
 20
51.546386966
 11
25.3030687652
 21
51.546386966
  0
LINE
  5
235
100
AcDbEntity
  8
0
100
AcDbLine
 62
7
  6
BYLAYER
 10
55.5488650354
 20
48.9605203589
 11
55.9166661836
 21
49.2341215337
  0
LINE
  5
236
100
AcDbEntity
  8
0
100
AcDbLine
 62
7
  6
BYLAYER
 10
55.9166661836
 20
49.2341215337
 11
55.9166661836
 21
70.4552660448
  0
LINE
  5
237
100
AcDbEntity
  8
0
100
AcDbLine
 62
7
  6
BYLAYER
 10
43.6160308319
 20
68.1430006125
 11
25.3030687652
 21
68.1430006125
  0
LINE
  5
238
100
AcDbEntity
  8
0
100
AcDbLine
 62
7
  6
BYLAYER
 10
15.3890519122
 20
69.2687322017
 11
13.9976629467
 21
69.2687322017
  0
LINE
  5
239
100
AcDbEntity
  8
0
100
AcDbLine
 62
7
  6
BYLAYER
 10
55.5498897914
 20
70.7288672196
 11
55.0527049393
 21
70.7288672196
  0
LINE
  5
23A
100
AcDbEntity
  8
0
100
AcDbLine
 62
7
  6
BYLAYER
 10
59.2182251727
 20
65.0061783261
 11
59.2182251727
 21
54.6832092524
  0
LINE
  5
23B
100
AcDbEntity
  8
0
100
AcDbLine
 62
7
  6
BYLAYER
 10
18.4976629467
 20
73.3386937892
 11
22.7317230836
 21
73.5136387001
  0
LINE
  5
23C
100
AcDbEntity
  8
0
100
AcDbLine
 62
7
  6
BYLAYER
 10
25.1677079173
 20
73.5136387001
 11
22.7317230836
 21
73.5136387001
  0
LINE
  5
23D
100
AcDbEntity
  8
0
100
AcDbLine
 62
7
  6
BYLAYER
 10
55.5488650354
 20
70.7288672196
 11
55.9166661836
 21
70.4552660448
  0
LINE
  5
23E
100
AcDbEntity
  8
0
100
AcDbLine
 62
7
  6
BYLAYER
 10
12.0161554441
 20
84.1557067942
 11
14.4890519122
 21
84.1557067942
  0
LINE
  5
23F
100
AcDbEntity
  8
0
100
AcDbLine
 62
7
  6
BYLAYER
 10
11.5756869355
 20
84.2687223947
 11
15.3890519122
 21
84.2687324483
  0
LINE
  5
240
100
AcDbEntity
  8
0
100
AcDbLine
 62
7
  6
BYLAYER
 10
18.4976629467
 20
85.4889652217
 11
15.3890519122
 21
85.4889652217
  0
ARC
  5
241
100
AcDbEntity
  8
0
100
AcDbCircle
 62
7
  6
BYLAYER
 10
37.8669546412
 20
106.8968669007
 40
60.4315336883
100
AcDbArc
 50
270.3043621083
 51
286.5220199746
  0
ARC
  5
242
100
AcDbEntity
  8
0
100
AcDbCircle
 62
7
  6
BYLAYER
 10
37.8669546412
 20
12.7925206778
 40
60.4315336883
100
AcDbArc
 50
73.4779800254
 51
89.6956378917
  0
ARC
  5
243
100
AcDbEntity
  8
0
100
AcDbCircle
 62
7
  6
BYLAYER
 10
32.1187677765
 20
26.5542278905
 40
20.8163714187
100
AcDbArc
 50
73.0486728022
 51
109.5069780473
  0
ARC
  5
244
100
AcDbEntity
  8
0
100
AcDbCircle
 62
7
  6
BYLAYER
 10
32.1187677765
 20
93.135159688
 40
20.8163714187
100
AcDbArc
 50
250.4930219566
 51
286.9513271978
  0
ARC
  5
245
100
AcDbEntity
  8
0
100
AcDbCircle
 62
7
  6
BYLAYER
 10
53.0706977685
 20
54.6832092524
 40
6.1475274042
100
AcDbArc
 50
297.5773209514
 51
360.0
  0
ARC
  5
246
100
AcDbEntity
  8
0
100
AcDbCircle
 62
7
  6
BYLAYER
 10
53.0706977685
 20
65.0061783261
 40
6.1475274042
100
AcDbArc
 50
0.0
 51
62.4226790486
  0
ARC
  5
247
100
AcDbEntity
  8
0
100
AcDbCircle
 62
7
  6
BYLAYER
 10
13.4227575296
 20
17.3133288304
 40
5.0749054171
100
AcDbArc
 50
359.6532102444
 51
0.0000350557
  0
ARC
  5
248
100
AcDbEntity
  8
0
100
AcDbCircle
 62
7
  6
BYLAYER
 10
11.3212553135
 20
9.1123440219
 40
4.0501946929
100
AcDbArc
 50
65.6866012681
 51
67.3499465374
  0
ARC
  5
249
100
AcDbEntity
  8
0
100
AcDbCircle
 62
7
  6
BYLAYER
 10
14.2436364824
 20
17.3140931393
 40
1.1454156868
100
AcDbArc
 50
358.4174281065
 51
359.9616135369
  0
SPLINE
  5
24A
100
AcDbEntity
  8
0
100
AcDbSpline
 62
7
  6
BYLAYER
 70
0
 71
3
 72
25
 73
21
 74
0
 42
0.0000001
 43
0.0000001
 44
0.0000000001
 40
0.0
 40
0.0
 40
0.0
 40
0.0
 40
0.1153957188
 40
0.2343904102
 40
0.3566062002
 40
0.4816156161
 40
0.54502443
 40
0.6089554208
 40
0.6733465063
 40
0.7381344757
 40
0.7706576412
 40
0.8032562528
 40
0.8359223977
 40
0.8686481291
 40
0.9014252701
 40
0.9342428825
 40
0.9506728723
 40
0.9671105796
 40
0.9835545586
 40
1.0
 40
1.0
 40
1.0
 40
1.0
 10
25.3030687652
 20
51.546386966
 30
0.0
 10
25.66596893
 20
51.8086056812
 30
0.0
 10
26.393030158
 20
52.3552216393
 30
0.0
 10
27.4733130129
 20
53.219936418
 30
0.0
 10
28.561173967
 20
54.1341507775
 30
0.0
 10
29.470282002
 20
54.92546187
 30
0.0
 10
30.2042074788
 20
55.5735067824
 30
0.0
 10
30.7607972008
 20
56.0670524405
 30
0.0
 10
31.3221294263
 20
56.5633107497
 30
0.0
 10
31.7950194184
 20
56.975633657
 30
0.0
 10
32.1790983651
 20
57.302043356
 30
0.0
 10
32.4713413947
 20
57.5440247233
 30
0.0
 10
32.7687789902
 20
57.780876766
 30
0.0
 10
33.0736136646
 20
58.0093984443
 30
0.0
 10
33.3892310739
 20
58.2239206532
 30
0.0
 10
33.6659468389
 20
58.3824813024
 30
0.0
 10
33.8989986566
 20
58.486232401
 30
0.0
 10
34.0804131183
 20
58.548074088
 30
0.0
 10
34.2679544287
 20
58.5886355845
 30
0.0
 10
34.3957433631
 20
58.5981324117
 30
0.0
 10
34.4595497986
 20
58.5981324117
 30
0.0
  0
SPLINE
  5
24B
100
AcDbEntity
  8
0
100
AcDbSpline
 62
7
  6
BYLAYER
 70
0
 71
3
 72
13
 73
9
 74
0
 42
0.0000001
 43
0.0000001
 44
0.0000000001
 40
0.0
 40
0.0
 40
0.0
 40
0.0
 40
0.3344705573
 40
0.6222031892
 40
0.7441875659
 40
0.8490498313
 40
0.9349026828
 40
1.0
 40
1.0
 40
1.0
 40
1.0
 10
25.3030687652
 20
51.546386966
 30
0.0
 10
24.4770553804
 20
51.0711180204
 30
0.0
 10
22.9873390141
 20
50.1040253696
 30
0.0
 10
21.302008115
 20
48.8154530194
 30
0.0
 10
20.1726304519
 20
47.8803633207
 30
0.0
 10
19.497565309
 20
47.2988397898
 30
0.0
 10
18.9526431249
 20
46.8147517019
 30
0.0
 10
18.634449985
 20
46.5253774811
 30
0.0
 10
18.4976629467
 20
46.4001131675
 30
0.0
  0
SPLINE
  5
24C
100
AcDbEntity
  8
0
100
AcDbSpline
 62
7
  6
BYLAYER
 70
0
 71
3
 72
9
 73
5
 74
0
 42
0.0000001
 43
0.0000001
 44
0.0000000001
 40
0.0
 40
0.0
 40
0.0
 40
0.0
 40
0.4380705439
 40
1.0
 40
1.0
 40
1.0
 40
1.0
 10
49.1533498283
 20
47.5285886605
 30
0.0
 10
48.3962211503
 20
48.1819576294
 30
0.0
 10
46.6252582958
 20
49.6243166087
 30
0.0
 10
44.7279378166
 20
50.9066214732
 30
0.0
 10
43.6160308319
 20
51.546386966
 30
0.0
  0
SPLINE
  5
24D
100
AcDbEntity
  8
0
100
AcDbSpline
 62
7
  6
BYLAYER
 70
0
 71
3
 72
25
 73
21
 74
0
 42
0.0000001
 43
0.0000001
 44
0.0000000001
 40
0.0
 40
0.0
 40
0.0
 40
0.0
 40
0.1153956729
 40
0.2343903468
 40
0.3566061442
 40
0.4816155787
 40
0.5450244025
 40
0.6089554053
 40
0.6733465046
 40
0.7381344895
 40
0.7706576638
 40
0.8032562856
 40
0.8359224434
 40
0.8686481896
 40
0.9014253327
 40
0.9342429263
 40
0.9506728937
 40
0.9671105979
 40
0.9835545828
 40
1.0
 40
1.0
 40
1.0
 40
1.0
 10
25.3030687652
 20
68.1430006125
 30
0.0
 10
25.6659687852
 20
67.8807820019
 30
0.0
 10
26.3930298222
 20
67.3341662017
 30
0.0
 10
27.4733125009
 20
66.4694515548
 30
0.0
 10
28.561173521
 20
65.5552372256
 30
0.0
 10
29.4702816399
 20
64.7639260191
 30
0.0
 10
30.2042072357
 20
64.1158810065
 30
0.0
 10
30.7607970634
 20
63.6223352601
 30
0.0
 10
31.3221294563
 20
63.1260769004
 30
0.0
 10
31.795019466
 20
62.7137537891
 30
0.0
 10
32.1790985401
 20
62.3873440343
 30
0.0
 10
32.4713416979
 20
62.1453626284
 30
0.0
 10
32.7687793906
 20
61.9085104761
 30
0.0
 10
33.0736141217
 20
61.679988671
 30
0.0
 10
33.3892317735
 20
61.4654668364
 30
0.0
 10
33.6659473324
 20
61.3069061592
 30
0.0
 10
33.8989989596
 20
61.2031550472
 30
0.0
 10
34.0804133587
 20
61.1413134113
 30
0.0
 10
34.2679545926
 20
61.1007519487
 30
0.0
 10
34.3957434569
 20
61.0912551668
 30
0.0
 10
34.4595497986
 20
61.0912551668
 30
0.0
  0
SPLINE
  5
24E
100
AcDbEntity
  8
0
100
AcDbSpline
 62
7
  6
BYLAYER
 70
0
 71
3
 72
9
 73
5
 74
0
 42
0.0000001
 43
0.0000001
 44
0.0000000001
 40
0.0
 40
0.0
 40
0.0
 40
0.0
 40
0.3779360925
 40
1.0
 40
1.0
 40
1.0
 40
1.0
 10
18.4976629467
 20
73.289274411
 30
0.0
 10
19.2913888303
 20
72.5624107456
 30
0.0
 10
21.4392322228
 20
70.6926490126
 30
0.0
 10
23.7676228821
 20
69.0264605652
 30
0.0
 10
25.3030687652
 20
68.1430006125
 30
0.0
  0
SPLINE
  5
24F
100
AcDbEntity
  8
0
100
AcDbSpline
 62
7
  6
BYLAYER
 70
0
 71
3
 72
10
 73
6
 74
0
 42
0.0000001
 43
0.0000001
 44
0.0000000001
 40
0.0
 40
0.0
 40
0.0
 40
0.0
 40
0.2936902822
 40
0.5620459408
 40
1.0
 40
1.0
 40
1.0
 40
1.0
 10
43.6160308319
 20
68.1430006125
 30
0.0
 10
44.1973155108
 20
68.4774583361
 30
0.0
 10
45.2857522328
 20
69.1599357739
 30
0.0
 10
47.1444158471
 20
70.4878518183
 30
0.0
 10
48.3962330862
 20
71.5074208364
 30
0.0
 10
49.1533443532
 20
72.160799913
 30
0.0
  0
SPLINE
  5
250
100
AcDbEntity
  8
0
100
AcDbSpline
 62
7
  6
BYLAYER
 70
0
 71
3
 72
25
 73
21
 74
0
 42
0.0000001
 43
0.0000001
 44
0.0000000001
 40
0.0
 40
0.0
 40
0.0
 40
0.0
 40
0.1153956729
 40
0.2343903468
 40
0.3566061442
 40
0.4816155787
 40
0.5450244025
 40
0.6089554053
 40
0.6733465046
 40
0.7381344895
 40
0.7706576638
 40
0.8032562856
 40
0.8359224434
 40
0.8686481896
 40
0.9014253327
 40
0.9342429263
 40
0.9506728937
 40
0.9671105979
 40
0.9835545828
 40
1.0
 40
1.0
 40
1.0
 40
1.0
 10
43.6160308319
 20
51.546386966
 30
0.0
 10
43.2531308119
 20
51.8086055766
 30
0.0
 10
42.526069775
 20
52.3552213768
 30
0.0
 10
41.4457870962
 20
53.2199360237
 30
0.0
 10
40.3579260762
 20
54.1341503529
 30
0.0
 10
39.4488179573
 20
54.9254615594
 30
0.0
 10
38.7148923614
 20
55.573506572
 30
0.0
 10
38.1583025338
 20
56.0670523184
 30
0.0
 10
37.5969701408
 20
56.5633106781
 30
0.0
 10
37.1240801311
 20
56.9756337894
 30
0.0
 10
36.7400010571
 20
57.3020435442
 30
0.0
 10
36.4477578993
 20
57.5440249501
 30
0.0
 10
36.1503202065
 20
57.7808771024
 30
0.0
 10
35.8454854755
 20
58.0093989075
 30
0.0
 10
35.5298678237
 20
58.2239207421
 30
0.0
 10
35.2531522647
 20
58.3824814193
 30
0.0
 10
35.0201006376
 20
58.4862325313
 30
0.0
 10
34.8386862385
 20
58.5480741672
 30
0.0
 10
34.6511450046
 20
58.5886356297
 30
0.0
 10
34.5233561402
 20
58.5981324117
 30
0.0
 10
34.4595497986
 20
58.5981324117
 30
0.0
  0
SPLINE
  5
251
100
AcDbEntity
  8
0
100
AcDbSpline
 62
7
  6
BYLAYER
 70
0
 71
3
 72
25
 73
21
 74
0
 42
0.0000001
 43
0.0000001
 44
0.0000000001
 40
0.0
 40
0.0
 40
0.0
 40
0.0
 40
0.1153957188
 40
0.2343904102
 40
0.3566062002
 40
0.4816156161
 40
0.54502443
 40
0.6089554208
 40
0.6733465063
 40
0.7381344757
 40
0.7706576412
 40
0.8032562528
 40
0.8359223977
 40
0.8686481291
 40
0.9014252701
 40
0.9342428825
 40
0.9506728723
 40
0.9671105796
 40
0.9835545586
 40
1.0
 40
1.0
 40
1.0
 40
1.0
 10
43.6160308319
 20
68.1430006125
 30
0.0
 10
43.2531306671
 20
67.8807818973
 30
0.0
 10
42.5260694391
 20
67.3341659392
 30
0.0
 10
41.4457865842
 20
66.4694511605
 30
0.0
 10
40.3579256302
 20
65.555236801
 30
0.0
 10
39.4488175951
 20
64.7639257085
 30
0.0
 10
38.7148921183
 20
64.1158807961
 30
0.0
 10
38.1583023963
 20
63.622335138
 30
0.0
 10
37.5969701708
 20
63.1260768288
 30
0.0
 10
37.1240801787
 20
62.7137539215
 30
0.0
 10
36.7400012321
 20
62.3873442225
 30
0.0
 10
36.4477582024
 20
62.1453628552
 30
0.0
 10
36.1503206069
 20
61.9085108125
 30
0.0
 10
35.8454859326
 20
61.6799891342
 30
0.0
 10
35.5298685232
 20
61.4654669253
 30
0.0
 10
35.2531527582
 20
61.3069062761
 30
0.0
 10
35.0201009405
 20
61.2031551775
 30
0.0
 10
34.8386864789
 20
61.1413134905
 30
0.0
 10
34.6511451685
 20
61.100751994
 30
0.0
 10
34.5233562341
 20
61.0912551668
 30
0.0
 10
34.4595497986
 20
61.0912551668
 30
0.0
  0
SPLINE
  5
252
100
AcDbEntity
  8
0
100
AcDbSpline
 62
7
  6
BYLAYER
 70
0
 71
3
 72
9
 73
5
 74
0
 42
0.0000001
 43
0.0000001
 44
0.0000000001
 40
0.0
 40
0.0
 40
0.0
 40
0.0
 40
0.2553452352
 40
1.0
 40
1.0
 40
1.0
 40
1.0
 10
11.2525748908
 20
11.9604605822
 30
0.0
 10
11.2556175804
 20
11.8956115266
 30
0.0
 10
11.2662269939
 20
11.6415893977
 30
0.0
 10
11.2717568398
 20
11.3873263162
 30
0.0
 10
11.2717568398
 20
11.1980011341
 30
0.0
  0
SPLINE
  5
253
100
AcDbEntity
  8
0
100
AcDbSpline
 62
7
  6
BYLAYER
 70
0
 71
3
 72
11
 73
7
 74
0
 42
0.0000001
 43
0.0000001
 44
0.0000000001
 40
0.0
 40
0.0
 40
0.0
 40
0.0
 40
0.2753081311
 40
0.5343852191
 40
0.7763326214
 40
1.0
 40
1.0
 40
1.0
 40
1.0
 10
11.2717568398
 20
11.1980011341
 30
0.0
 10
11.2717568398
 20
10.976499819
 30
0.0
 10
11.2605844392
 20
10.5464835141
 30
0.0
 10
11.2161076036
 20
9.9233274918
 30
0.0
 10
11.1605637029
 20
9.3429789122
 30
0.0
 10
11.1299106456
 20
8.9694645198
 30
0.0
 10
11.1219259766
 20
8.7896884072
 30
0.0
  0
SPLINE
  5
254
100
AcDbEntity
  8
0
100
AcDbSpline
 62
7
  6
BYLAYER
 70
0
 71
3
 72
14
 73
10
 74
0
 42
0.0000001
 43
0.0000001
 44
0.0000000001
 40
0.0
 40
0.0
 40
0.0
 40
0.0
 40
0.103446798
 40
0.2106811811
 40
0.3243894218
 40
0.4461502234
 40
0.5760706889
 40
0.7131395647
 40
1.0
 40
1.0
 40
1.0
 40
1.0
 10
20.3076629467
 20
16.0464997626
 30
0.0
 10
20.3076629467
 20
15.9197776391
 30
0.0
 10
20.2710691423
 20
15.6604171798
 30
0.0
 10
20.1113854306
 20
15.2920035913
 30
0.0
 10
19.8547622566
 20
14.9551744724
 30
0.0
 10
19.5130208699
 20
14.6617621064
 30
0.0
 10
19.0990454186
 20
14.421412414
 30
0.0
 10
18.4631244697
 20
14.1791845547
 30
0.0
 10
17.9398139848
 20
14.1048778742
 30
0.0
 10
17.5884215821
 20
14.1020892823
 30
0.0
  0
SPLINE
  5
255
100
AcDbEntity
  8
0
100
AcDbSpline
 62
7
  6
BYLAYER
 70
0
 71
3
 72
14
 73
10
 74
0
 42
0.0000001
 43
0.0000001
 44
0.0000000001
 40
0.0
 40
0.0
 40
0.0
 40
0.0
 40
0.109187225
 40
0.2206670078
 40
0.3360247454
 40
0.4566676762
 40
0.5834578125
 40
0.716602418
 40
1.0
 40
1.0
 40
1.0
 40
1.0
 10
19.8076629467
 20
25.5924413086
 30
0.0
 10
19.8076629467
 20
25.5173983928
 30
0.0
 10
19.7921901503
 20
25.3653346556
 30
0.0
 10
19.7240622552
 20
25.14324931
 30
0.0
 10
19.6121450889
 20
24.9307993534
 30
0.0
 10
19.459426984
 20
24.7323277467
 30
0.0
 10
19.2690716981
 20
24.5514978317
 30
0.0
 10
18.9643893524
 20
24.3340642248
 30
0.0
 10
18.7003980074
 20
24.2143391734
 30
0.0
 10
18.5155774103
 20
24.1528673338
 30
0.0
  0
SPLINE
  5
256
100
AcDbEntity
  8
0
100
AcDbSpline
 62
7
  6
BYLAYER
 70
0
 71
3
 72
11
 73
7
 74
0
 42
0.0000001
 43
0.0000001
 44
0.0000000001
 40
0.0
 40
0.0
 40
0.0
 40
0.0
 40
0.2255190588
 40
0.467146623
 40
0.7258504556
 40
1.0
 40
1.0
 40
1.0
 40
1.0
 10
19.6851983384
 20
46.2879041515
 30
0.0
 10
19.6349951251
 20
46.1847737446
 30
0.0
 10
19.5023493525
 20
45.9843490698
 30
0.0
 10
19.233166302
 20
45.7280457871
 30
0.0
 10
18.8991429368
 20
45.5152750306
 30
0.0
 10
18.647885557
 20
45.4100768234
 30
0.0
 10
18.5155774103
 20
45.3660707694
 30
0.0
  0
SPLINE
  5
257
100
AcDbEntity
  8
0
100
AcDbSpline
 62
7
  6
BYLAYER
 70
0
 71
3
 72
9
 73
5
 74
0
 42
0.0000001
 43
0.0000001
 44
0.0000000001
 40
0.0
 40
0.0
 40
0.0
 40
0.0
 40
0.2380040961
 40
1.0
 40
1.0
 40
1.0
 40
1.0
 10
11.2638857796
 20
12.4804685164
 30
0.0
 10
11.2619173313
 20
12.463716839
 30
0.0
 10
11.2549291068
 20
12.3931822665
 30
0.0
 10
11.2525751513
 20
12.3222376363
 30
0.0
 10
11.2525751513
 20
12.2682363172
 30
0.0
  0
SPLINE
  5
258
100
AcDbEntity
  8
0
100
AcDbSpline
 62
7
  6
BYLAYER
 70
0
 71
3
 72
9
 73
5
 74
0
 42
0.0000001
 43
0.0000001
 44
0.0000000001
 40
0.0
 40
0.0
 40
0.0
 40
0.0
 40
0.2356165529
 40
1.0
 40
1.0
 40
1.0
 40
1.0
 10
11.4118765091
 20
10.9319562967
 30
0.0
 10
11.5072206171
 20
10.8645378313
 30
0.0
 10
11.9388646847
 20
10.6170876611
 30
0.0
 10
12.4472595467
 20
10.5177427343
 30
0.0
 10
12.8260900715
 20
10.5177427343
 30
0.0
  0
SPLINE
  5
259
100
AcDbEntity
  8
0
100
AcDbSpline
 62
7
  6
BYLAYER
 70
0
 71
3
 72
14
 73
10
 74
0
 42
0.0000001
 43
0.0000001
 44
0.0000000001
 40
0.0
 40
0.0
 40
0.0
 40
0.0
 40
0.1036548152
 40
0.2110101181
 40
0.324717034
 40
0.4463632664
 40
0.5761150639
 40
0.7129999222
 40
1.0
 40
1.0
 40
1.0
 40
1.0
 10
22.3976629467
 20
12.2139810085
 30
0.0
 10
22.3976629467
 20
12.104803366
 30
0.0
 10
22.3665761265
 20
11.8814747179
 30
0.0
 10
22.2307745536
 20
11.5637646813
 30
0.0
 10
22.0123133129
 20
11.2725568778
 30
0.0
 10
21.7209961907
 20
11.0178697459
 30
0.0
 10
21.3675761273
 20
10.8079424045
 30
0.0
 10
20.8233559767
 20
10.5937223891
 30
0.0
 10
20.3743897282
 20
10.5243802761
 30
0.0
 10
20.0721708933
 20
10.5177427343
 30
0.0
  0
SPLINE
  5
25A
100
AcDbEntity
  8
0
100
AcDbSpline
 62
7
  6
BYLAYER
 70
0
 71
3
 72
9
 73
5
 74
0
 42
0.0000001
 43
0.0000001
 44
0.0000000001
 40
0.0
 40
0.0
 40
0.0
 40
0.0
 40
0.2412509374
 40
1.0
 40
1.0
 40
1.0
 40
1.0
 10
19.1354642075
 20
45.7478558274
 30
0.0
 10
19.0897557554
 20
45.7796472792
 30
0.0
 10
18.8950223007
 20
45.9037879265
 30
0.0
 10
18.681736265
 20
45.9979228046
 30
0.0
 10
18.5155774103
 20
46.0531876973
 30
0.0
  0
SPLINE
  5
25B
100
AcDbEntity
  8
0
100
AcDbSpline
 62
7
  6
BYLAYER
 70
0
 71
3
 72
9
 73
5
 74
0
 42
0.0000001
 43
0.0000001
 44
0.0000000001
 40
0.0
 40
0.0
 40
0.0
 40
0.0
 40
0.2412509374
 40
1.0
 40
1.0
 40
1.0
 40
1.0
 10
19.1354642075
 20
24.5346523918
 30
0.0
 10
19.0897557554
 20
24.5664438436
 30
0.0
 10
18.8950223007
 20
24.6905844909
 30
0.0
 10
18.681736265
 20
24.784719369
 30
0.0
 10
18.5155774103
 20
24.8399842617
 30
0.0
  0
SPLINE
  5
25C
100
AcDbEntity
  8
0
100
AcDbSpline
 62
7
  6
BYLAYER
 70
0
 71
3
 72
9
 73
5
 74
0
 42
0.0000001
 43
0.0000001
 44
0.0000000001
 40
0.0
 40
0.0
 40
0.0
 40
0.0
 40
0.4771279258
 40
1.0
 40
1.0
 40
1.0
 40
1.0
 10
19.808322769
 20
14.9717791574
 30
0.0
 10
19.6329582562
 20
15.1483508464
 30
0.0
 10
19.1993372417
 20
15.4545162935
 30
0.0
 10
18.7033634579
 20
15.6332122688
 30
0.0
 10
18.4381223696
 20
15.6966290887
 30
0.0
  0
SPLINE
  5
25D
100
AcDbEntity
  8
0
100
AcDbSpline
 62
7
  6
BYLAYER
 70
0
 71
3
 72
11
 73
7
 74
0
 42
0.0000001
 43
0.0000001
 44
0.0000000001
 40
0.0
 40
0.0
 40
0.0
 40
0.0
 40
0.2218838191
 40
0.4702026104
 40
0.7335375947
 40
1.0
 40
1.0
 40
1.0
 40
1.0
 10
18.3894851081
 20
15.53068665
 30
0.0
 10
18.3930528935
 20
15.6604678275
 30
0.0
 10
18.4091824996
 20
15.9352342507
 30
0.0
 10
18.4460102345
 20
16.3628524346
 30
0.0
 10
18.4830553383
 20
16.8166353278
 30
0.0
 10
18.4966939184
 20
17.1265476249
 30
0.0
 10
18.4975653214
 20
17.2824595321
 30
0.0
  0
SPLINE
  5
25E
100
AcDbEntity
  8
0
100
AcDbSpline
 62
7
  6
BYLAYER
 70
0
 71
3
 72
13
 73
9
 74
0
 42
0.0000001
 43
0.0000001
 44
0.0000000001
 40
0.0
 40
0.0
 40
0.0
 40
0.0
 40
0.1121407828
 40
0.2268864752
 40
0.3453105544
 40
0.4685014931
 40
0.7279294186
 40
1.0
 40
1.0
 40
1.0
 40
1.0
 10
11.1161554441
 20
12.0963950472
 30
0.0
 10
11.1161554441
 20
12.1446936315
 30
0.0
 10
11.1282689249
 20
12.2427513291
 30
0.0
 10
11.1799463585
 20
12.3834403608
 30
0.0
 10
11.2633003945
 20
12.5137329718
 30
0.0
 10
11.4154470164
 20
12.668668337
 30
0.0
 10
11.668424012
 20
12.8073825171
 30
0.0
 10
11.8989757385
 20
12.8455896245
 30
0.0
 10
12.0161554441
 20
12.8455896245
 30
0.0
  0
SPLINE
  5
25F
100
AcDbEntity
  8
0
100
AcDbSpline
 62
7
  6
BYLAYER
 70
0
 71
3
 72
14
 73
10
 74
0
 42
0.0000001
 43
0.0000001
 44
0.0000000001
 40
0.0
 40
0.0
 40
0.0
 40
0.0
 40
0.2641275001
 40
0.3936622513
 40
0.5202876905
 40
0.6437853038
 40
0.7643817552
 40
0.8828344245
 40
1.0
 40
1.0
 40
1.0
 40
1.0
 10
14.4976629467
 20
12.8455896245
 30
0.0
 10
14.9447117804
 20
12.8455896245
 30
0.0
 10
15.6166907506
 20
12.940210511
 30
0.0
 10
16.4421947382
 20
13.2538550814
 30
0.0
 10
17.0027514835
 20
13.5739922529
 30
0.0
 10
17.49129188
 20
13.9724351016
 30
0.0
 10
17.8947993368
 20
14.4390926757
 30
0.0
 10
18.202207498
 20
14.9614863664
 30
0.0
 10
18.3390892646
 20
15.3388662017
 30
0.0
 10
18.3894001484
 20
15.53068665
 30
0.0
  0
SPLINE
  5
260
100
AcDbEntity
  8
0
100
AcDbSpline
 62
7
  6
BYLAYER
 70
0
 71
3
 72
15
 73
11
 74
0
 42
0.0000001
 43
0.0000001
 44
0.0000000001
 40
0.0
 40
0.0
 40
0.0
 40
0.0
 40
0.093987755
 40
0.191387627
 40
0.2972735161
 40
0.4148330598
 40
0.5452096545
 40
0.6877885391
 40
0.8405065669
 40
1.0
 40
1.0
 40
1.0
 40
1.0
 10
8.0161554441
 20
82.0805798661
 30
0.0
 10
8.0161554441
 20
82.2231595485
 30
0.0
 10
8.0622503191
 20
82.5155407937
 30
0.0
 10
8.2681422029
 20
82.9236247636
 30
0.0
 10
8.5974095463
 20
83.2884443226
 30
0.0
 10
9.0358520282
 20
83.6035143481
 30
0.0
 10
9.5702346831
 20
83.8643772313
 30
0.0
 10
10.18521927
 20
84.0666922924
 30
0.0
 10
10.8621348178
 20
84.2063330704
 30
0.0
 10
11.3341186045
 20
84.255102553
 30
0.0
 10
11.5756869355
 20
84.2687223947
 30
0.0
  0
SPLINE
  5
261
100
AcDbEntity
  8
0
100
AcDbSpline
 62
7
  6
BYLAYER
 70
0
 71
3
 72
14
 73
10
 74
0
 42
0.0000001
 43
0.0000001
 44
0.0000000001
 40
0.0
 40
0.0
 40
0.0
 40
0.0
 40
0.283407944
 40
0.416560334
 40
0.5433564913
 40
0.6640006872
 40
0.7793559784
 40
0.8908267867
 40
1.0
 40
1.0
 40
1.0
 40
1.0
 10
18.5143072521
 20
27.0324382052
 30
0.0
 10
18.6992845235
 20
26.9710157553
 30
0.0
 10
18.963515562
 20
26.8513277821
 30
0.0
 10
19.2684923842
 20
26.6338617313
 30
0.0
 10
19.4590517488
 20
26.4529840173
 30
0.0
 10
19.6119303966
 20
26.2544260687
 30
0.0
 10
19.7239719123
 20
26.0418729219
 30
0.0
 10
19.7921727527
 20
25.8196696065
 30
0.0
 10
19.8076629467
 20
25.6675231243
 30
0.0
 10
19.8076629467
 20
25.5924413086
 30
0.0
  0
SPLINE
  5
262
100
AcDbEntity
  8
0
100
AcDbSpline
 62
7
  6
BYLAYER
 70
0
 71
3
 72
10
 73
6
 74
0
 42
0.0000001
 43
0.0000001
 44
0.0000000001
 40
0.0
 40
0.0
 40
0.0
 40
0.0
 40
0.5151133951
 40
0.7647035209
 40
1.0
 40
1.0
 40
1.0
 40
1.0
 10
12.0161554441
 20
15.6781223686
 30
0.0
 10
11.9348720873
 20
15.6781223686
 30
0.0
 10
11.8127582391
 20
15.6611652685
 30
0.0
 10
11.6664825297
 20
15.6004270391
 30
0.0
 10
11.6026429741
 20
15.5563519721
 30
0.0
 10
11.5758127673
 20
15.53068665
 30
0.0
  0
SPLINE
  5
263
100
AcDbEntity
  8
0
100
AcDbSpline
 62
7
  6
BYLAYER
 70
0
 71
3
 72
18
 73
14
 74
0
 42
0.0000001
 43
0.0000001
 44
0.0000000001
 40
0.0
 40
0.0
 40
0.0
 40
0.0
 40
0.1284158529
 40
0.2574697272
 40
0.3857234262
 40
0.5121582355
 40
0.6361343288
 40
0.7573890856
 40
0.8171468225
 40
0.8766782377
 40
0.9066055723
 40
0.9369376729
 40
1.0
 40
1.0
 40
1.0
 40
1.0
 10
15.3886258593
 20
17.2824595321
 30
0.0
 10
15.3865765537
 20
17.2001293615
 30
0.0
 10
15.3672667829
 20
17.0353084185
 30
0.0
 10
15.3058594253
 20
16.7951485489
 30
0.0
 10
15.218973206
 20
16.5644554084
 30
0.0
 10
15.1135078269
 20
16.3453892576
 30
0.0
 10
14.9925542829
 20
16.1397289384
 30
0.0
 10
14.8798345904
 20
15.9794882213
 30
0.0
 10
14.780794553
 20
15.8610799346
 30
0.0
 10
14.71359064
 20
15.7927458857
 30
0.0
 10
14.6545438357
 20
15.743331056
 30
0.0
 10
14.5893103585
 20
15.6989989046
 30
0.0
 10
14.5294950521
 20
15.6781223686
 30
0.0
 10
14.4890519122
 20
15.6781223686
 30
0.0
  0
SPLINE
  5
264
100
AcDbEntity
  8
0
100
AcDbSpline
 62
7
  6
BYLAYER
 70
0
 71
3
 72
17
 73
13
 74
0
 42
0.0000001
 43
0.0000001
 44
0.0000000001
 40
0.0
 40
0.0
 40
0.0
 40
0.0
 40
0.1045614279
 40
0.1971718376
 40
0.2817768258
 40
0.3611570404
 40
0.5075581486
 40
0.639413545
 40
0.7563290608
 40
0.8567659527
 40
0.9388212434
 40
1.0
 40
1.0
 40
1.0
 40
1.0
 10
14.4890519122
 20
84.1557067942
 30
0.0
 10
14.5221319939
 20
84.1557067942
 30
0.0
 10
14.584622269
 20
84.143389782
 30
0.0
 10
14.6660139223
 20
84.1065938627
 30
0.0
 10
14.7366437727
 20
84.0664683638
 30
0.0
 10
14.8201827486
 20
84.014849473
 30
0.0
 10
14.9151212921
 20
83.9532940542
 30
0.0
 10
15.0215959607
 20
83.8877155674
 30
0.0
 10
15.1181085779
 20
83.8338938607
 30
0.0
 10
15.2037816538
 20
83.793104011
 30
0.0
 10
15.27632017
 20
83.767009169
 30
0.0
 10
15.3213645516
 20
83.7580852921
 30
0.0
 10
15.3407196648
 20
83.7580843283
 30
0.0
  0
SPLINE
  5
265
100
AcDbEntity
  8
0
100
AcDbSpline
 62
7
  6
BYLAYER
 70
0
 71
3
 72
10
 73
6
 74
0
 42
0.0000001
 43
0.0000001
 44
0.0000000001
 40
0.0
 40
0.0
 40
0.0
 40
0.0
 40
0.2265440918
 40
0.4741067387
 40
1.0
 40
1.0
 40
1.0
 40
1.0
 10
11.5758127612
 20
84.2687403585
 30
0.0
 10
11.6030086142
 20
84.2469853131
 30
0.0
 10
11.6680498636
 20
84.2117140511
 30
0.0
 10
11.8154263611
 20
84.1666785866
 30
0.0
 10
11.9353097818
 20
84.1557067942
 30
0.0
 10
12.0161554441
 20
84.1557067942
 30
0.0
  0
SPLINE
  5
266
100
AcDbEntity
  8
0
100
AcDbSpline
 62
7
  6
BYLAYER
 70
0
 71
3
 72
14
 73
10
 74
0
 42
0.0000001
 43
0.0000001
 44
0.0000000001
 40
0.0
 40
0.0
 40
0.0
 40
0.0
 40
0.2868152497
 40
0.4239454679
 40
0.5539726957
 40
0.6757978941
 40
0.7895042773
 40
0.8966673528
 40
1.0
 40
1.0
 40
1.0
 40
1.0
 10
19.9976629467
 20
12.7089557554
 30
0.0
 10
20.3068475177
 20
12.7089557554
 30
0.0
 10
20.7679109421
 20
12.7711622422
 30
0.0
 10
21.328909153
 20
12.9810274227
 30
0.0
 10
21.694624967
 20
13.190602986
 30
0.0
 10
21.9967919428
 20
13.4474356744
 30
0.0
 10
22.2238560779
 20
13.7429206499
 30
0.0
 10
22.3652481792
 20
14.0665701635
 30
0.0
 10
22.3976629467
 20
14.2946202537
 30
0.0
 10
22.3976629467
 20
14.4060120302
 30
0.0
  0
SPLINE
  5
267
100
AcDbEntity
  8
0
100
AcDbSpline
 62
7
  6
BYLAYER
 70
0
 71
3
 72
14
 73
10
 74
0
 42
0.0000001
 43
0.0000001
 44
0.0000000001
 40
0.0
 40
0.0
 40
0.0
 40
0.0
 40
0.2849526005
 40
0.418899155
 40
0.5461658264
 40
0.6668112114
 40
0.7816168371
 40
0.8920832321
 40
1.0
 40
1.0
 40
1.0
 40
1.0
 10
18.5253293752
 20
17.8666449642
 30
0.0
 10
18.7760550292
 20
17.799981065
 30
0.0
 10
19.1365908432
 20
17.6607816765
 30
0.0
 10
19.5567964669
 20
17.3925514757
 30
0.0
 10
19.8207955871
 20
17.1641693061
 30
0.0
 10
20.0336762264
 20
16.9096568049
 30
0.0
 10
20.1902603422
 20
16.6341888081
 30
0.0
 10
20.2859176541
 20
16.3441858386
 30
0.0
 10
20.3076629467
 20
16.1447532119
 30
0.0
 10
20.3076629467
 20
16.0464997626
 30
0.0
  0
SPLINE
  5
268
100
AcDbEntity
  8
0
100
AcDbSpline
 62
7
  6
BYLAYER
 70
0
 71
3
 72
15
 73
11
 74
0
 42
0.0000001
 43
0.0000001
 44
0.0000000001
 40
0.0
 40
0.0
 40
0.0
 40
0.0
 40
0.136114916
 40
0.2703986223
 40
0.4018028609
 40
0.5295626797
 40
0.653171895
 40
0.7724686918
 40
0.8877943994
 40
1.0
 40
1.0
 40
1.0
 40
1.0
 10
11.5756868731
 20
15.5306551772
 30
0.0
 10
11.3321678128
 20
15.5062391346
 30
0.0
 10
10.8514896356
 20
15.4171128542
 30
0.0
 10
10.1698798702
 20
15.1680681347
 30
0.0
 10
9.5524330352
 20
14.8158226396
 30
0.0
 10
9.0185851189
 20
14.3760229415
 30
0.0
 10
8.5840979872
 20
13.8659192431
 30
0.0
 10
8.2617374968
 20
13.3036879152
 30
0.0
 10
8.0623630954
 20
12.7084735961
 30
0.0
 10
8.0161554441
 20
12.2981451669
 30
0.0
 10
8.0161554441
 20
12.0963950472
 30
0.0
  0
SPLINE
  5
269
100
AcDbEntity
  8
0
100
AcDbSpline
 62
7
  6
BYLAYER
 70
0
 71
3
 72
9
 73
5
 74
0
 42
0.0000001
 43
0.0000001
 44
0.0000000001
 40
0.0
 40
0.0
 40
0.0
 40
0.0
 40
0.5336309821
 40
1.0
 40
1.0
 40
1.0
 40
1.0
 10
13.6959385525
 20
12.658015039
 30
0.0
 10
13.5668380925
 20
12.658015039
 30
0.0
 10
13.3243015896
 20
12.6836250372
 30
0.0
 10
13.0916489784
 20
12.7568753966
 30
0.0
 10
12.9888232151
 20
12.8033188448
 30
0.0
  0
SPLINE
  5
26A
100
AcDbEntity
  8
0
100
AcDbSpline
 62
7
  6
BYLAYER
 70
0
 71
3
 72
11
 73
7
 74
0
 42
0.0000001
 43
0.0000001
 44
0.0000000001
 40
0.0
 40
0.0
 40
0.0
 40
0.0
 40
0.2904380503
 40
0.5568811756
 40
0.7898729388
 40
1.0
 40
1.0
 40
1.0
 40
1.0
 10
19.9976629467
 20
12.3233000248
 30
0.0
 10
20.007517755
 20
12.3233000248
 30
0.0
 10
20.0265306887
 20
12.3205488212
 30
0.0
 10
20.0511613388
 20
12.3087928053
 30
0.0
 10
20.0679982766
 20
12.2905897136
 30
0.0
 10
20.0721708933
 20
12.2753661058
 30
0.0
 10
20.0721708933
 20
12.2682363172
 30
0.0
  0
ENDSEC
  0
SECTION
  2
OBJECTS
  0
DICTIONARY
  5
C
100
AcDbDictionary
280
0
281
1
  3
ACAD_GROUP
350
D
  3
ACAD_MLINESTYLE
350
17
  3
ACAD_LAYOUT
350
1A
  3
ACAD_PLOTSETTINGS
350
19
  3
ACAD_PLOTSTYLENAME
350
E
  0
DICTIONARY
  5
D
102
{ACAD_REACTORS
330
C
102
}
100
AcDbDictionary
280
0
281
1
  0
ACDBDICTIONARYWDFLT
  5
E
102
{ACAD_REACTORS
330
C
102
}
100
AcDbDictionary
281
1
  3
Normal
350
F
100
AcDbDictionaryWithDefault
340
F
  0
DICTIONARY
  5
17
102
{ACAD_REACTORS
330
C
102
}
100
AcDbDictionary
280
0
281
1
  3
Standard
350
18
  0
DICTIONARY
  5
19
102
{ACAD_REACTORS
330
C
102
}
100
AcDbDictionary
281
1
  0
DICTIONARY
  5
1A
102
{ACAD_REACTORS
330
C
102
}
100
AcDbDictionary
281
1
  3
Model
350
26B
  3
Layout1
350
26C
  0
ACDBPLACEHOLDER
  5
F
102
{ACAD_REACTORS
330
E
102
}
  0
MLINESTYLE
  5
18
102
{ACAD_REACTORS
330
17
102
}
100
AcDbMlineStyle
  2
STANDARD
 70
0
  3

 62
256
 51
90.0
 52
90.0
 71
2
 49
0.5
 62
256
  6
BYLAYER
 49
-0.5
 62
256
  6
BYLAYER
  0
LAYOUT
  5
26B
102
{ACAD_REACTORS
330
1A
102
}
100
AcDbPlotSettings
  1

  2
none_device
  4

  6

 40
0.0
 41
0.0
 42
0.0
 43
0.0
 44
210.0
 45
297.0
 46
0.0
 47
0.0
 48
0.0
 49
0.0
140
0.0
141
0.0
142
1.0
143
1.0
 70
1024
 72
1
 73
0
 74
0
  7

 75
0
147
1.0
148
0.0
149
0.0
100
AcDbLayout
  1
Model
 70
0
 71
0
 10
0.0
 20
0.0
 11
210.0
 21
297.0
 12
0.0
 22
0.0
 32
0.0
 14
0.0
 24
0.0
 34
0.0
 15
0.0
 25
0.0
 35
0.0
146
0.0
 13
0.0
 23
0.0
 33
0.0
 16
1.0
 26
0.0
 36
0.0
 17
0.0
 27
1.0
 37
0.0
 76
0
330
210
345
0
346
0
  0
LAYOUT
  5
26C
102
{ACAD_REACTORS
330
1A
102
}
100
AcDbPlotSettings
  1

  2
none_device
  4

  6

 40
0.0
 41
0.0
 42
0.0
 43
0.0
 44
210.0
 45
297.0
 46
0.0
 47
0.0
 48
0.0
 49
0.0
140
0.0
141
0.0
142
1.0
143
1.0
 70
0
 72
1
 73
0
 74
0
  7

 75
0
147
1.0
148
0.0
149
0.0
100
AcDbLayout
  1
Layout1
 70
0
 71
1
 10
0.0
 20
0.0
 11
210.0
 21
297.0
 12
0.0
 22
0.0
 32
0.0
 14
0.0
 24
0.0
 34
0.0
 15
0.0
 25
0.0
 35
0.0
146
0.0
 13
0.0
 23
0.0
 33
0.0
 16
1.0
 26
0.0
 36
0.0
 17
0.0
 27
1.0
 37
0.0
 76
0
330
211
345
0
346
0
  0
ENDSEC
  0
EOF
