999
DXF file: C:\Users\sesa63760\Dev\_Creo\CAD\MCADID0004335_3D-CAD\drw0001_4.dxf
999
Pro/ENGINEER 2019471 by Parametric Technology Corporation
  0
SECTION
  2
HEADER
  9
$ACADVER
  1
AC1024
  9
$DWGCODEPAGE
  3
ANSI_1252
  9
$EXTMAX
 10
88.7345092053
 20
125.4959487333
 30
0.0
  9
$EXTMIN
 10
0.0
 20
0.0
 30
0.0
  9
$LIMMIN
 10
0.0
 20
0.0
  9
$LIMMAX
 10
88.7345092053
 20
125.4959487333
  9
$VIEWCTR
 10
44.3672546027
 20
62.7479743666
  9
$VIEWSIZE
 40
125.4959487333
  9
$CLAYER
  8
0
  9
$LTSCALE
 40
8.1804766582
  9
$CELTYPE
  6
BYLAYER
  9
$DIMSCALE
 40
1.0
  9
$DIMASZ
 40
1.0563632048
  9
$DIMEXO
 40
1.0
  9
$DIMDLI
 40
5.6519656911
  9
$DIMEXE
 40
1.0
  9
$DIMCEN
 40
1.3386234532
  9
$DIMLFAC
 40
1.0
  9
$DIMBLK
  1
_FILLED
  9
$DIMALT
 70
0
  9
$DIMALTF
 40
0.0393700787
  9
$DIMTXT
 40
1.4789084868
  9
$DIMTOL
 70
1
  9
$DIMLIM
 70
0
  9
$DIMTFAC
 40
1.0
  9
$DIMTP
 40
0.01
  9
$DIMTM
 40
0.01
  9
$DIMGAP
 40
0.625
  9
$DIMDSEP
 70
46
  9
$AUNITS
 70
0
  9
$PDMODE
 70
3
  9
$PDSIZE
 40
0.3125
  9
$HANDSEED
  5
2C0
  9
$TILEMODE
 70
1
  9
$MEASUREMENT
 70
1
  9
$INSUNITS
 70
4
  0
ENDSEC
  0
SECTION
  2
CLASSES
  0
CLASS
  1
ACDBDICTIONARYWDFLT
  2
AcDbDictionaryWithDefault
  3
AutoCAD 2000
 90
0
 91
1
280
0
281
0
  0
CLASS
  1
ACDBPLACEHOLDER
  2
AcDbPlaceHolder
  3
AutoCAD 2000
 90
0
 91
1
280
0
281
0
  0
CLASS
  1
LAYOUT
  2
AcDbLayout
  3
AutoCAD 2000
 90
0
 91
0
280
0
281
0
  0
ENDSEC
  0
SECTION
  2
TABLES
  0
TABLE
  2
VPORT
  5
8
100
AcDbSymbolTable
 70
2
  0
VPORT
  5
1F4
100
AcDbSymbolTableRecord
100
AcDbViewportTableRecord
  2
*ACTIVE
 70
0
 10
0.0
 20
0.0
 11
1.0
 21
1.0
 12
44.3672546027
 22
62.7479743666
 13
0.0
 23
0.0
 14
1.0
 24
1.0
 15
0.0
 25
0.0
 16
0.0
 26
0.0
 36
1.0
 17
0.0
 27
0.0
 37
0.0
 40
125.4959487333
 41
0.7070707071
 42
50.0
 43
0.0
 44
0.0
 50
0.0
 51
0.0
 71
0
 72
100
 73
1
 74
1
 75
0
 76
0
 77
0
 78
0
  0
ENDTAB
  0
TABLE
  2
LTYPE
  5
5
100
AcDbSymbolTable
 70
6
  0
LTYPE
  5
14
100
AcDbSymbolTableRecord
100
AcDbLinetypeTableRecord
  2
BYBLOCK
 70
0
  3

 72
65
 73
0
 40
0.0
  0
LTYPE
  5
15
100
AcDbSymbolTableRecord
100
AcDbLinetypeTableRecord
  2
BYLAYER
 70
0
  3

 72
65
 73
0
 40
0.0
  0
LTYPE
  5
16
100
AcDbSymbolTableRecord
100
AcDbLinetypeTableRecord
  2
CONTINUOUS
 70
64
  3
Solid line
 72
65
 73
0
 40
0.0
  0
LTYPE
  5
1F5
100
AcDbSymbolTableRecord
100
AcDbLinetypeTableRecord
  2
CENTER
 70
64
  3
____ _ ____ _ ____ _ ____ _ ____ _ ____ _ ____
 72
65
 73
4
 40
0.6
 49
0.375
 74
0
 49
-0.075
 74
0
 49
0.075
 74
0
 49
-0.075
 74
0
  0
LTYPE
  5
1F6
100
AcDbSymbolTableRecord
100
AcDbLinetypeTableRecord
  2
HIDDEN
 70
64
  3
- - - - - - - - - - - - - - - - - - - -
 72
65
 73
2
 40
0.2
 49
0.1
 74
0
 49
-0.1
 74
0
  0
LTYPE
  5
1F7
100
AcDbSymbolTableRecord
100
AcDbLinetypeTableRecord
  2
PHANTOM
 70
64
  3
_____ _ _ _____ _ _ _____ _ _ _____
 72
65
 73
6
 40
0.8
 49
0.45
 74
0
 49
-0.05
 74
0
 49
0.1
 74
0
 49
-0.05
 74
0
 49
0.1
 74
0
 49
-0.05
 74
0
  0
LTYPE
  5
1F8
100
AcDbSymbolTableRecord
100
AcDbLinetypeTableRecord
  2
DOT
 70
64
  3
. . . . . . . . . . . . . . . . . . . .
 72
65
 73
2
 40
0.2
 49
0.1
 74
0
 49
-0.1
 74
0
  0
LTYPE
  5
1F9
100
AcDbSymbolTableRecord
100
AcDbLinetypeTableRecord
  2
DASHED
 70
64
  3
- - - - - - - - - - - - - - - - - - - -
 72
65
 73
2
 40
0.2
 49
0.1
 74
0
 49
-0.1
 74
0
  0
ENDTAB
  0
TABLE
  2
LAYER
  5
2
100
AcDbSymbolTable
 70
36
  0
LAYER
  5
10
100
AcDbSymbolTableRecord
100
AcDbLayerTableRecord
  2
0
 70
0
 62
7
  6
CONTINUOUS
370
-3
390
F
  0
LAYER
  5
1FA
100
AcDbSymbolTableRecord
100
AcDbLayerTableRecord
  2
DEFAULT_1
 70
0
 62
7
  6
CENTER
370
-3
390
F
  0
LAYER
  5
1FB
100
AcDbSymbolTableRecord
100
AcDbLayerTableRecord
  2
DEFAULT_2
 70
0
 62
7
  6
HIDDEN
370
-3
390
F
  0
LAYER
  5
1FC
100
AcDbSymbolTableRecord
100
AcDbLayerTableRecord
  2
DEFAULT_3
 70
0
 62
7
  6
PHANTOM
370
-3
390
F
  0
LAYER
  5
1FD
100
AcDbSymbolTableRecord
100
AcDbLayerTableRecord
  2
00_COMPONENTS
 70
0
 62
7
  6
CONTINUOUS
370
-3
390
F
  0
LAYER
  5
1FE
100
AcDbSymbolTableRecord
100
AcDbLayerTableRecord
  2
01_1_DEFAULT_DATUMS
 70
0
 62
7
  6
CONTINUOUS
370
-3
390
F
  0
LAYER
  5
1FF
100
AcDbSymbolTableRecord
100
AcDbLayerTableRecord
  2
01_PLANES
 70
0
 62
7
  6
CONTINUOUS
370
-3
390
F
  0
LAYER
  5
200
100
AcDbSymbolTableRecord
100
AcDbLayerTableRecord
  2
02_COORD_SYS
 70
0
 62
7
  6
CONTINUOUS
370
-3
390
F
  0
LAYER
  5
201
100
AcDbSymbolTableRecord
100
AcDbLayerTableRecord
  2
03_AXES
 70
0
 62
7
  6
CONTINUOUS
370
-3
390
F
  0
LAYER
  5
202
100
AcDbSymbolTableRecord
100
AcDbLayerTableRecord
  2
04_POINTS
 70
0
 62
7
  6
CONTINUOUS
370
-3
390
F
  0
LAYER
  5
203
100
AcDbSymbolTableRecord
100
AcDbLayerTableRecord
  2
05_CURVES
 70
0
 62
7
  6
CONTINUOUS
370
-3
390
F
  0
LAYER
  5
204
100
AcDbSymbolTableRecord
100
AcDbLayerTableRecord
  2
06_SURFS
 70
0
 62
7
  6
CONTINUOUS
370
-3
390
F
  0
LAYER
  5
205
100
AcDbSymbolTableRecord
100
AcDbLayerTableRecord
  2
07_COSMETICS
 70
0
 62
7
  6
CONTINUOUS
370
-3
390
F
  0
LAYER
  5
206
100
AcDbSymbolTableRecord
100
AcDbLayerTableRecord
  2
10_NOTES
 70
0
 62
7
  6
CONTINUOUS
370
-3
390
F
  0
LAYER
  5
207
100
AcDbSymbolTableRecord
100
AcDbLayerTableRecord
  2
11_NOTES_PUB
 70
0
 62
7
  6
CONTINUOUS
370
-3
390
F
  0
LAYER
  5
208
100
AcDbSymbolTableRecord
100
AcDbLayerTableRecord
  2
13_REF_GTOL
 70
0
 62
7
  6
CONTINUOUS
370
-3
390
F
  0
LAYER
  5
209
100
AcDbSymbolTableRecord
100
AcDbLayerTableRecord
  2
16_MISC
 70
0
 62
7
  6
CONTINUOUS
370
-3
390
F
  0
LAYER
  5
20A
100
AcDbSymbolTableRecord
100
AcDbLayerTableRecord
  2
17_NO_PRINT
 70
0
 62
7
  6
CONTINUOUS
370
-3
390
F
  0
LAYER
  5
20B
100
AcDbSymbolTableRecord
100
AcDbLayerTableRecord
  2
18_DATUM_CAMS_JOINTS
 70
0
 62
7
  6
CONTINUOUS
370
-3
390
F
  0
LAYER
  5
20C
100
AcDbSymbolTableRecord
100
AcDbLayerTableRecord
  2
19_DATUM_FUNCTIONAL
 70
0
 62
7
  6
CONTINUOUS
370
-3
390
F
  0
LAYER
  5
20D
100
AcDbSymbolTableRecord
100
AcDbLayerTableRecord
  2
20_DATUM_KINEMATIC_SCHEME
 70
0
 62
7
  6
CONTINUOUS
370
-3
390
F
  0
ENDTAB
  0
TABLE
  2
STYLE
  5
3
100
AcDbSymbolTable
 70
1
  0
STYLE
  5
11
100
AcDbSymbolTableRecord
100
AcDbTextStyleTableRecord
  2
STANDARD
 70
0
 40
0.0
 41
1.0
 50
0.0
 71
0
 42
0.2
  3
ARIAL.TTF
  4

  0
STYLE
  5
20E
100
AcDbSymbolTableRecord
100
AcDbTextStyleTableRecord
  2
TEXTSTYLE_1
 70
0
 40
0.0
 41
0.8
 50
0.0
 71
0
 42
0.2
  3
gdt
  4

  0
ENDTAB
  0
TABLE
  2
VIEW
  5
6
100
AcDbSymbolTable
 70
0
  0
ENDTAB
  0
TABLE
  2
UCS
  5
7
100
AcDbSymbolTable
 70
0
  0
ENDTAB
  0
TABLE
  2
APPID
  5
9
100
AcDbSymbolTable
 70
1
  0
APPID
  5
20F
100
AcDbSymbolTableRecord
100
AcDbRegAppTableRecord
  2
ACAD
 70
0
  0
ENDTAB
  0
TABLE
  2
BLOCK_RECORD
  5
1
100
AcDbSymbolTable
 70
0
  0
BLOCK_RECORD
  5
210
100
AcDbSymbolTableRecord
100
AcDbBlockTableRecord
  2
*Model_Space
  0
BLOCK_RECORD
  5
211
100
AcDbSymbolTableRecord
100
AcDbBlockTableRecord
  2
*Paper_Space
  0
BLOCK_RECORD
  5
212
100
AcDbSymbolTableRecord
100
AcDbBlockTableRecord
  2
_FILLED
  0
ENDTAB
  0
TABLE
  2
DIMSTYLE
  5
A
100
AcDbSymbolTable
 70
1
100
AcDbDimStyleTable
 71
0
  0
DIMSTYLE
105
213
100
AcDbSymbolTableRecord
100
AcDbDimStyleTableRecord
  2
STANDARD
 70
0
  3

  4

 40
1.0
 41
1.0563632048
 42
1.0
 43
0.38
 44
1.0
 45
0.0
 46
0.0
 47
0.01
 48
0.01
140
1.4789084868
141
0.09
142
0.0
143
25.4
144
1.0
145
0.0
146
1.0
147
0.625
 71
1
 72
0
 73
0
 74
0
 75
0
 76
0
 77
1
 78
8
 79
2
170
0
171
1
172
0
173
0
174
0
175
0
176
0
177
0
178
0
270
2
179
2
271
2
272
2
273
2
274
2
275
0
280
0
281
0
282
0
283
1
284
8
285
0
286
0
287
3
288
0
340
11
278
46
341
212
342
212
343
212
344
212
  0
ENDTAB
  0
ENDSEC
  0
SECTION
  2
BLOCKS
  0
BLOCK
  5
20
100
AcDbEntity
  8
0
100
AcDbBlockBegin
  2
*Model_Space
 70
0
 10
0.0
 20
0.0
 30
0.0
  3
*Model_Space
  1

  0
ENDBLK
  5
21
100
AcDbEntity
  8
0
100
AcDbBlockEnd
  0
BLOCK
  5
1C
100
AcDbEntity
  8
0
100
AcDbBlockBegin
  2
*Paper_Space
 70
0
 10
0.0
 20
0.0
 30
0.0
  3
*Paper_Space
  1

  0
ENDBLK
  5
1D
100
AcDbEntity
  8
0
100
AcDbBlockEnd
  0
BLOCK
  5
214
100
AcDbEntity
  8
0
100
AcDbBlockBegin
  2
_FILLED
 70
64
 10
0.0
 20
0.0
  3
_FILLED
  1

  0
SOLID
  5
215
100
AcDbEntity
  8
0
  6
BYBLOCK
 62
0
100
AcDbTrace
 10
0.0
 20
0.0
 11
-1.0
 21
0.25
 12
-1.0
 22
-0.25
 13
-1.0
 23
-0.25
  0
ENDBLK
  5
216
100
AcDbEntity
  8
0
  6
BYBLOCK
 62
0
100
AcDbBlockEnd
  0
ENDSEC
  0
SECTION
  2
ENTITIES
  0
LINE
  5
217
100
AcDbEntity
  8
0
100
AcDbLine
 62
7
  6
BYLAYER
 10
12.2180152806
 20
111.3599641532
 11
12.4916419754
 21
111.5370167204
  0
LINE
  5
218
100
AcDbEntity
  8
0
100
AcDbLine
 62
7
  6
BYLAYER
 10
20.6118549808
 20
11.0915151554
 11
21.0144103006
 21
10.6889598356
  0
LINE
  5
219
100
AcDbEntity
  8
0
100
AcDbLine
 62
7
  6
BYLAYER
 10
17.9118862593
 20
105.0589598356
 11
22.0168466732
 21
107.4289598356
  0
LINE
  5
21A
100
AcDbEntity
  8
0
100
AcDbLine
 62
7
  6
BYLAYER
 10
42.0192830457
 20
10.6889598356
 11
21.0144103006
 21
10.6889598356
  0
LINE
  5
21B
100
AcDbEntity
  8
0
100
AcDbLine
 62
7
  6
BYLAYER
 10
42.4179095452
 20
11.2040218493
 11
34.2992509327
 21
11.2040218493
  0
LINE
  5
21C
100
AcDbEntity
  8
0
100
AcDbLine
 62
7
  6
BYLAYER
 10
28.7344424137
 20
11.2040218493
 11
20.6157838011
 21
11.2040218493
  0
LINE
  5
21D
100
AcDbEntity
  8
0
100
AcDbLine
 62
7
  6
BYLAYER
 10
26.1218070871
 20
99.3189598356
 11
22.0168466732
 21
96.9489598356
  0
LINE
  5
21E
100
AcDbEntity
  8
0
100
AcDbLine
 62
7
  6
BYLAYER
 10
19.6468466732
 20
24.5839994217
 11
17.2768466732
 21
28.6889598356
  0
LINE
  5
21F
100
AcDbEntity
  8
0
100
AcDbLine
 62
7
  6
BYLAYER
 10
16.5158129989
 20
22.6889598356
 11
37.8158129989
 21
22.6889598356
  0
LINE
  5
220
100
AcDbEntity
  8
0
100
AcDbLine
 62
7
  6
BYLAYER
 10
38.6146080535
 20
22.6929598356
 11
80.9040344214
 21
22.6929598356
  0
LINE
  5
221
100
AcDbEntity
  8
0
100
AcDbLine
 62
7
  6
BYLAYER
 10
38.5006113238
 20
23.1867339199
 11
78.8766873082
 21
23.1867339199
  0
LINE
  5
222
100
AcDbEntity
  8
0
100
AcDbLine
 62
7
  6
BYLAYER
 10
37.5832402632
 20
23.6963430294
 11
37.7584251481
 21
23.6963430294
  0
LINE
  5
223
100
AcDbEntity
  8
0
100
AcDbLine
 62
7
  6
BYLAYER
 10
19.6468466732
 20
24.5839994217
 11
24.3868466732
 21
24.5839994217
  0
LINE
  5
224
100
AcDbEntity
  8
0
100
AcDbLine
 62
7
  6
BYLAYER
 10
69.6468466732
 20
24.5839994217
 11
74.3868466732
 21
24.5839994217
  0
LINE
  5
225
100
AcDbEntity
  8
0
100
AcDbLine
 62
7
  6
BYLAYER
 10
49.6829127985
 20
24.5845594142
 11
54.4150450491
 21
24.5845594142
  0
LINE
  5
226
100
AcDbEntity
  8
0
100
AcDbLine
 62
7
  6
BYLAYER
 10
56.6845370469
 20
24.5845594142
 11
64.410467252
 21
24.5845594142
  0
LINE
  5
227
100
AcDbEntity
  8
0
100
AcDbLine
 62
7
  6
BYLAYER
 10
37.6168466732
 20
22.6889598356
 11
42.0385474702
 21
22.0675303148
  0
LINE
  5
228
100
AcDbEntity
  8
0
100
AcDbLine
 62
7
  6
BYLAYER
 10
10.6393924613
 20
104.9460344777
 11
10.6393924613
 21
110.1318851936
  0
LINE
  5
229
100
AcDbEntity
  8
0
100
AcDbLine
 62
7
  6
BYLAYER
 10
11.1383587871
 20
104.7670221129
 11
11.1383587871
 21
110.3108975583
  0
LINE
  5
22A
100
AcDbEntity
  8
0
100
AcDbLine
 62
7
  6
BYLAYER
 10
11.1868466732
 20
104.7383101363
 11
11.1868466732
 21
104.7670221129
  0
LINE
  5
22B
100
AcDbEntity
  8
0
100
AcDbLine
 62
7
  6
BYLAYER
 10
11.1868466732
 20
110.3108975583
 11
11.1868466732
 21
110.339609535
  0
LINE
  5
22C
100
AcDbEntity
  8
0
100
AcDbLine
 62
7
  6
BYLAYER
 10
11.461517948
 20
102.5234314811
 11
11.6062911122
 21
111.0650481687
  0
LINE
  5
22D
100
AcDbEntity
  8
0
100
AcDbLine
 62
7
  6
BYLAYER
 10
76.0213222244
 20
111.4243469049
 11
76.327140295
 21
111.5370167204
  0
LINE
  5
22E
100
AcDbEntity
  8
0
100
AcDbLine
 62
7
  6
BYLAYER
 10
59.0168466732
 20
25.9389598356
 11
62.5168466732
 21
25.9389598356
  0
LINE
  5
22F
100
AcDbEntity
  8
0
100
AcDbLine
 62
7
  6
BYLAYER
 10
24.3868466732
 20
32.7939202496
 11
26.7568466732
 21
28.6889598356
  0
LINE
  5
230
100
AcDbEntity
  8
0
100
AcDbLine
 62
7
  6
BYLAYER
 10
11.461517948
 20
102.5234314811
 11
13.0549910528
 21
64.9882872346
  0
LINE
  5
231
100
AcDbEntity
  8
0
100
AcDbLine
 62
7
  6
BYLAYER
 10
12.6682620767
 20
74.0979031162
 11
12.6682620767
 21
110.2761388183
  0
LINE
  5
232
100
AcDbEntity
  8
0
100
AcDbLine
 62
7
  6
BYLAYER
 10
13.5500210456
 20
62.1757425271
 11
13.5500210456
 21
110.1264711573
  0
LINE
  5
233
100
AcDbEntity
  8
0
100
AcDbLine
 62
7
  6
BYLAYER
 10
15.5176313057
 20
50.9966384236
 11
15.5176313057
 21
48.9086949953
  0
LINE
  5
234
100
AcDbEntity
  8
0
100
AcDbLine
 62
7
  6
BYLAYER
 10
16.0168466732
 20
44.4879261614
 11
16.0168466732
 21
23.1834739472
  0
LINE
  5
235
100
AcDbEntity
  8
0
100
AcDbLine
 62
7
  6
BYLAYER
 10
62.5168466732
 20
31.4389598356
 11
59.0168466732
 21
31.4389598356
  0
LINE
  5
236
100
AcDbEntity
  8
0
100
AcDbLine
 62
7
  6
BYLAYER
 10
64.410467252
 20
32.7933602571
 11
56.6845370469
 21
32.7933602571
  0
LINE
  5
237
100
AcDbEntity
  8
0
100
AcDbLine
 62
7
  6
BYLAYER
 10
54.4150450491
 20
32.7933602571
 11
49.6829127985
 21
32.7933602571
  0
LINE
  5
238
100
AcDbEntity
  8
0
100
AcDbLine
 62
7
  6
BYLAYER
 10
74.3868466732
 20
32.7939202496
 11
69.6468466732
 21
32.7939202496
  0
LINE
  5
239
100
AcDbEntity
  8
0
100
AcDbLine
 62
7
  6
BYLAYER
 10
24.3868466732
 20
32.7939202496
 11
19.6468466732
 21
32.7939202496
  0
LINE
  5
23A
100
AcDbEntity
  8
0
100
AcDbLine
 62
7
  6
BYLAYER
 10
81.1558466732
 20
31.1229598356
 11
75.8928057627
 21
31.3967270043
  0
LINE
  5
23B
100
AcDbEntity
  8
0
100
AcDbLine
 62
7
  6
BYLAYER
 10
76.3917720885
 20
31.5898752594
 11
79.6911390718
 21
31.4128360554
  0
LINE
  5
23C
100
AcDbEntity
  8
0
100
AcDbLine
 62
7
  6
BYLAYER
 10
22.4994673305
 20
43.7910972867
 11
37.1188755565
 21
29.1716890608
  0
LINE
  5
23D
100
AcDbEntity
  8
0
100
AcDbLine
 62
7
  6
BYLAYER
 10
15.5176313057
 20
50.9966384236
 11
13.0549910528
 21
64.9882872346
  0
LINE
  5
23E
100
AcDbEntity
  8
0
100
AcDbLine
 62
7
  6
BYLAYER
 10
15.5176313057
 20
48.9086949953
 11
15.9542958659
 21
45.3021691834
  0
LINE
  5
23F
100
AcDbEntity
  8
0
100
AcDbLine
 62
7
  6
BYLAYER
 10
17.2401189557
 20
94.2342926724
 11
17.2401189557
 21
110.1264711573
  0
LINE
  5
240
100
AcDbEntity
  8
0
100
AcDbLine
 62
7
  6
BYLAYER
 10
17.9118862593
 20
105.0589598356
 11
17.9118862593
 21
99.3189598356
  0
LINE
  5
241
100
AcDbEntity
  8
0
100
AcDbLine
 62
7
  6
BYLAYER
 10
19.2668466732
 20
101.1889598356
 11
19.2668466732
 21
102.6889598356
  0
LINE
  5
242
100
AcDbEntity
  8
0
100
AcDbLine
 62
7
  6
BYLAYER
 10
55.2218340953
 20
112.9060623578
 11
53.9555563911
 21
111.4908108061
  0
LINE
  5
243
100
AcDbEntity
  8
0
100
AcDbLine
 62
7
  6
BYLAYER
 10
24.7668466732
 20
102.6889598356
 11
24.7668466732
 21
101.1889598356
  0
LINE
  5
244
100
AcDbEntity
  8
0
100
AcDbLine
 62
7
  6
BYLAYER
 10
20.6118549808
 20
11.0915151554
 11
21.0168466732
 21
22.6889598356
  0
LINE
  5
245
100
AcDbEntity
  8
0
100
AcDbLine
 62
7
  6
BYLAYER
 10
23.5398501839
 20
42.751103949
 11
16.0168466732
 21
44.4879261614
  0
LINE
  5
246
100
AcDbEntity
  8
0
100
AcDbLine
 62
7
  6
BYLAYER
 10
15.9542958659
 20
45.3021691834
 11
22.4994673305
 21
43.7910972867
  0
LINE
  5
247
100
AcDbEntity
  8
0
100
AcDbLine
 62
7
  6
BYLAYER
 10
17.2401189557
 20
94.2342926724
 11
19.2681756345
 21
85.4621427521
  0
LINE
  5
248
100
AcDbEntity
  8
0
100
AcDbLine
 62
7
  6
BYLAYER
 10
26.1218070871
 20
99.3189598356
 11
26.1218070871
 21
105.0589598356
  0
LINE
  5
249
100
AcDbEntity
  8
0
100
AcDbLine
 62
7
  6
BYLAYER
 10
74.105935361
 20
109.9435436156
 11
76.0213222244
 21
111.4243469049
  0
LINE
  5
24A
100
AcDbEntity
  8
0
100
AcDbLine
 62
7
  6
BYLAYER
 10
37.8158129989
 20
22.6889598356
 11
36.0789907866
 21
30.2119633463
  0
LINE
  5
24B
100
AcDbEntity
  8
0
100
AcDbLine
 62
7
  6
BYLAYER
 10
31.162639971
 20
110.4747013172
 11
31.162639971
 21
111.0758954154
  0
LINE
  5
24C
100
AcDbEntity
  8
0
100
AcDbLine
 62
7
  6
BYLAYER
 10
31.2161969738
 20
111.7589598356
 11
31.2161969738
 21
111.2469680583
  0
LINE
  5
24D
100
AcDbEntity
  8
0
100
AcDbLine
 62
7
  6
BYLAYER
 10
31.2449089505
 20
111.8074477217
 11
31.2449089505
 21
111.7589598356
  0
LINE
  5
24E
100
AcDbEntity
  8
0
100
AcDbLine
 62
7
  6
BYLAYER
 10
49.6829127985
 20
24.5845594142
 11
47.3168466732
 21
28.6889598356
  0
LINE
  5
24F
100
AcDbEntity
  8
0
100
AcDbLine
 62
7
  6
BYLAYER
 10
37.1188755565
 20
29.1716890608
 11
38.5006113238
 21
23.1867339199
  0
LINE
  5
250
100
AcDbEntity
  8
0
100
AcDbLine
 62
7
  6
BYLAYER
 10
38.6146080535
 20
22.6929598356
 11
38.5016226993
 21
23.1823531713
  0
LINE
  5
251
100
AcDbEntity
  8
0
100
AcDbLine
 62
7
  6
BYLAYER
 10
36.7887843959
 20
111.7589598356
 11
36.7887843959
 21
111.8074477217
  0
LINE
  5
252
100
AcDbEntity
  8
0
100
AcDbLine
 62
7
  6
BYLAYER
 10
36.8174963725
 20
111.4032556633
 11
36.8174963725
 21
111.7589598356
  0
LINE
  5
253
100
AcDbEntity
  8
0
100
AcDbLine
 62
7
  6
BYLAYER
 10
79.8366143259
 20
110.2415193844
 11
80.9854727848
 21
111.3995787868
  0
LINE
  5
254
100
AcDbEntity
  8
0
100
AcDbLine
 62
7
  6
BYLAYER
 10
79.8366143259
 20
110.2415193844
 11
80.3390068198
 21
110.7480694927
  0
LINE
  5
255
100
AcDbEntity
  8
0
100
AcDbLine
 62
7
  6
BYLAYER
 10
56.6845370469
 20
24.5845594142
 11
55.9763267781
 21
25.8078316966
  0
LINE
  5
256
100
AcDbEntity
  8
0
100
AcDbLine
 62
7
  6
BYLAYER
 10
42.4218383656
 20
11.0915151554
 11
42.0385474702
 21
22.0675303148
  0
LINE
  5
257
100
AcDbEntity
  8
0
100
AcDbLine
 62
7
  6
BYLAYER
 10
17.2768466732
 20
28.6889598356
 11
19.6468466732
 21
32.7939202496
  0
LINE
  5
258
100
AcDbEntity
  8
0
100
AcDbLine
 62
7
  6
BYLAYER
 10
54.4150450491
 20
32.7933602571
 11
55.10715963
 21
31.5700879746
  0
LINE
  5
259
100
AcDbEntity
  8
0
100
AcDbLine
 62
7
  6
BYLAYER
 10
37.7584251481
 20
23.6963430294
 11
37.6921353484
 21
23.2246665953
  0
LINE
  5
25A
100
AcDbEntity
  8
0
100
AcDbLine
 62
7
  6
BYLAYER
 10
26.7568466732
 20
28.6889598356
 11
24.3868466732
 21
24.5839994217
  0
LINE
  5
25B
100
AcDbEntity
  8
0
100
AcDbLine
 62
7
  6
BYLAYER
 10
69.6468466732
 20
24.5839994217
 11
67.2768466732
 21
28.6889598356
  0
LINE
  5
25C
100
AcDbEntity
  8
0
100
AcDbLine
 62
7
  6
BYLAYER
 10
64.410467252
 20
32.7933602571
 11
66.7765333773
 21
28.6889598356
  0
LINE
  5
25D
100
AcDbEntity
  8
0
100
AcDbLine
 62
7
  6
BYLAYER
 10
55.2218340953
 20
112.9060623578
 11
55.2218340953
 21
111.497279982
  0
LINE
  5
25E
100
AcDbEntity
  8
0
100
AcDbLine
 62
7
  6
BYLAYER
 10
57.7556545613
 20
111.4197535265
 11
57.7556545613
 21
114.0389598356
  0
LINE
  5
25F
100
AcDbEntity
  8
0
100
AcDbLine
 62
7
  6
BYLAYER
 10
71.4470971437
 20
108.5206000886
 11
71.5467209806
 21
108.8651325244
  0
LINE
  5
260
100
AcDbEntity
  8
0
100
AcDbLine
 62
7
  6
BYLAYER
 10
11.6735007599
 20
111.2492786994
 11
12.6680388
 21
110.2763986906
  0
LINE
  5
261
100
AcDbEntity
  8
0
100
AcDbLine
 62
7
  6
BYLAYER
 10
74.3868466732
 20
32.7939202496
 11
76.7568466732
 21
28.6889598356
  0
LINE
  5
262
100
AcDbEntity
  8
0
100
AcDbLine
 62
7
  6
BYLAYER
 10
62.5168466732
 20
114.0389598356
 11
62.5168466732
 21
111.4197535265
  0
LINE
  5
263
100
AcDbEntity
  8
0
100
AcDbLine
 62
7
  6
BYLAYER
 10
73.896691418
 20
109.6538212329
 11
73.6552560991
 21
108.7041756452
  0
LINE
  5
264
100
AcDbEntity
  8
0
100
AcDbLine
 62
7
  6
BYLAYER
 10
63.0168466732
 20
113.5389435348
 11
63.0168466732
 21
111.4570933388
  0
LINE
  5
265
100
AcDbEntity
  8
0
100
AcDbLine
 62
7
  6
BYLAYER
 10
47.3168466732
 20
28.6889598356
 11
49.6829127985
 21
32.7933602571
  0
LINE
  5
266
100
AcDbEntity
  8
0
100
AcDbLine
 62
7
  6
BYLAYER
 10
22.0168466732
 20
96.9489598356
 11
17.9118862593
 21
99.3189598356
  0
LINE
  5
267
100
AcDbEntity
  8
0
100
AcDbLine
 62
7
  6
BYLAYER
 10
55.9763267781
 20
31.5700879746
 11
56.6845370469
 21
32.7933602571
  0
LINE
  5
268
100
AcDbEntity
  8
0
100
AcDbLine
 62
7
  6
BYLAYER
 10
30.2612814471
 20
111.392155529
 11
31.162639971
 21
110.4747013172
  0
LINE
  5
269
100
AcDbEntity
  8
0
100
AcDbLine
 62
7
  6
BYLAYER
 10
75.8928057627
 20
31.3967270043
 11
72.3034673549
 21
68.9962540024
  0
LINE
  5
26A
100
AcDbEntity
  8
0
100
AcDbLine
 62
7
  6
BYLAYER
 10
72.8668164324
 20
69.0123496904
 11
76.3917720885
 21
31.5898752594
  0
LINE
  5
26B
100
AcDbEntity
  8
0
100
AcDbLine
 62
7
  6
BYLAYER
 10
72.3034673549
 20
68.9962540024
 11
71.0962907604
 21
106.7406421919
  0
LINE
  5
26C
100
AcDbEntity
  8
0
100
AcDbLine
 62
7
  6
BYLAYER
 10
71.6757355258
 20
106.5796853127
 11
72.8668164324
 21
69.0123496904
  0
LINE
  5
26D
100
AcDbEntity
  8
0
100
AcDbLine
 62
7
  6
BYLAYER
 10
55.10715963
 20
25.8078316966
 11
54.4150450491
 21
24.5845594142
  0
LINE
  5
26E
100
AcDbEntity
  8
0
100
AcDbLine
 62
7
  6
BYLAYER
 10
22.0168466732
 20
107.4289598356
 11
26.1218070871
 21
105.0589598356
  0
LINE
  5
26F
100
AcDbEntity
  8
0
100
AcDbLine
 62
7
  6
BYLAYER
 10
78.8766873082
 20
109.8839062061
 11
78.8766873082
 21
107.1029801111
  0
LINE
  5
270
100
AcDbEntity
  8
0
100
AcDbLine
 62
7
  6
BYLAYER
 10
78.8766873082
 20
106.9700983611
 11
78.8766873082
 21
31.4565383452
  0
LINE
  5
271
100
AcDbEntity
  8
0
100
AcDbLine
 62
7
  6
BYLAYER
 10
78.8766873082
 20
31.241601664
 11
78.8766873082
 21
23.1867339199
  0
LINE
  5
272
100
AcDbEntity
  8
0
100
AcDbLine
 62
7
  6
BYLAYER
 10
79.6911390718
 20
31.199260135
 11
79.6911390718
 21
107.1805707025
  0
LINE
  5
273
100
AcDbEntity
  8
0
100
AcDbLine
 62
7
  6
BYLAYER
 10
79.8363779289
 20
22.6929598356
 11
79.8363779289
 21
31.19155607
  0
LINE
  5
274
100
AcDbEntity
  8
0
100
AcDbLine
 62
7
  6
BYLAYER
 10
79.8363779289
 20
107.188006932
 11
79.8363779289
 21
110.2412548077
  0
LINE
  5
275
100
AcDbEntity
  8
0
100
AcDbLine
 62
7
  6
BYLAYER
 10
81.1558466732
 20
22.9865895884
 11
81.1558466732
 21
31.1229598356
  0
LINE
  5
276
100
AcDbEntity
  8
0
100
AcDbLine
 62
7
  6
BYLAYER
 10
81.1558466732
 20
107.2555637317
 11
81.1558466732
 21
111.1346245222
  0
LINE
  5
277
100
AcDbEntity
  8
0
100
AcDbLine
 62
7
  6
BYLAYER
 10
66.7765333773
 20
28.6889598356
 11
64.410467252
 21
24.5845594142
  0
LINE
  5
278
100
AcDbEntity
  8
0
100
AcDbLine
 62
7
  6
BYLAYER
 10
67.2768466732
 20
28.6889598356
 11
69.6468466732
 21
32.7939202496
  0
LINE
  5
279
100
AcDbEntity
  8
0
100
AcDbLine
 62
7
  6
BYLAYER
 10
42.0192830457
 20
10.6889598356
 11
42.4218383656
 21
11.0915151554
  0
LINE
  5
27A
100
AcDbEntity
  8
0
100
AcDbLine
 62
7
  6
BYLAYER
 10
11.1868466732
 20
104.7383101363
 11
11.4990582642
 21
104.7383101363
  0
LINE
  5
27B
100
AcDbEntity
  8
0
100
AcDbLine
 62
7
  6
BYLAYER
 10
11.1383587871
 20
104.7670221129
 11
11.1868466732
 21
104.7670221129
  0
LINE
  5
27C
100
AcDbEntity
  8
0
100
AcDbLine
 62
7
  6
BYLAYER
 10
29.9071763127
 20
111.5370167204
 11
30.2612814471
 21
111.392155529
  0
LINE
  5
27D
100
AcDbEntity
  8
0
100
AcDbLine
 62
7
  6
BYLAYER
 10
76.7568466732
 20
28.6889598356
 11
74.3868466732
 21
24.5839994217
  0
LINE
  5
27E
100
AcDbEntity
  8
0
100
AcDbLine
 62
7
  6
BYLAYER
 10
71.6757355258
 20
106.5796853127
 11
79.6911390718
 21
107.0142553844
  0
LINE
  5
27F
100
AcDbEntity
  8
0
100
AcDbLine
 62
7
  6
BYLAYER
 10
81.1558466732
 20
107.2555637317
 11
79.6911390718
 21
107.1805707025
  0
LINE
  5
280
100
AcDbEntity
  8
0
100
AcDbLine
 62
7
  6
BYLAYER
 10
71.0962907604
 20
106.7406421919
 11
79.6911390718
 21
107.1409096376
  0
LINE
  5
281
100
AcDbEntity
  8
0
100
AcDbLine
 62
7
  6
BYLAYER
 10
71.8203476754
 20
108.3339748228
 11
73.1562897733
 21
108.3339748228
  0
LINE
  5
282
100
AcDbEntity
  8
0
100
AcDbLine
 62
7
  6
BYLAYER
 10
71.5467209806
 20
108.8651325244
 11
70.9833719031
 21
110.1527875586
  0
LINE
  5
283
100
AcDbEntity
  8
0
100
AcDbLine
 62
7
  6
BYLAYER
 10
55.2540396971
 20
111.4974445144
 11
31.4604941032
 21
111.3758877408
  0
LINE
  5
284
100
AcDbEntity
  8
0
100
AcDbLine
 62
7
  6
BYLAYER
 10
63.0168466732
 20
111.5371032431
 11
64.7116816586
 21
111.545761838
  0
LINE
  5
285
100
AcDbEntity
  8
0
100
AcDbLine
 62
7
  6
BYLAYER
 10
78.8766873082
 20
109.8839062061
 11
74.0280539963
 21
109.8839062061
  0
LINE
  5
286
100
AcDbEntity
  8
0
100
AcDbLine
 62
7
  6
BYLAYER
 10
71.1010074949
 20
109.8839062061
 11
17.2401189557
 21
109.8839062061
  0
LINE
  5
287
100
AcDbEntity
  8
0
100
AcDbLine
 62
7
  6
BYLAYER
 10
17.2401189557
 20
110.1069009538
 11
71.0034472927
 21
110.1069009538
  0
LINE
  5
288
100
AcDbEntity
  8
0
100
AcDbLine
 62
7
  6
BYLAYER
 10
74.3172345268
 20
110.1069009538
 11
79.2928080381
 21
110.1069009538
  0
LINE
  5
289
100
AcDbEntity
  8
0
100
AcDbLine
 62
7
  6
BYLAYER
 10
13.5500210456
 20
110.1264711573
 11
17.2401189557
 21
110.1264711573
  0
LINE
  5
28A
100
AcDbEntity
  8
0
100
AcDbLine
 62
7
  6
BYLAYER
 10
11.1868466732
 20
110.3108975583
 11
11.1383587871
 21
110.3108975583
  0
LINE
  5
28B
100
AcDbEntity
  8
0
100
AcDbLine
 62
7
  6
BYLAYER
 10
11.5939955422
 20
110.339609535
 11
11.1868466732
 21
110.339609535
  0
LINE
  5
28C
100
AcDbEntity
  8
0
100
AcDbLine
 62
7
  6
BYLAYER
 10
70.2429702585
 20
110.4747013172
 11
65.9937086457
 21
110.4747013172
  0
LINE
  5
28D
100
AcDbEntity
  8
0
100
AcDbLine
 62
7
  6
BYLAYER
 10
12.2180152806
 20
111.3599641532
 11
11.9062480304
 21
111.3599641532
  0
LINE
  5
28E
100
AcDbEntity
  8
0
100
AcDbLine
 62
7
  6
BYLAYER
 10
57.7556545613
 20
111.4197535265
 11
62.5168466732
 21
111.4197535265
  0
LINE
  5
28F
100
AcDbEntity
  8
0
100
AcDbLine
 62
7
  6
BYLAYER
 10
78.1459530308
 20
111.5370167204
 11
76.327140295
 21
111.5370167204
  0
LINE
  5
290
100
AcDbEntity
  8
0
100
AcDbLine
 62
7
  6
BYLAYER
 10
29.9071763127
 20
111.5370167204
 11
12.4916419754
 21
111.5370167204
  0
LINE
  5
291
100
AcDbEntity
  8
0
100
AcDbLine
 62
7
  6
BYLAYER
 10
31.2161969738
 20
111.7589598356
 11
31.2449089505
 21
111.7589598356
  0
LINE
  5
292
100
AcDbEntity
  8
0
100
AcDbLine
 62
7
  6
BYLAYER
 10
36.7887843959
 20
111.7589598356
 11
36.8174963725
 21
111.7589598356
  0
LINE
  5
293
100
AcDbEntity
  8
0
100
AcDbLine
 62
7
  6
BYLAYER
 10
31.2449089505
 20
111.8074477217
 11
36.7887843959
 21
111.8074477217
  0
LINE
  5
294
100
AcDbEntity
  8
0
100
AcDbLine
 62
7
  6
BYLAYER
 10
31.4239213153
 20
112.3064140475
 11
36.6097720311
 21
112.3064140475
  0
LINE
  5
295
100
AcDbEntity
  8
0
100
AcDbLine
 62
7
  6
BYLAYER
 10
78.1459530308
 20
111.5370167204
 11
80.8500286026
 21
111.4404425928
  0
LINE
  5
296
100
AcDbEntity
  8
0
100
AcDbLine
 62
7
  6
BYLAYER
 10
64.7116816586
 20
111.545761838
 11
65.9937086457
 21
110.4747013172
  0
LINE
  5
297
100
AcDbEntity
  8
0
100
AcDbLine
 62
7
  6
BYLAYER
 10
62.5168466732
 20
114.0389598356
 11
57.7556545613
 21
114.0389598356
  0
LINE
  5
298
100
AcDbEntity
  8
0
100
AcDbLine
 62
7
  6
BYLAYER
 10
71.8203476754
 20
108.3339748228
 11
71.4470971437
 21
108.5206000886
  0
ARC
  5
299
100
AcDbEntity
  8
0
100
AcDbCircle
 62
7
  6
BYLAYER
 10
-168.4467445892
 20
-3.4941915054
 40
207.7260712552
100
AcDbArc
 50
9.1886891228
 51
25.3558328689
  0
ARC
  5
29A
100
AcDbEntity
  8
0
100
AcDbCircle
 62
7
  6
BYLAYER
 10
57.7556545613
 20
110.6389598356
 40
3.4
100
AcDbArc
 50
90.0
 51
138.1798301199
  0
CIRCLE
  5
29B
100
AcDbEntity
  8
0
100
AcDbCircle
 62
7
  6
BYLAYER
 10
22.0168466732
 20
28.6889598356
 40
2.75
  0
ARC
  5
29C
100
AcDbEntity
  8
0
100
AcDbCircle
 62
7
  6
BYLAYER
 10
22.0168466732
 20
101.1889598356
 40
2.75
100
AcDbArc
 50
180.0
 51
360.0
  0
ARC
  5
29D
100
AcDbEntity
  8
0
100
AcDbCircle
 62
7
  6
BYLAYER
 10
22.0168466732
 20
102.6889598356
 40
2.75
100
AcDbArc
 50
0.0
 51
180.0
  0
CIRCLE
  5
29E
100
AcDbEntity
  8
0
100
AcDbCircle
 62
7
  6
BYLAYER
 10
72.0168466732
 20
28.6889598356
 40
2.75
  0
CIRCLE
  5
29F
100
AcDbEntity
  8
0
100
AcDbCircle
 62
7
  6
BYLAYER
 10
52.0168466732
 20
28.6889598356
 40
2.75
  0
ARC
  5
2A0
100
AcDbEntity
  8
0
100
AcDbCircle
 62
7
  6
BYLAYER
 10
62.5168466732
 20
28.6889598356
 40
2.75
100
AcDbArc
 50
270.0
 51
90.0
  0
ARC
  5
2A1
100
AcDbEntity
  8
0
100
AcDbCircle
 62
7
  6
BYLAYER
 10
59.0168466732
 20
28.6889598356
 40
2.75
100
AcDbArc
 50
90.0
 51
270.0
  0
ARC
  5
2A2
100
AcDbEntity
  8
0
100
AcDbCircle
 62
7
  6
BYLAYER
 10
70.2190873855
 20
109.4073519387
 40
1.0676165451
100
AcDbArc
 50
44.2846977715
 51
88.7181708766
  0
ARC
  5
2A3
100
AcDbEntity
  8
0
100
AcDbCircle
 62
7
  6
BYLAYER
 10
55.541743204
 20
31.9166095637
 40
0.5558237981
100
AcDbArc
 50
218.5676208296
 51
321.4323791703
  0
ARC
  5
2A4
100
AcDbEntity
  8
0
100
AcDbCircle
 62
7
  6
BYLAYER
 10
55.541743204
 20
25.4613101075
 40
0.5558237981
100
AcDbArc
 50
38.5676208297
 51
141.4323791704
  0
ARC
  5
2A5
100
AcDbEntity
  8
0
100
AcDbCircle
 62
7
  6
BYLAYER
 10
73.1403778261
 20
108.8767816867
 40
0.5430400368
100
AcDbArc
 50
271.6790989007
 51
341.4669630564
  0
ARC
  5
2A6
100
AcDbEntity
  8
0
100
AcDbCircle
 62
7
  6
BYLAYER
 10
62.5168466732
 20
113.5389598356
 40
0.5
100
AcDbArc
 50
0.0
 51
90.0
  0
ARC
  5
2A7
100
AcDbEntity
  8
0
100
AcDbCircle
 62
7
  6
BYLAYER
 10
16.5114795445
 20
23.1835927069
 40
0.4946518535
100
AcDbArc
 50
179.4980473144
 51
270.5019526856
  0
ARC
  5
2A8
100
AcDbEntity
  8
0
100
AcDbCircle
 62
7
  6
BYLAYER
 10
74.345358719
 20
109.5502052418
 40
0.4604765147
100
AcDbArc
 50
121.3286928678
 51
166.9960012236
  0
ARC
  5
2A9
100
AcDbEntity
  8
0
100
AcDbCircle
 62
7
  6
BYLAYER
 10
80.8235856867
 20
111.1081816063
 40
0.3333115524
100
AcDbArc
 50
4.5502811376
 51
85.4497188624
  0
ARC
  5
2AA
100
AcDbEntity
  8
0
100
AcDbCircle
 62
7
  6
BYLAYER
 10
80.8540525246
 20
22.9906135104
 40
0.3018209736
100
AcDbArc
 50
279.5321576024
 51
359.2361015395
  0
ARC
  5
2AB
100
AcDbEntity
  8
0
100
AcDbCircle
 62
7
  6
BYLAYER
 10
31.462639971
 20
111.0758954154
 40
0.3
100
AcDbArc
 50
90.4098340653
 51
180.0
  0
ARC
  5
2AC
100
AcDbEntity
  8
0
100
AcDbCircle
 62
7
  6
BYLAYER
 10
11.9062480304
 20
111.0599641532
 40
0.3
100
AcDbArc
 50
90.0
 51
179.0289780689
  0
SPLINE
  5
2AD
100
AcDbEntity
  8
0
100
AcDbSpline
 62
7
  6
BYLAYER
 70
0
 71
3
 72
11
 73
7
 74
0
 42
0.0000001
 43
0.0000001
 44
0.0000000001
 40
0.0
 40
0.0
 40
0.0
 40
0.0
 40
0.2500115097
 40
0.5
 40
0.7499884903
 40
1.0
 40
1.0
 40
1.0
 40
1.0
 10
34.2992509327
 20
11.2040218493
 30
0.0
 10
33.8448036096
 20
11.0907838072
 30
0.0
 10
32.9226395812
 20
10.9130900214
 30
0.0
 10
31.5168466732
 20
10.8211380642
 30
0.0
 10
30.1110537652
 20
10.9130900214
 30
0.0
 10
29.1888897368
 20
11.0907838072
 30
0.0
 10
28.7344424137
 20
11.2040218493
 30
0.0
  0
SPLINE
  5
2AE
100
AcDbEntity
  8
0
100
AcDbSpline
 62
7
  6
BYLAYER
 70
0
 71
3
 72
12
 73
8
 74
0
 42
0.0000001
 43
0.0000001
 44
0.0000000001
 40
0.0
 40
0.0
 40
0.0
 40
0.0
 40
0.1250006456
 40
0.2500015661
 40
0.5000004048
 40
0.749999911
 40
1.0
 40
1.0
 40
1.0
 40
1.0
 10
28.7344424137
 20
11.2040218493
 30
0.0
 10
28.6431368361
 20
11.6792144575
 30
0.0
 10
28.468848548
 20
12.6312104866
 30
0.0
 10
28.1461226303
 20
14.5396867402
 30
0.0
 10
27.7813035109
 20
16.931587608
 30
0.0
 10
27.3861396215
 20
19.8079228646
 30
0.0
 10
27.1440079392
 20
21.7282840552
 30
0.0
 10
27.0270809113
 20
22.6889598356
 30
0.0
  0
SPLINE
  5
2AF
100
AcDbEntity
  8
0
100
AcDbSpline
 62
7
  6
BYLAYER
 70
0
 71
3
 72
12
 73
8
 74
0
 42
0.0000001
 43
0.0000001
 44
0.0000000001
 40
0.0
 40
0.0
 40
0.0
 40
0.0
 40
0.1250006457
 40
0.2500015655
 40
0.5000004045
 40
0.7499999106
 40
1.0
 40
1.0
 40
1.0
 40
1.0
 10
34.2992509327
 20
11.2040218493
 30
0.0
 10
34.390556512
 20
11.6792144666
 30
0.0
 10
34.5648486683
 20
12.6312097907
 30
0.0
 10
34.8875768145
 20
14.5396857311
 30
0.0
 10
35.2523952116
 20
16.9315867729
 30
0.0
 10
35.6475546457
 20
19.8079227012
 30
0.0
 10
35.8896854048
 20
21.7282840353
 30
0.0
 10
36.0066124351
 20
22.6889598356
 30
0.0
  0
SPLINE
  5
2B0
100
AcDbEntity
  8
0
100
AcDbSpline
 62
7
  6
BYLAYER
 70
0
 71
3
 72
12
 73
8
 74
0
 42
0.0000001
 43
0.0000001
 44
0.0000000001
 40
0.0
 40
0.0
 40
0.0
 40
0.0
 40
0.2499712063
 40
0.4999241767
 40
0.7498684178
 40
0.8749302426
 40
1.0
 40
1.0
 40
1.0
 40
1.0
 10
10.6395678866
 20
110.1319481605
 30
0.0
 10
10.5125061674
 20
109.94221344
 30
0.0
 10
10.2872606463
 20
109.5424512074
 30
0.0
 10
10.0463317629
 20
108.898479337
 30
0.0
 10
9.9301902389
 20
108.3370169675
 30
0.0
 10
9.8884349309
 20
107.8818019965
 30
0.0
 10
9.8827497182
 20
107.6532119543
 30
0.0
 10
9.8827497182
 20
107.5389598356
 30
0.0
  0
SPLINE
  5
2B1
100
AcDbEntity
  8
0
100
AcDbSpline
 62
7
  6
BYLAYER
 70
0
 71
3
 72
12
 73
8
 74
0
 42
0.0000001
 43
0.0000001
 44
0.0000000001
 40
0.0
 40
0.0
 40
0.0
 40
0.0
 40
0.1250692379
 40
0.2501302086
 40
0.5000728962
 40
0.7500261549
 40
1.0
 40
1.0
 40
1.0
 40
1.0
 10
9.8827497182
 20
107.5389598356
 30
0.0
 10
9.8827497182
 20
107.4247081994
 30
0.0
 10
9.8884352533
 20
107.1961194492
 30
0.0
 10
9.9301894399
 20
106.7409070831
 30
0.0
 10
10.0463307226
 20
106.1794467993
 30
0.0
 10
10.287256514
 20
105.5354724317
 30
0.0
 10
10.5125044446
 20
105.1357083611
 30
0.0
 10
10.6395674964
 20
104.9459716508
 30
0.0
  0
LINE
  5
2B2
100
AcDbEntity
  8
0
100
AcDbLine
 62
7
  6
BYLAYER
 10
10.6395674964
 20
104.9459716508
 11
11.1383587871
 21
104.7670221129
  0
LINE
  5
2B3
100
AcDbEntity
  8
0
100
AcDbLine
 62
7
  6
BYLAYER
 10
11.1383587871
 20
110.3108975583
 11
10.6395678866
 21
110.1319481605
  0
SPLINE
  5
2B4
100
AcDbEntity
  8
0
100
AcDbSpline
 62
7
  6
BYLAYER
 70
0
 71
3
 72
12
 73
8
 74
0
 42
0.0000001
 43
0.0000001
 44
0.0000000001
 40
0.0
 40
0.0
 40
0.0
 40
0.0
 40
0.2499712063
 40
0.4999241767
 40
0.7498684178
 40
0.8749302426
 40
1.0
 40
1.0
 40
1.0
 40
1.0
 10
36.6098349981
 20
112.3062386222
 30
0.0
 10
36.4201002775
 20
112.4333003415
 30
0.0
 10
36.0203380449
 20
112.6585458625
 30
0.0
 10
35.3763661745
 20
112.8994747459
 30
0.0
 10
34.814903805
 20
113.0156162699
 30
0.0
 10
34.3596888341
 20
113.057371578
 30
0.0
 10
34.1310987919
 20
113.0630567906
 30
0.0
 10
34.0168466732
 20
113.0630567906
 30
0.0
  0
SPLINE
  5
2B5
100
AcDbEntity
  8
0
100
AcDbSpline
 62
7
  6
BYLAYER
 70
0
 71
3
 72
12
 73
8
 74
0
 42
0.0000001
 43
0.0000001
 44
0.0000000001
 40
0.0
 40
0.0
 40
0.0
 40
0.0
 40
0.1250692379
 40
0.2501302086
 40
0.5000728962
 40
0.7500261549
 40
1.0
 40
1.0
 40
1.0
 40
1.0
 10
34.0168466732
 20
113.0630567906
 30
0.0
 10
33.902595037
 20
113.0630567906
 30
0.0
 10
33.6740062867
 20
113.0573712555
 30
0.0
 10
33.2187939207
 20
113.0156170689
 30
0.0
 10
32.6573336368
 20
112.8994757862
 30
0.0
 10
32.0133592692
 20
112.6585499948
 30
0.0
 10
31.6135951986
 20
112.4333020642
 30
0.0
 10
31.4238584884
 20
112.3062390125
 30
0.0
  0
LINE
  5
2B6
100
AcDbEntity
  8
0
100
AcDbLine
 62
7
  6
BYLAYER
 10
31.4238584884
 20
112.3062390125
 11
31.2449089505
 21
111.8074477217
  0
LINE
  5
2B7
100
AcDbEntity
  8
0
100
AcDbLine
 62
7
  6
BYLAYER
 10
36.7887843959
 20
111.8074477217
 11
36.6098349981
 21
112.3062386222
  0
SPLINE
  5
2B8
100
AcDbEntity
  8
0
100
AcDbSpline
 62
7
  6
BYLAYER
 70
0
 71
3
 72
9
 73
5
 74
0
 42
0.0000001
 43
0.0000001
 44
0.0000000001
 40
0.0
 40
0.0
 40
0.0
 40
0.0
 40
0.4237920196
 40
1.0
 40
1.0
 40
1.0
 40
1.0
 10
55.2538160432
 20
111.4974433718
 30
0.0
 10
55.6066136928
 20
111.4730744899
 30
0.0
 10
56.4403100884
 20
111.4333802142
 30
0.0
 10
57.2748309914
 20
111.4197535265
 30
0.0
 10
57.7556545613
 20
111.4197535265
 30
0.0
  0
SPLINE
  5
2B9
100
AcDbEntity
  8
0
100
AcDbSpline
 62
7
  6
BYLAYER
 70
0
 71
3
 72
16
 73
12
 74
0
 42
0.0000001
 43
0.0000001
 44
0.0000000001
 40
0.0
 40
0.0
 40
0.0
 40
0.0
 40
0.2218810143
 40
0.4272706076
 40
0.6043224026
 40
0.7479925577
 40
0.8576338466
 40
0.9344299107
 40
0.9804897589
 40
0.9929722841
 40
1.0
 40
1.0
 40
1.0
 40
1.0
 10
62.5168466732
 20
111.4197535265
 30
0.0
 10
62.5541585834
 20
111.4197535265
 30
0.0
 10
62.6260116344
 20
111.4203811216
 30
0.0
 10
62.7276025853
 20
111.4230557436
 30
0.0
 10
62.8159974749
 20
111.4271170836
 30
0.0
 10
62.8881769062
 20
111.4321158945
 30
0.0
 10
62.9434889322
 20
111.4376704468
 30
0.0
 10
62.9820478031
 20
111.44331237
 30
0.0
 10
63.0044916911
 20
111.4486352011
 30
0.0
 10
63.0144312072
 20
111.4530384926
 30
0.0
 10
63.0168466732
 20
111.4559106526
 30
0.0
 10
63.0168466732
 20
111.457092446
 30
0.0
  0
SPLINE
  5
2BA
100
AcDbEntity
  8
0
100
AcDbSpline
 62
7
  6
BYLAYER
 70
0
 71
3
 72
11
 73
7
 74
0
 42
0.0000001
 43
0.0000001
 44
0.0000000001
 40
0.0
 40
0.0
 40
0.0
 40
0.0
 40
0.254793536
 40
0.5066429158
 40
0.7548570302
 40
1.0
 40
1.0
 40
1.0
 40
1.0
 10
78.8766873082
 20
109.8839062061
 30
0.0
 10
78.9178712787
 20
109.8845487326
 30
0.0
 10
78.9999827368
 20
109.898239651
 30
0.0
 10
79.1118330788
 20
109.9495798549
 30
0.0
 10
79.2095297371
 20
110.0210718905
 30
0.0
 10
79.2663131956
 20
110.0774310773
 30
0.0
 10
79.2928080381
 20
110.1069009538
 30
0.0
  0
SPLINE
  5
2BB
100
AcDbEntity
  8
0
100
AcDbSpline
 62
7
  6
BYLAYER
 70
0
 71
3
 72
12
 73
8
 74
0
 42
0.0000001
 43
0.0000001
 44
0.0000000001
 40
0.0
 40
0.0
 40
0.0
 40
0.0
 40
0.3505445905
 40
0.6418713563
 40
0.8597852264
 40
0.9393752926
 40
1.0
 40
1.0
 40
1.0
 40
1.0
 10
79.2927113973
 20
110.1069009538
 30
0.0
 10
79.3585867882
 20
110.1129917014
 30
0.0
 10
79.47902023
 20
110.1271872019
 30
0.0
 10
79.638481147
 20
110.1572518993
 30
0.0
 10
79.7457536234
 20
110.1884981475
 30
0.0
 10
79.8067116459
 20
110.2179117124
 30
0.0
 10
79.8285565103
 20
110.23339679
 30
0.0
 10
79.8366143259
 20
110.2415193844
 30
0.0
  0
SPLINE
  5
2BC
100
AcDbEntity
  8
0
100
AcDbSpline
 62
7
  6
BYLAYER
 70
0
 71
3
 72
13
 73
9
 74
0
 42
0.0000001
 43
0.0000001
 44
0.0000000001
 40
0.0
 40
0.0
 40
0.0
 40
0.0
 40
0.0552002113
 40
0.1333725537
 40
0.2347438733
 40
0.357471613
 40
0.6558182689
 40
1.0
 40
1.0
 40
1.0
 40
1.0
 10
12.6680388
 20
110.2763986906
 30
0.0
 10
12.6799313456
 20
110.2647717861
 30
0.0
 10
12.7149548943
 20
110.2436263619
 30
0.0
 10
12.7808563048
 20
110.2180163617
 30
0.0
 10
12.8689616638
 20
110.1941948875
 30
0.0
 10
13.0234464814
 20
110.1637469538
 30
0.0
 10
13.2528381577
 20
110.1372416298
 30
0.0
 10
13.4463391588
 20
110.128196941
 30
0.0
 10
13.5500269587
 20
110.1264836436
 30
0.0
  0
SPLINE
  5
2BD
100
AcDbEntity
  8
0
100
AcDbSpline
 62
7
  6
BYLAYER
 70
0
 71
3
 72
20
 73
16
 74
0
 42
0.0000001
 43
0.0000001
 44
0.0000000001
 40
0.0
 40
0.0
 40
0.0
 40
0.0
 40
0.0828410403
 40
0.1850324944
 40
0.3028218412
 40
0.431590946
 40
0.5679994787
 40
0.7094536626
 40
0.8539905875
 40
0.8904130587
 40
0.9269037541
 40
0.9451674442
 40
0.9634468318
 40
0.9817198266
 40
1.0
 40
1.0
 40
1.0
 40
1.0
 10
79.7226827875
 20
22.6929598356
 30
0.0
 10
79.6953749694
 20
22.6925475465
 30
0.0
 10
79.6346000895
 20
22.7058559671
 30
0.0
 10
79.5427663143
 20
22.7449251171
 30
0.0
 10
79.4412666735
 20
22.7993017218
 30
0.0
 10
79.3334937415
 20
22.8650904927
 30
0.0
 10
79.2212039374
 20
22.9383530836
 30
0.0
 10
79.1061254174
 20
23.0167764768
 30
0.0
 10
79.0189541823
 20
23.0776017761
 30
0.0
 10
78.9603571385
 20
23.1189011633
 30
0.0
 10
78.9357390961
 20
23.1361496562
 30
0.0
 10
78.9161621409
 20
23.1501676639
 30
0.0
 10
78.9010973048
 20
23.1601630507
 30
0.0
 10
78.8867503813
 20
23.1711728297
 30
0.0
 10
78.8775394599
 20
23.1789700068
 30
0.0
 10
78.8726160204
 20
23.1824455594
 30
0.0
  0
ENDSEC
  0
SECTION
  2
OBJECTS
  0
DICTIONARY
  5
C
100
AcDbDictionary
280
0
281
1
  3
ACAD_GROUP
350
D
  3
ACAD_MLINESTYLE
350
17
  3
ACAD_LAYOUT
350
1A
  3
ACAD_PLOTSETTINGS
350
19
  3
ACAD_PLOTSTYLENAME
350
E
  0
DICTIONARY
  5
D
102
{ACAD_REACTORS
330
C
102
}
100
AcDbDictionary
280
0
281
1
  0
ACDBDICTIONARYWDFLT
  5
E
102
{ACAD_REACTORS
330
C
102
}
100
AcDbDictionary
281
1
  3
Normal
350
F
100
AcDbDictionaryWithDefault
340
F
  0
DICTIONARY
  5
17
102
{ACAD_REACTORS
330
C
102
}
100
AcDbDictionary
280
0
281
1
  3
Standard
350
18
  0
DICTIONARY
  5
19
102
{ACAD_REACTORS
330
C
102
}
100
AcDbDictionary
281
1
  0
DICTIONARY
  5
1A
102
{ACAD_REACTORS
330
C
102
}
100
AcDbDictionary
281
1
  3
Model
350
2BE
  3
Layout1
350
2BF
  0
ACDBPLACEHOLDER
  5
F
102
{ACAD_REACTORS
330
E
102
}
  0
MLINESTYLE
  5
18
102
{ACAD_REACTORS
330
17
102
}
100
AcDbMlineStyle
  2
STANDARD
 70
0
  3

 62
256
 51
90.0
 52
90.0
 71
2
 49
0.5
 62
256
  6
BYLAYER
 49
-0.5
 62
256
  6
BYLAYER
  0
LAYOUT
  5
2BE
102
{ACAD_REACTORS
330
1A
102
}
100
AcDbPlotSettings
  1

  2
none_device
  4

  6

 40
0.0
 41
0.0
 42
0.0
 43
0.0
 44
210.0
 45
297.0
 46
0.0
 47
0.0
 48
0.0
 49
0.0
140
0.0
141
0.0
142
1.0
143
1.0
 70
1024
 72
1
 73
0
 74
0
  7

 75
0
147
1.0
148
0.0
149
0.0
100
AcDbLayout
  1
Model
 70
0
 71
0
 10
0.0
 20
0.0
 11
210.0
 21
297.0
 12
0.0
 22
0.0
 32
0.0
 14
0.0
 24
0.0
 34
0.0
 15
0.0
 25
0.0
 35
0.0
146
0.0
 13
0.0
 23
0.0
 33
0.0
 16
1.0
 26
0.0
 36
0.0
 17
0.0
 27
1.0
 37
0.0
 76
0
330
210
345
0
346
0
  0
LAYOUT
  5
2BF
102
{ACAD_REACTORS
330
1A
102
}
100
AcDbPlotSettings
  1

  2
none_device
  4

  6

 40
0.0
 41
0.0
 42
0.0
 43
0.0
 44
210.0
 45
297.0
 46
0.0
 47
0.0
 48
0.0
 49
0.0
140
0.0
141
0.0
142
1.0
143
1.0
 70
0
 72
1
 73
0
 74
0
  7

 75
0
147
1.0
148
0.0
149
0.0
100
AcDbLayout
  1
Layout1
 70
0
 71
1
 10
0.0
 20
0.0
 11
210.0
 21
297.0
 12
0.0
 22
0.0
 32
0.0
 14
0.0
 24
0.0
 34
0.0
 15
0.0
 25
0.0
 35
0.0
146
0.0
 13
0.0
 23
0.0
 33
0.0
 16
1.0
 26
0.0
 36
0.0
 17
0.0
 27
1.0
 37
0.0
 76
0
330
211
345
0
346
0
  0
ENDSEC
  0
EOF
