999
DXF file: C:\Users\sesa63760\Dev\_Creo\CAD\MCADID0004749_3D-CAD\drw0001_4.dxf
999
Pro/ENGINEER 2019471 by Parametric Technology Corporation
  0
SECTION
  2
HEADER
  9
$ACADVER
  1
AC1024
  9
$DWGCODEPAGE
  3
ANSI_1252
  9
$EXTMAX
 10
31.8304054938
 20
45.0172877698
 30
0.0
  9
$EXTMIN
 10
0.0
 20
0.0
 30
0.0
  9
$LIMMIN
 10
0.0
 20
0.0
  9
$LIMMAX
 10
31.8304054938
 20
45.0172877698
  9
$VIEWCTR
 10
15.9152027469
 20
22.5086438849
  9
$VIEWSIZE
 40
45.0172877698
  9
$CLAYER
  8
0
  9
$LTSCALE
 40
2.9344602398
  9
$CELTYPE
  6
BYLAYER
  9
$DIMSCALE
 40
1.0
  9
$DIMASZ
 40
0.3789333987
  9
$DIMEXO
 40
1.0
  9
$DIMDLI
 40
2.0274452566
  9
$DIMEXE
 40
1.0
  9
$DIMCEN
 40
0.4801844029
  9
$DIMLFAC
 40
1.0
  9
$DIMBLK
  1
_FILLED
  9
$DIMALT
 70
0
  9
$DIMALTF
 40
0.0393700787
  9
$DIMTXT
 40
0.5305067582
  9
$DIMTOL
 70
1
  9
$DIMLIM
 70
0
  9
$DIMTFAC
 40
1.0
  9
$DIMTP
 40
0.01
  9
$DIMTM
 40
0.01
  9
$DIMGAP
 40
0.625
  9
$DIMDSEP
 70
46
  9
$AUNITS
 70
0
  9
$PDMODE
 70
3
  9
$PDSIZE
 40
0.3125
  9
$HANDSEED
  5
298
  9
$TILEMODE
 70
1
  9
$MEASUREMENT
 70
1
  9
$INSUNITS
 70
4
  0
ENDSEC
  0
SECTION
  2
CLASSES
  0
CLASS
  1
ACDBDICTIONARYWDFLT
  2
AcDbDictionaryWithDefault
  3
AutoCAD 2000
 90
0
 91
1
280
0
281
0
  0
CLASS
  1
ACDBPLACEHOLDER
  2
AcDbPlaceHolder
  3
AutoCAD 2000
 90
0
 91
1
280
0
281
0
  0
CLASS
  1
LAYOUT
  2
AcDbLayout
  3
AutoCAD 2000
 90
0
 91
0
280
0
281
0
  0
ENDSEC
  0
SECTION
  2
TABLES
  0
TABLE
  2
VPORT
  5
8
100
AcDbSymbolTable
 70
2
  0
VPORT
  5
1F4
100
AcDbSymbolTableRecord
100
AcDbViewportTableRecord
  2
*ACTIVE
 70
0
 10
0.0
 20
0.0
 11
1.0
 21
1.0
 12
15.9152027469
 22
22.5086438849
 13
0.0
 23
0.0
 14
1.0
 24
1.0
 15
0.0
 25
0.0
 16
0.0
 26
0.0
 36
1.0
 17
0.0
 27
0.0
 37
0.0
 40
45.0172877698
 41
0.7070707071
 42
50.0
 43
0.0
 44
0.0
 50
0.0
 51
0.0
 71
0
 72
100
 73
1
 74
1
 75
0
 76
0
 77
0
 78
0
  0
ENDTAB
  0
TABLE
  2
LTYPE
  5
5
100
AcDbSymbolTable
 70
6
  0
LTYPE
  5
14
100
AcDbSymbolTableRecord
100
AcDbLinetypeTableRecord
  2
BYBLOCK
 70
0
  3

 72
65
 73
0
 40
0.0
  0
LTYPE
  5
15
100
AcDbSymbolTableRecord
100
AcDbLinetypeTableRecord
  2
BYLAYER
 70
0
  3

 72
65
 73
0
 40
0.0
  0
LTYPE
  5
16
100
AcDbSymbolTableRecord
100
AcDbLinetypeTableRecord
  2
CONTINUOUS
 70
64
  3
Solid line
 72
65
 73
0
 40
0.0
  0
LTYPE
  5
1F5
100
AcDbSymbolTableRecord
100
AcDbLinetypeTableRecord
  2
CENTER
 70
64
  3
____ _ ____ _ ____ _ ____ _ ____ _ ____ _ ____
 72
65
 73
4
 40
0.6
 49
0.375
 74
0
 49
-0.075
 74
0
 49
0.075
 74
0
 49
-0.075
 74
0
  0
LTYPE
  5
1F6
100
AcDbSymbolTableRecord
100
AcDbLinetypeTableRecord
  2
HIDDEN
 70
64
  3
- - - - - - - - - - - - - - - - - - - -
 72
65
 73
2
 40
0.2
 49
0.1
 74
0
 49
-0.1
 74
0
  0
LTYPE
  5
1F7
100
AcDbSymbolTableRecord
100
AcDbLinetypeTableRecord
  2
PHANTOM
 70
64
  3
_____ _ _ _____ _ _ _____ _ _ _____
 72
65
 73
6
 40
0.8
 49
0.45
 74
0
 49
-0.05
 74
0
 49
0.1
 74
0
 49
-0.05
 74
0
 49
0.1
 74
0
 49
-0.05
 74
0
  0
LTYPE
  5
1F8
100
AcDbSymbolTableRecord
100
AcDbLinetypeTableRecord
  2
DOT
 70
64
  3
. . . . . . . . . . . . . . . . . . . .
 72
65
 73
2
 40
0.2
 49
0.1
 74
0
 49
-0.1
 74
0
  0
LTYPE
  5
1F9
100
AcDbSymbolTableRecord
100
AcDbLinetypeTableRecord
  2
DASHED
 70
64
  3
- - - - - - - - - - - - - - - - - - - -
 72
65
 73
2
 40
0.2
 49
0.1
 74
0
 49
-0.1
 74
0
  0
ENDTAB
  0
TABLE
  2
LAYER
  5
2
100
AcDbSymbolTable
 70
36
  0
LAYER
  5
10
100
AcDbSymbolTableRecord
100
AcDbLayerTableRecord
  2
0
 70
0
 62
7
  6
CONTINUOUS
370
-3
390
F
  0
LAYER
  5
1FA
100
AcDbSymbolTableRecord
100
AcDbLayerTableRecord
  2
DEFAULT_1
 70
0
 62
7
  6
CENTER
370
-3
390
F
  0
LAYER
  5
1FB
100
AcDbSymbolTableRecord
100
AcDbLayerTableRecord
  2
DEFAULT_2
 70
0
 62
7
  6
HIDDEN
370
-3
390
F
  0
LAYER
  5
1FC
100
AcDbSymbolTableRecord
100
AcDbLayerTableRecord
  2
DEFAULT_3
 70
0
 62
7
  6
PHANTOM
370
-3
390
F
  0
LAYER
  5
1FD
100
AcDbSymbolTableRecord
100
AcDbLayerTableRecord
  2
00_COMPONENTS
 70
0
 62
7
  6
CONTINUOUS
370
-3
390
F
  0
LAYER
  5
1FE
100
AcDbSymbolTableRecord
100
AcDbLayerTableRecord
  2
01_1_DEFAULT_DATUMS
 70
0
 62
7
  6
CONTINUOUS
370
-3
390
F
  0
LAYER
  5
1FF
100
AcDbSymbolTableRecord
100
AcDbLayerTableRecord
  2
01_PLANES
 70
0
 62
7
  6
CONTINUOUS
370
-3
390
F
  0
LAYER
  5
200
100
AcDbSymbolTableRecord
100
AcDbLayerTableRecord
  2
02_COORD_SYS
 70
0
 62
7
  6
CONTINUOUS
370
-3
390
F
  0
LAYER
  5
201
100
AcDbSymbolTableRecord
100
AcDbLayerTableRecord
  2
03_AXES
 70
0
 62
7
  6
CONTINUOUS
370
-3
390
F
  0
LAYER
  5
202
100
AcDbSymbolTableRecord
100
AcDbLayerTableRecord
  2
04_POINTS
 70
0
 62
7
  6
CONTINUOUS
370
-3
390
F
  0
LAYER
  5
203
100
AcDbSymbolTableRecord
100
AcDbLayerTableRecord
  2
05_CURVES
 70
0
 62
7
  6
CONTINUOUS
370
-3
390
F
  0
LAYER
  5
204
100
AcDbSymbolTableRecord
100
AcDbLayerTableRecord
  2
06_SURFS
 70
0
 62
7
  6
CONTINUOUS
370
-3
390
F
  0
LAYER
  5
205
100
AcDbSymbolTableRecord
100
AcDbLayerTableRecord
  2
07_COSMETICS
 70
0
 62
7
  6
CONTINUOUS
370
-3
390
F
  0
LAYER
  5
206
100
AcDbSymbolTableRecord
100
AcDbLayerTableRecord
  2
10_NOTES
 70
0
 62
7
  6
CONTINUOUS
370
-3
390
F
  0
LAYER
  5
207
100
AcDbSymbolTableRecord
100
AcDbLayerTableRecord
  2
11_NOTES_PUB
 70
0
 62
7
  6
CONTINUOUS
370
-3
390
F
  0
LAYER
  5
208
100
AcDbSymbolTableRecord
100
AcDbLayerTableRecord
  2
13_REF_GTOL
 70
0
 62
7
  6
CONTINUOUS
370
-3
390
F
  0
LAYER
  5
209
100
AcDbSymbolTableRecord
100
AcDbLayerTableRecord
  2
16_MISC
 70
0
 62
7
  6
CONTINUOUS
370
-3
390
F
  0
LAYER
  5
20A
100
AcDbSymbolTableRecord
100
AcDbLayerTableRecord
  2
17_NO_PRINT
 70
0
 62
7
  6
CONTINUOUS
370
-3
390
F
  0
LAYER
  5
20B
100
AcDbSymbolTableRecord
100
AcDbLayerTableRecord
  2
18_DATUM_CAMS_JOINTS
 70
0
 62
7
  6
CONTINUOUS
370
-3
390
F
  0
LAYER
  5
20C
100
AcDbSymbolTableRecord
100
AcDbLayerTableRecord
  2
19_DATUM_FUNCTIONAL
 70
0
 62
7
  6
CONTINUOUS
370
-3
390
F
  0
LAYER
  5
20D
100
AcDbSymbolTableRecord
100
AcDbLayerTableRecord
  2
20_DATUM_KINEMATIC_SCHEME
 70
0
 62
7
  6
CONTINUOUS
370
-3
390
F
  0
ENDTAB
  0
TABLE
  2
STYLE
  5
3
100
AcDbSymbolTable
 70
1
  0
STYLE
  5
11
100
AcDbSymbolTableRecord
100
AcDbTextStyleTableRecord
  2
STANDARD
 70
0
 40
0.0
 41
1.0
 50
0.0
 71
0
 42
0.2
  3
ARIAL.TTF
  4

  0
STYLE
  5
20E
100
AcDbSymbolTableRecord
100
AcDbTextStyleTableRecord
  2
TEXTSTYLE_1
 70
0
 40
0.0
 41
0.8
 50
0.0
 71
0
 42
0.2
  3
gdt
  4

  0
ENDTAB
  0
TABLE
  2
VIEW
  5
6
100
AcDbSymbolTable
 70
0
  0
ENDTAB
  0
TABLE
  2
UCS
  5
7
100
AcDbSymbolTable
 70
0
  0
ENDTAB
  0
TABLE
  2
APPID
  5
9
100
AcDbSymbolTable
 70
1
  0
APPID
  5
20F
100
AcDbSymbolTableRecord
100
AcDbRegAppTableRecord
  2
ACAD
 70
0
  0
ENDTAB
  0
TABLE
  2
BLOCK_RECORD
  5
1
100
AcDbSymbolTable
 70
0
  0
BLOCK_RECORD
  5
210
100
AcDbSymbolTableRecord
100
AcDbBlockTableRecord
  2
*Model_Space
  0
BLOCK_RECORD
  5
211
100
AcDbSymbolTableRecord
100
AcDbBlockTableRecord
  2
*Paper_Space
  0
BLOCK_RECORD
  5
212
100
AcDbSymbolTableRecord
100
AcDbBlockTableRecord
  2
_FILLED
  0
ENDTAB
  0
TABLE
  2
DIMSTYLE
  5
A
100
AcDbSymbolTable
 70
1
100
AcDbDimStyleTable
 71
0
  0
DIMSTYLE
105
213
100
AcDbSymbolTableRecord
100
AcDbDimStyleTableRecord
  2
STANDARD
 70
0
  3

  4

 40
1.0
 41
0.3789333987
 42
1.0
 43
0.38
 44
1.0
 45
0.0
 46
0.0
 47
0.01
 48
0.01
140
0.5305067582
141
0.09
142
0.0
143
25.4
144
1.0
145
0.0
146
1.0
147
0.625
 71
1
 72
0
 73
0
 74
0
 75
0
 76
0
 77
1
 78
8
 79
2
170
0
171
1
172
0
173
0
174
0
175
0
176
0
177
0
178
0
270
2
179
2
271
2
272
2
273
2
274
2
275
0
280
0
281
0
282
0
283
1
284
8
285
0
286
0
287
3
288
0
340
11
278
46
341
212
342
212
343
212
344
212
  0
ENDTAB
  0
ENDSEC
  0
SECTION
  2
BLOCKS
  0
BLOCK
  5
20
100
AcDbEntity
  8
0
100
AcDbBlockBegin
  2
*Model_Space
 70
0
 10
0.0
 20
0.0
 30
0.0
  3
*Model_Space
  1

  0
ENDBLK
  5
21
100
AcDbEntity
  8
0
100
AcDbBlockEnd
  0
BLOCK
  5
1C
100
AcDbEntity
  8
0
100
AcDbBlockBegin
  2
*Paper_Space
 70
0
 10
0.0
 20
0.0
 30
0.0
  3
*Paper_Space
  1

  0
ENDBLK
  5
1D
100
AcDbEntity
  8
0
100
AcDbBlockEnd
  0
BLOCK
  5
214
100
AcDbEntity
  8
0
100
AcDbBlockBegin
  2
_FILLED
 70
64
 10
0.0
 20
0.0
  3
_FILLED
  1

  0
SOLID
  5
215
100
AcDbEntity
  8
0
  6
BYBLOCK
 62
0
100
AcDbTrace
 10
0.0
 20
0.0
 11
-1.0
 21
0.25
 12
-1.0
 22
-0.25
 13
-1.0
 23
-0.25
  0
ENDBLK
  5
216
100
AcDbEntity
  8
0
  6
BYBLOCK
 62
0
100
AcDbBlockEnd
  0
ENDSEC
  0
SECTION
  2
ENTITIES
  0
LINE
  5
217
100
AcDbEntity
  8
0
100
AcDbLine
 62
7
  6
BYLAYER
 10
22.1784001119
 20
3.2233920863
 11
10.4785161733
 21
3.2233920863
  0
LINE
  5
218
100
AcDbEntity
  8
0
100
AcDbLine
 62
7
  6
BYLAYER
 10
22.6784581426
 20
3.7233920863
 11
9.9784581426
 21
3.7233920863
  0
LINE
  5
219
100
AcDbEntity
  8
0
100
AcDbLine
 62
7
  6
BYLAYER
 10
9.9784581426
 20
5.7233920863
 11
22.6784581426
 21
5.7233920863
  0
LINE
  5
21A
100
AcDbEntity
  8
0
100
AcDbLine
 62
7
  6
BYLAYER
 10
22.3284581426
 20
5.9233920863
 11
10.3284581426
 21
5.9233920863
  0
LINE
  5
21B
100
AcDbEntity
  8
0
100
AcDbLine
 62
7
  6
BYLAYER
 10
22.6784581426
 20
6.9233920863
 11
9.9784581426
 21
6.9233920863
  0
LINE
  5
21C
100
AcDbEntity
  8
0
100
AcDbLine
 62
7
  6
BYLAYER
 10
9.9784581426
 20
8.0733920863
 11
22.6784581426
 21
8.0733920863
  0
LINE
  5
21D
100
AcDbEntity
  8
0
100
AcDbLine
 62
7
  6
BYLAYER
 10
23.0284581426
 20
9.4133920863
 11
9.6284581426
 21
9.4133920863
  0
LINE
  5
21E
100
AcDbEntity
  8
0
100
AcDbLine
 62
7
  6
BYLAYER
 10
24.3284581426
 20
11.5233920863
 11
8.3284581426
 21
11.5233920863
  0
LINE
  5
21F
100
AcDbEntity
  8
0
100
AcDbLine
 62
7
  6
BYLAYER
 10
8.3284581426
 20
13.9033920863
 11
24.3284581426
 21
13.9033920863
  0
LINE
  5
220
100
AcDbEntity
  8
0
100
AcDbLine
 62
7
  6
BYLAYER
 10
9.5239369981
 20
22.742446913
 11
9.5547514323
 21
22.4399675363
  0
LINE
  5
221
100
AcDbEntity
  8
0
100
AcDbLine
 62
7
  6
BYLAYER
 10
8.3284581426
 20
13.9033920863
 11
8.3284581426
 21
11.5233920863
  0
LINE
  5
222
100
AcDbEntity
  8
0
100
AcDbLine
 62
7
  6
BYLAYER
 10
8.828462291
 20
14.4033920863
 11
23.8284539942
 21
14.4033920863
  0
LINE
  5
223
100
AcDbEntity
  8
0
100
AcDbLine
 62
7
  6
BYLAYER
 10
22.1783833003
 20
14.4533920863
 11
10.4785329849
 21
14.4533920863
  0
LINE
  5
224
100
AcDbEntity
  8
0
100
AcDbLine
 62
7
  6
BYLAYER
 10
10.4784581426
 20
15.1533920863
 11
22.1784581426
 21
15.1533920863
  0
LINE
  5
225
100
AcDbEntity
  8
0
100
AcDbLine
 62
7
  6
BYLAYER
 10
10.8284581426
 20
16.4033920863
 11
10.4784581426
 21
16.7533920863
  0
LINE
  5
226
100
AcDbEntity
  8
0
100
AcDbLine
 62
7
  6
BYLAYER
 10
9.6284581426
 20
9.4133920863
 11
9.6284581426
 21
11.5233920863
  0
LINE
  5
227
100
AcDbEntity
  8
0
100
AcDbLine
 62
7
  6
BYLAYER
 10
9.9784581426
 20
3.7233920863
 11
9.9784581426
 21
5.7233920863
  0
LINE
  5
228
100
AcDbEntity
  8
0
100
AcDbLine
 62
7
  6
BYLAYER
 10
9.9784581426
 20
6.9233920863
 11
9.9784581426
 21
8.0733920863
  0
LINE
  5
229
100
AcDbEntity
  8
0
100
AcDbLine
 62
7
  6
BYLAYER
 10
10.4784581426
 20
14.4533920863
 11
10.4784581426
 21
15.1533920863
  0
LINE
  5
22A
100
AcDbEntity
  8
0
100
AcDbLine
 62
7
  6
BYLAYER
 10
10.4784581426
 20
16.7533920863
 11
10.4784581426
 21
17.9533920863
  0
LINE
  5
22B
100
AcDbEntity
  8
0
100
AcDbLine
 62
7
  6
BYLAYER
 10
10.8284581426
 20
9.4133920863
 11
10.8284581426
 21
8.0733920863
  0
LINE
  5
22C
100
AcDbEntity
  8
0
100
AcDbLine
 62
7
  6
BYLAYER
 10
12.8800248747
 20
28.2307421844
 11
9.7758615575
 21
23.5744972087
  0
LINE
  5
22D
100
AcDbEntity
  8
0
100
AcDbLine
 62
7
  6
BYLAYER
 10
22.3870160267
 20
15.7033920863
 11
16.59279163
 21
15.7033920863
  0
LINE
  5
22E
100
AcDbEntity
  8
0
100
AcDbLine
 62
7
  6
BYLAYER
 10
16.0641246551
 20
15.7033920863
 11
10.3032872603
 21
15.7033920863
  0
LINE
  5
22F
100
AcDbEntity
  8
0
100
AcDbLine
 62
7
  6
BYLAYER
 10
16.074255334
 20
15.7948134401
 11
16.5826277658
 21
15.7948134401
  0
LINE
  5
230
100
AcDbEntity
  8
0
100
AcDbLine
 62
7
  6
BYLAYER
 10
16.5786601099
 20
15.9362347988
 11
16.0782576247
 21
15.9362347988
  0
LINE
  5
231
100
AcDbEntity
  8
0
100
AcDbLine
 62
7
  6
BYLAYER
 10
16.0788684045
 20
15.9705493739
 11
16.5780457652
 21
15.9705493739
  0
LINE
  5
232
100
AcDbEntity
  8
0
100
AcDbLine
 62
7
  6
BYLAYER
 10
16.5778946869
 20
16.1119707326
 11
16.0790230941
 21
16.1119707326
  0
LINE
  5
233
100
AcDbEntity
  8
0
100
AcDbLine
 62
7
  6
BYLAYER
 10
22.3870160267
 20
16.4033920863
 11
16.59279163
 21
16.4033920863
  0
LINE
  5
234
100
AcDbEntity
  8
0
100
AcDbLine
 62
7
  6
BYLAYER
 10
16.0641246551
 20
16.4033920863
 11
10.3032872603
 21
16.4033920863
  0
LINE
  5
235
100
AcDbEntity
  8
0
100
AcDbLine
 62
7
  6
BYLAYER
 10
22.1784581426
 20
16.7533920863
 11
10.4784581426
 21
16.7533920863
  0
LINE
  5
236
100
AcDbEntity
  8
0
100
AcDbLine
 62
7
  6
BYLAYER
 10
10.4784581426
 20
17.9533920863
 11
9.5547514332
 21
22.439967532
  0
LINE
  5
237
100
AcDbEntity
  8
0
100
AcDbLine
 62
7
  6
BYLAYER
 10
11.9284581426
 20
14.4033920863
 11
11.9284581426
 21
14.4533920863
  0
LINE
  5
238
100
AcDbEntity
  8
0
100
AcDbLine
 62
7
  6
BYLAYER
 10
10.4784581426
 20
17.9533920863
 11
22.1784581426
 21
17.9533920863
  0
LINE
  5
239
100
AcDbEntity
  8
0
100
AcDbLine
 62
7
  6
BYLAYER
 10
13.1508903019
 20
11.5233920863
 11
13.1508903019
 21
9.4133920863
  0
LINE
  5
23A
100
AcDbEntity
  8
0
100
AcDbLine
 62
7
  6
BYLAYER
 10
13.2558093743
 20
9.4133920863
 11
13.2558093743
 21
11.5233920863
  0
LINE
  5
23B
100
AcDbEntity
  8
0
100
AcDbLine
 62
7
  6
BYLAYER
 10
13.2800566962
 20
11.5233920863
 11
13.2800566962
 21
9.4133920863
  0
LINE
  5
23C
100
AcDbEntity
  8
0
100
AcDbLine
 62
7
  6
BYLAYER
 10
13.4007387957
 20
11.5233920863
 11
13.4007387957
 21
9.4133920863
  0
LINE
  5
23D
100
AcDbEntity
  8
0
100
AcDbLine
 62
7
  6
BYLAYER
 10
13.5930227431
 20
11.5233920863
 11
13.5930227431
 21
9.4133920863
  0
LINE
  5
23E
100
AcDbEntity
  8
0
100
AcDbLine
 62
7
  6
BYLAYER
 10
13.8020714711
 20
9.4133920863
 11
13.8020714711
 21
11.5233920863
  0
LINE
  5
23F
100
AcDbEntity
  8
0
100
AcDbLine
 62
7
  6
BYLAYER
 10
13.8284581426
 20
28.4533920863
 11
13.8284581426
 21
38.3533920863
  0
LINE
  5
240
100
AcDbEntity
  8
0
100
AcDbLine
 62
7
  6
BYLAYER
 10
14.211912187
 20
11.5233920863
 11
14.211912187
 21
9.4133920863
  0
LINE
  5
241
100
AcDbEntity
  8
0
100
AcDbLine
 62
7
  6
BYLAYER
 10
14.4044623974
 20
9.4133920863
 11
14.4044623974
 21
11.5233920863
  0
LINE
  5
242
100
AcDbEntity
  8
0
100
AcDbLine
 62
7
  6
BYLAYER
 10
14.7857840105
 20
11.5233920863
 11
14.7857840105
 21
9.4133920863
  0
LINE
  5
243
100
AcDbEntity
  8
0
100
AcDbLine
 62
7
  6
BYLAYER
 10
14.9304769503
 20
9.4133920863
 11
14.9304769503
 21
11.5233920863
  0
LINE
  5
244
100
AcDbEntity
  8
0
100
AcDbLine
 62
7
  6
BYLAYER
 10
15.0976345096
 20
11.5233920863
 11
15.0976345096
 21
9.4133920863
  0
LINE
  5
245
100
AcDbEntity
  8
0
100
AcDbLine
 62
7
  6
BYLAYER
 10
15.2594867875
 20
11.5233920863
 11
15.2594867875
 21
9.4133920863
  0
LINE
  5
246
100
AcDbEntity
  8
0
100
AcDbLine
 62
7
  6
BYLAYER
 10
15.4658328801
 20
11.5233920863
 11
15.4658328801
 21
9.4133920863
  0
LINE
  5
247
100
AcDbEntity
  8
0
100
AcDbLine
 62
7
  6
BYLAYER
 10
15.6578253656
 20
9.4133920863
 11
15.6578253656
 21
11.5233920863
  0
LINE
  5
248
100
AcDbEntity
  8
0
100
AcDbLine
 62
7
  6
BYLAYER
 10
15.9565016508
 20
11.5233920863
 11
15.9565016508
 21
9.4133920863
  0
LINE
  5
249
100
AcDbEntity
  8
0
100
AcDbLine
 62
7
  6
BYLAYER
 10
16.1310716479
 20
9.4133920863
 11
16.1310716479
 21
11.5233920863
  0
LINE
  5
24A
100
AcDbEntity
  8
0
100
AcDbLine
 62
7
  6
BYLAYER
 10
9.5547514323
 20
22.4399675363
 11
23.1021648529
 21
22.4399675363
  0
LINE
  5
24B
100
AcDbEntity
  8
0
100
AcDbLine
 62
7
  6
BYLAYER
 10
21.6284581426
 20
15.7033920863
 11
22.1784581426
 21
15.1533920863
  0
LINE
  5
24C
100
AcDbEntity
  8
0
100
AcDbLine
 62
7
  6
BYLAYER
 10
23.8284581426
 20
14.4033920863
 11
24.3284581426
 21
13.9033920863
  0
LINE
  5
24D
100
AcDbEntity
  8
0
100
AcDbLine
 62
7
  6
BYLAYER
 10
16.525844602
 20
11.5233920863
 11
16.525844602
 21
9.4133920863
  0
LINE
  5
24E
100
AcDbEntity
  8
0
100
AcDbLine
 62
7
  6
BYLAYER
 10
16.7004146343
 20
9.4133920863
 11
16.7004146343
 21
11.5233920863
  0
LINE
  5
24F
100
AcDbEntity
  8
0
100
AcDbLine
 62
7
  6
BYLAYER
 10
16.9990909196
 20
11.5233920863
 11
16.9990909196
 21
9.4133920863
  0
LINE
  5
250
100
AcDbEntity
  8
0
100
AcDbLine
 62
7
  6
BYLAYER
 10
17.1910834107
 20
11.5233920863
 11
17.1910834107
 21
9.4133920863
  0
LINE
  5
251
100
AcDbEntity
  8
0
100
AcDbLine
 62
7
  6
BYLAYER
 10
17.3974295032
 20
11.5233920863
 11
17.3974295032
 21
9.4133920863
  0
LINE
  5
252
100
AcDbEntity
  8
0
100
AcDbLine
 62
7
  6
BYLAYER
 10
17.5592817755
 20
9.4133920863
 11
17.5592817755
 21
11.5233920863
  0
LINE
  5
253
100
AcDbEntity
  8
0
100
AcDbLine
 62
7
  6
BYLAYER
 10
17.7264393348
 20
11.5233920863
 11
17.7264393348
 21
9.4133920863
  0
LINE
  5
254
100
AcDbEntity
  8
0
100
AcDbLine
 62
7
  6
BYLAYER
 10
17.8711323985
 20
9.4133920863
 11
17.8711323985
 21
11.5233920863
  0
LINE
  5
255
100
AcDbEntity
  8
0
100
AcDbLine
 62
7
  6
BYLAYER
 10
8.8284581426
 20
14.4033920863
 11
8.3284581426
 21
13.9033920863
  0
LINE
  5
256
100
AcDbEntity
  8
0
100
AcDbLine
 62
7
  6
BYLAYER
 10
11.0284581426
 20
15.7033920863
 11
10.4784581426
 21
15.1533920863
  0
LINE
  5
257
100
AcDbEntity
  8
0
100
AcDbLine
 62
7
  6
BYLAYER
 10
22.8810547277
 20
23.5744972087
 11
9.7758615575
 21
23.5744972087
  0
LINE
  5
258
100
AcDbEntity
  8
0
100
AcDbLine
 62
7
  6
BYLAYER
 10
18.2524536948
 20
11.5233920863
 11
18.2524536948
 21
9.4133920863
  0
LINE
  5
259
100
AcDbEntity
  8
0
100
AcDbLine
 62
7
  6
BYLAYER
 10
18.4450040981
 20
9.4133920863
 11
18.4450040981
 21
11.5233920863
  0
LINE
  5
25A
100
AcDbEntity
  8
0
100
AcDbLine
 62
7
  6
BYLAYER
 10
18.8284581426
 20
28.4533920863
 11
18.8284581426
 21
38.3533920863
  0
LINE
  5
25B
100
AcDbEntity
  8
0
100
AcDbLine
 62
7
  6
BYLAYER
 10
18.8548448141
 20
11.5233920863
 11
18.8548448141
 21
9.4133920863
  0
LINE
  5
25C
100
AcDbEntity
  8
0
100
AcDbLine
 62
7
  6
BYLAYER
 10
19.0638935473
 20
11.5233920863
 11
19.0638935473
 21
9.4133920863
  0
LINE
  5
25D
100
AcDbEntity
  8
0
100
AcDbLine
 62
7
  6
BYLAYER
 10
19.2561774947
 20
11.5233920863
 11
19.2561774947
 21
9.4133920863
  0
LINE
  5
25E
100
AcDbEntity
  8
0
100
AcDbLine
 62
7
  6
BYLAYER
 10
19.3768595889
 20
9.4133920863
 11
19.3768595889
 21
11.5233920863
  0
LINE
  5
25F
100
AcDbEntity
  8
0
100
AcDbLine
 62
7
  6
BYLAYER
 10
19.4011069109
 20
11.5233920863
 11
19.4011069109
 21
9.4133920863
  0
LINE
  5
260
100
AcDbEntity
  8
0
100
AcDbLine
 62
7
  6
BYLAYER
 10
19.5060276726
 20
9.4133920863
 11
19.5060276726
 21
11.5233920863
  0
LINE
  5
261
100
AcDbEntity
  8
0
100
AcDbLine
 62
7
  6
BYLAYER
 10
20.7284581426
 20
14.4033920863
 11
20.7284581426
 21
14.4533920863
  0
LINE
  5
262
100
AcDbEntity
  8
0
100
AcDbLine
 62
7
  6
BYLAYER
 10
21.8284581426
 20
9.4133920863
 11
21.8284581426
 21
8.0733920863
  0
LINE
  5
263
100
AcDbEntity
  8
0
100
AcDbLine
 62
7
  6
BYLAYER
 10
22.1784581426
 20
14.4533920863
 11
22.1784581426
 21
15.1533920863
  0
LINE
  5
264
100
AcDbEntity
  8
0
100
AcDbLine
 62
7
  6
BYLAYER
 10
22.1784581426
 20
16.7533920863
 11
22.1784581426
 21
17.9533920863
  0
LINE
  5
265
100
AcDbEntity
  8
0
100
AcDbLine
 62
7
  6
BYLAYER
 10
22.6784581426
 20
8.0733920863
 11
22.6784581426
 21
6.9233920863
  0
LINE
  5
266
100
AcDbEntity
  8
0
100
AcDbLine
 62
7
  6
BYLAYER
 10
22.6784581426
 20
3.7233920863
 11
22.6784581426
 21
5.7233920863
  0
LINE
  5
267
100
AcDbEntity
  8
0
100
AcDbLine
 62
7
  6
BYLAYER
 10
23.0284581426
 20
11.5233920863
 11
23.0284581426
 21
9.4133920863
  0
LINE
  5
268
100
AcDbEntity
  8
0
100
AcDbLine
 62
7
  6
BYLAYER
 10
23.1329792871
 20
22.742446913
 11
23.1021648529
 21
22.4399675363
  0
LINE
  5
269
100
AcDbEntity
  8
0
100
AcDbLine
 62
7
  6
BYLAYER
 10
22.1784581426
 20
17.9533920863
 11
23.102164852
 21
22.439967532
  0
LINE
  5
26A
100
AcDbEntity
  8
0
100
AcDbLine
 62
7
  6
BYLAYER
 10
12.8800248803
 20
28.2307421929
 11
19.7768914049
 21
28.2307421929
  0
LINE
  5
26B
100
AcDbEntity
  8
0
100
AcDbLine
 62
7
  6
BYLAYER
 10
13.2960528818
 20
28.4533920863
 11
19.3608634033
 21
28.4533920863
  0
LINE
  5
26C
100
AcDbEntity
  8
0
100
AcDbLine
 62
7
  6
BYLAYER
 10
18.8284581426
 20
28.5033920863
 11
13.8284581426
 21
28.5033920863
  0
LINE
  5
26D
100
AcDbEntity
  8
0
100
AcDbLine
 62
7
  6
BYLAYER
 10
19.7768914105
 20
28.2307421844
 11
22.8810547277
 21
23.5744972087
  0
LINE
  5
26E
100
AcDbEntity
  8
0
100
AcDbLine
 62
7
  6
BYLAYER
 10
24.3284581426
 20
11.5233920863
 11
24.3284581426
 21
13.9033920863
  0
LINE
  5
26F
100
AcDbEntity
  8
0
100
AcDbLine
 62
7
  6
BYLAYER
 10
21.8284581426
 20
16.4033920863
 11
22.1784581426
 21
16.7533920863
  0
LINE
  5
270
100
AcDbEntity
  8
0
100
AcDbLine
 62
7
  6
BYLAYER
 10
17.2147851203
 20
35.9096754462
 11
17.5742399501
 21
35.9730570311
  0
LINE
  5
271
100
AcDbEntity
  8
0
100
AcDbLine
 62
7
  6
BYLAYER
 10
17.2147851203
 20
35.5971087264
 11
17.5666060534
 21
35.5350732035
  0
LINE
  5
272
100
AcDbEntity
  8
0
100
AcDbLine
 62
7
  6
BYLAYER
 10
13.8284581426
 20
38.1533920863
 11
18.8284581426
 21
38.1533920863
  0
LINE
  5
273
100
AcDbEntity
  8
0
100
AcDbLine
 62
7
  6
BYLAYER
 10
13.8284581426
 20
38.3533920863
 11
18.8284581426
 21
38.3533920863
  0
ARC
  5
274
100
AcDbEntity
  8
0
100
AcDbCircle
 62
7
  6
BYLAYER
 10
10.3284581426
 20
6.4233920863
 40
0.5
100
AcDbArc
 50
90.0
 51
270.0
  0
ARC
  5
275
100
AcDbEntity
  8
0
100
AcDbCircle
 62
7
  6
BYLAYER
 10
10.4784581426
 20
3.7233920863
 40
0.5
100
AcDbArc
 50
180.0
 51
270.0
  0
ARC
  5
276
100
AcDbEntity
  8
0
100
AcDbCircle
 62
7
  6
BYLAYER
 10
10.2684581426
 20
16.0533920863
 40
0.35
100
AcDbArc
 50
90.0
 51
270.0
  0
ARC
  5
277
100
AcDbEntity
  8
0
100
AcDbCircle
 62
7
  6
BYLAYER
 10
10.4284581426
 20
6.0233920863
 40
0.3
100
AcDbArc
 50
270.0000900955
 51
342.9869861355
  0
ARC
  5
278
100
AcDbEntity
  8
0
100
AcDbCircle
 62
7
  6
BYLAYER
 10
11.0239369981
 20
22.742446913
 40
1.5
100
AcDbArc
 50
146.309932474
 51
180.0
  0
ARC
  5
279
100
AcDbEntity
  8
0
100
AcDbCircle
 62
7
  6
BYLAYER
 10
13.2960500218
 20
27.9533920863
 40
0.5
100
AcDbArc
 50
90.0
 51
146.3099313093
  0
ARC
  5
27A
100
AcDbEntity
  8
0
100
AcDbCircle
 62
7
  6
BYLAYER
 10
22.3284581426
 20
6.4233920863
 40
0.5
100
AcDbArc
 50
270.0
 51
90.0
  0
ARC
  5
27B
100
AcDbEntity
  8
0
100
AcDbCircle
 62
7
  6
BYLAYER
 10
22.1784581426
 20
3.7233920863
 40
0.5
100
AcDbArc
 50
270.0
 51
360.0
  0
ARC
  5
27C
100
AcDbEntity
  8
0
100
AcDbCircle
 62
7
  6
BYLAYER
 10
22.3884581426
 20
16.0533920863
 40
0.35
100
AcDbArc
 50
270.0
 51
90.0
  0
ARC
  5
27D
100
AcDbEntity
  8
0
100
AcDbCircle
 62
7
  6
BYLAYER
 10
22.2284581426
 20
6.0233920863
 40
0.3
100
AcDbArc
 50
197.0130138645
 51
269.9999099045
  0
ARC
  5
27E
100
AcDbEntity
  8
0
100
AcDbCircle
 62
7
  6
BYLAYER
 10
16.3284581426
 20
35.7183920863
 40
5.8
100
AcDbArc
 50
299.6341749276
 51
240.3658250724
  0
ARC
  5
27F
100
AcDbEntity
  8
0
100
AcDbCircle
 62
7
  6
BYLAYER
 10
16.3284581426
 20
35.7183920863
 40
5.6
100
AcDbArc
 50
300.5392651802
 51
239.4502713097
  0
ARC
  5
280
100
AcDbEntity
  8
0
100
AcDbCircle
 62
7
  6
BYLAYER
 10
21.6329792871
 20
22.742446913
 40
1.5
100
AcDbArc
 50
0.0
 51
33.690067526
  0
ARC
  5
281
100
AcDbEntity
  8
0
100
AcDbCircle
 62
7
  6
BYLAYER
 10
16.3284581426
 20
35.7183920863
 40
1.31
100
AcDbArc
 50
59.5954490421
 51
71.9238747795
  0
ARC
  5
282
100
AcDbEntity
  8
0
100
AcDbCircle
 62
7
  6
BYLAYER
 10
16.3284581426
 20
35.7183920863
 40
1.31
100
AcDbArc
 50
79.4433258186
 51
120.4045509579
  0
ARC
  5
283
100
AcDbEntity
  8
0
100
AcDbCircle
 62
7
  6
BYLAYER
 10
16.3284581426
 20
35.7533920863
 40
1.265
100
AcDbArc
 50
10.0
 51
18.3484453187
  0
ARC
  5
284
100
AcDbEntity
  8
0
100
AcDbCircle
 62
7
  6
BYLAYER
 10
16.3284581426
 20
35.7533920863
 40
1.265
100
AcDbArc
 50
30.78618514
 51
70.1088811802
  0
ARC
  5
285
100
AcDbEntity
  8
0
100
AcDbCircle
 62
7
  6
BYLAYER
 10
16.3284581426
 20
35.7533920863
 40
1.265
100
AcDbArc
 50
74.2234394446
 51
107.644468023
  0
ARC
  5
286
100
AcDbEntity
  8
0
100
AcDbCircle
 62
7
  6
BYLAYER
 10
16.3284581426
 20
35.7533920863
 40
1.265
100
AcDbArc
 50
112.5570222147
 51
143.6269053844
  0
ARC
  5
287
100
AcDbEntity
  8
0
100
AcDbCircle
 62
7
  6
BYLAYER
 10
16.3284581426
 20
35.7533920863
 40
1.265
100
AcDbArc
 50
163.8327946094
 51
179.101600575
  0
CIRCLE
  5
288
100
AcDbEntity
  8
0
100
AcDbCircle
 62
7
  6
BYLAYER
 10
16.3284581426
 20
35.7733920863
 40
1.265
  0
ARC
  5
289
100
AcDbEntity
  8
0
100
AcDbCircle
 62
7
  6
BYLAYER
 10
16.3284581426
 20
35.7533920863
 40
1.0340598923
100
AcDbArc
 50
10.0
 51
350.0
  0
ARC
  5
28A
100
AcDbEntity
  8
0
100
AcDbCircle
 62
7
  6
BYLAYER
 10
16.3284581426
 20
35.7533920863
 40
0.9
100
AcDbArc
 50
10.0
 51
350.0
  0
ARC
  5
28B
100
AcDbEntity
  8
0
100
AcDbCircle
 62
7
  6
BYLAYER
 10
19.3608662633
 20
27.9533920863
 40
0.5
100
AcDbArc
 50
33.6900686907
 51
90.0
  0
SPLINE
  5
28C
100
AcDbEntity
  8
0
100
AcDbSpline
 62
7
  6
BYLAYER
 70
0
 71
3
 72
24
 73
20
 74
0
 42
0.0000001
 43
0.0000001
 44
0.0000000001
 40
0.0
 40
0.0
 40
0.0
 40
0.0
 40
0.1942716157
 40
0.3813332505
 40
0.553588201
 40
0.6321420007
 40
0.7046520032
 40
0.7703967984
 40
0.828727981
 40
0.8791300735
 40
0.9211085446
 40
0.9542754875
 40
0.9674810084
 40
0.9784028053
 40
0.9870279395
 40
0.9933717057
 40
0.9957192559
 40
0.9975548303
 40
1.0
 40
1.0
 40
1.0
 40
1.0
 10
16.0793914407
 20
16.0533920863
 30
0.0
 10
16.0793914407
 20
16.0761412587
 30
0.0
 10
16.0792024682
 20
16.120795579
 30
0.0
 10
16.0783629004
 20
16.1856160116
 30
0.0
 10
16.0771975504
 20
16.2368784932
 30
0.0
 10
16.0759820962
 20
16.2747198009
 30
0.0
 10
16.0749879063
 20
16.3000888187
 30
0.0
 10
16.0738935201
 20
16.3230833266
 30
0.0
 10
16.0727086381
 20
16.3434806909
 30
0.0
 10
16.0714508726
 20
16.3610850019
 30
0.0
 10
16.0701319794
 20
16.3757279926
 30
0.0
 10
16.0689306855
 20
16.3860067583
 30
0.0
 10
16.0679027579
 20
16.3926375603
 30
0.0
 10
16.0671893873
 20
16.3964069193
 30
0.0
 10
16.0664709695
 20
16.3993546923
 30
0.0
 10
16.0658407533
 20
16.4012843437
 30
0.0
 10
16.0652887536
 20
16.4023973156
 30
0.0
 10
16.0648698466
 20
16.4030334609
 30
0.0
 10
16.064410984
 20
16.4033842199
 30
0.0
 10
16.064124655
 20
16.4033842889
 30
0.0
  0
SPLINE
  5
28D
100
AcDbEntity
  8
0
100
AcDbSpline
 62
7
  6
BYLAYER
 70
0
 71
3
 72
24
 73
20
 74
0
 42
0.0000001
 43
0.0000001
 44
0.0000000001
 40
0.0
 40
0.0
 40
0.0
 40
0.0
 40
0.1942716157
 40
0.3813332505
 40
0.553588201
 40
0.6321420007
 40
0.7046520032
 40
0.7703967984
 40
0.828727981
 40
0.8791300735
 40
0.9211085446
 40
0.9542754875
 40
0.9674810084
 40
0.9784028053
 40
0.9870279395
 40
0.9933717057
 40
0.9957192559
 40
0.9975548303
 40
1.0
 40
1.0
 40
1.0
 40
1.0
 10
16.5775248444
 20
16.0533920863
 30
0.0
 10
16.5775248444
 20
16.0306429139
 30
0.0
 10
16.5777138169
 20
15.9859885937
 30
0.0
 10
16.5785533848
 20
15.921168161
 30
0.0
 10
16.5797187348
 20
15.8699056795
 30
0.0
 10
16.5809341889
 20
15.8320643717
 30
0.0
 10
16.5819283788
 20
15.806695354
 30
0.0
 10
16.5830227651
 20
15.7837008461
 30
0.0
 10
16.5842076471
 20
15.7633034818
 30
0.0
 10
16.5854654126
 20
15.7456991708
 30
0.0
 10
16.5867843058
 20
15.73105618
 30
0.0
 10
16.5879855996
 20
15.7207774143
 30
0.0
 10
16.5890135273
 20
15.7141466124
 30
0.0
 10
16.5897268978
 20
15.7103772534
 30
0.0
 10
16.5904453157
 20
15.7074294804
 30
0.0
 10
16.5910755318
 20
15.7054998289
 30
0.0
 10
16.5916275315
 20
15.7043868571
 30
0.0
 10
16.5920464386
 20
15.7037507117
 30
0.0
 10
16.5925053012
 20
15.7033999527
 30
0.0
 10
16.5927916301
 20
15.7033998838
 30
0.0
  0
SPLINE
  5
28E
100
AcDbEntity
  8
0
100
AcDbSpline
 62
7
  6
BYLAYER
 70
0
 71
3
 72
24
 73
20
 74
0
 42
0.0000001
 43
0.0000001
 44
0.0000000001
 40
0.0
 40
0.0
 40
0.0
 40
0.0
 40
0.0024446289
 40
0.0042799584
 40
0.006627504
 40
0.0129724637
 40
0.0215981225
 40
0.0325185831
 40
0.0457218334
 40
0.0788852592
 40
0.1208636987
 40
0.1712620713
 40
0.229591461
 40
0.295338544
 40
0.3678489343
 40
0.4464039232
 40
0.6186660388
 40
0.8057327768
 40
1.0
 40
1.0
 40
1.0
 40
1.0
 10
16.0641246553
 20
15.7033998838
 30
0.0
 10
16.064410921
 20
15.7033998149
 30
0.0
 10
16.064869864
 20
15.7037503786
 30
0.0
 10
16.0652887273
 20
15.7043864477
 30
0.0
 10
16.0658407564
 20
15.7054995322
 30
0.0
 10
16.06647079
 20
15.7074294608
 30
0.0
 10
16.0671892015
 20
15.7103772708
 30
0.0
 10
16.0679025916
 20
15.7141462627
 30
0.0
 10
16.0689305501
 20
15.7207762169
 30
0.0
 10
16.0701318336
 20
15.7310543054
 30
0.0
 10
16.0714505282
 20
15.7456964631
 30
0.0
 10
16.0727084662
 20
15.763300116
 30
0.0
 10
16.0738933722
 20
15.783697109
 30
0.0
 10
16.0749876959
 20
15.806691731
 30
0.0
 10
16.0759820056
 20
15.8320612056
 30
0.0
 10
16.0771975194
 20
15.8699035491
 30
0.0
 10
16.07836288
 20
15.9211676244
 30
0.0
 10
16.0792024624
 20
15.9859890016
 30
0.0
 10
16.0793914407
 20
16.0306434204
 30
0.0
 10
16.0793914407
 20
16.0533920863
 30
0.0
  0
SPLINE
  5
28F
100
AcDbEntity
  8
0
100
AcDbSpline
 62
7
  6
BYLAYER
 70
0
 71
3
 72
24
 73
20
 74
0
 42
0.0000001
 43
0.0000001
 44
0.0000000001
 40
0.0
 40
0.0
 40
0.0
 40
0.0
 40
0.0024446289
 40
0.0042799584
 40
0.006627504
 40
0.0129724637
 40
0.0215981225
 40
0.0325185831
 40
0.0457218334
 40
0.0788852592
 40
0.1208636987
 40
0.1712620713
 40
0.229591461
 40
0.295338544
 40
0.3678489343
 40
0.4464039232
 40
0.6186660388
 40
0.8057327768
 40
1.0
 40
1.0
 40
1.0
 40
1.0
 10
16.5927916299
 20
16.4033842889
 30
0.0
 10
16.5925053642
 20
16.4033843578
 30
0.0
 10
16.5920464212
 20
16.403033794
 30
0.0
 10
16.5916275578
 20
16.402397725
 30
0.0
 10
16.5910755287
 20
16.4012846405
 30
0.0
 10
16.5904454952
 20
16.3993547118
 30
0.0
 10
16.5897270836
 20
16.3964069018
 30
0.0
 10
16.5890136935
 20
16.3926379099
 30
0.0
 10
16.587985735
 20
16.3860079557
 30
0.0
 10
16.5867844515
 20
16.3757298672
 30
0.0
 10
16.585465757
 20
16.3610877096
 30
0.0
 10
16.5842078189
 20
16.3434840566
 30
0.0
 10
16.583022913
 20
16.3230870636
 30
0.0
 10
16.5819285893
 20
16.3000924417
 30
0.0
 10
16.5809342796
 20
16.2747229671
 30
0.0
 10
16.5797187658
 20
16.2368806236
 30
0.0
 10
16.5785534052
 20
16.1856165483
 30
0.0
 10
16.5777138227
 20
16.1207951711
 30
0.0
 10
16.5775248444
 20
16.0761407522
 30
0.0
 10
16.5775248444
 20
16.0533920863
 30
0.0
  0
SPLINE
  5
290
100
AcDbEntity
  8
0
100
AcDbSpline
 62
7
  6
BYLAYER
 70
0
 71
3
 72
24
 73
20
 74
0
 42
0.0000001
 43
0.0000001
 44
0.0000000001
 40
0.0
 40
0.0
 40
0.0
 40
0.0
 40
0.1942716157
 40
0.3813332505
 40
0.553588201
 40
0.6321420007
 40
0.7046520032
 40
0.7703967984
 40
0.828727981
 40
0.8791300735
 40
0.9211085446
 40
0.9542754875
 40
0.9674810084
 40
0.9784028053
 40
0.9870279395
 40
0.9933717057
 40
0.9957192559
 40
0.9975548303
 40
1.0
 40
1.0
 40
1.0
 40
1.0
 10
16.0488578696
 20
16.0533920863
 30
0.0
 10
16.0488578696
 20
16.0306429139
 30
0.0
 10
16.0490468421
 20
15.9859885937
 30
0.0
 10
16.0498864099
 20
15.921168161
 30
0.0
 10
16.0510517599
 20
15.8699056795
 30
0.0
 10
16.0522672141
 20
15.8320643717
 30
0.0
 10
16.053261404
 20
15.806695354
 30
0.0
 10
16.0543557902
 20
15.7837008461
 30
0.0
 10
16.0555406722
 20
15.7633034818
 30
0.0
 10
16.0567984377
 20
15.7456991708
 30
0.0
 10
16.0581173309
 20
15.73105618
 30
0.0
 10
16.0593186248
 20
15.7207774143
 30
0.0
 10
16.0603465524
 20
15.7141466124
 30
0.0
 10
16.061059923
 20
15.7103772534
 30
0.0
 10
16.0617783408
 20
15.7074294804
 30
0.0
 10
16.062408557
 20
15.7054998289
 30
0.0
 10
16.0629605566
 20
15.7043868571
 30
0.0
 10
16.0633794637
 20
15.7037507117
 30
0.0
 10
16.0638383263
 20
15.7033999527
 30
0.0
 10
16.0641246553
 20
15.7033998838
 30
0.0
  0
SPLINE
  5
291
100
AcDbEntity
  8
0
100
AcDbSpline
 62
7
  6
BYLAYER
 70
0
 71
3
 72
24
 73
20
 74
0
 42
0.0000001
 43
0.0000001
 44
0.0000000001
 40
0.0
 40
0.0
 40
0.0
 40
0.0
 40
0.0024446289
 40
0.0042799584
 40
0.006627504
 40
0.0129724638
 40
0.0215981225
 40
0.0325185831
 40
0.0457218334
 40
0.0788852592
 40
0.1208636987
 40
0.1712620713
 40
0.229591461
 40
0.295338544
 40
0.3678489343
 40
0.4464039232
 40
0.6186660388
 40
0.8057327768
 40
1.0
 40
1.0
 40
1.0
 40
1.0
 10
16.5927916301
 20
15.7033998838
 30
0.0
 10
16.5930778958
 20
15.7033998149
 30
0.0
 10
16.5935368389
 20
15.7037503786
 30
0.0
 10
16.5939557022
 20
15.7043864477
 30
0.0
 10
16.5945077313
 20
15.7054995322
 30
0.0
 10
16.5951377649
 20
15.7074294608
 30
0.0
 10
16.5958561764
 20
15.7103772708
 30
0.0
 10
16.5965695665
 20
15.7141462627
 30
0.0
 10
16.597597525
 20
15.7207762169
 30
0.0
 10
16.5987988085
 20
15.7310543054
 30
0.0
 10
16.600117503
 20
15.7456964631
 30
0.0
 10
16.6013754411
 20
15.763300116
 30
0.0
 10
16.602560347
 20
15.783697109
 30
0.0
 10
16.6036546707
 20
15.806691731
 30
0.0
 10
16.6046489805
 20
15.8320612056
 30
0.0
 10
16.6058644943
 20
15.8699035491
 30
0.0
 10
16.6070298548
 20
15.9211676244
 30
0.0
 10
16.6078694373
 20
15.9859890016
 30
0.0
 10
16.6080584156
 20
16.0306434204
 30
0.0
 10
16.6080584156
 20
16.0533920863
 30
0.0
  0
SPLINE
  5
292
100
AcDbEntity
  8
0
100
AcDbSpline
 62
7
  6
BYLAYER
 70
0
 71
3
 72
24
 73
20
 74
0
 42
0.0000001
 43
0.0000001
 44
0.0000000001
 40
0.0
 40
0.0
 40
0.0
 40
0.0
 40
0.1942716157
 40
0.3813332505
 40
0.553588201
 40
0.6321420007
 40
0.7046520032
 40
0.7703967984
 40
0.828727981
 40
0.8791300735
 40
0.9211085446
 40
0.9542754875
 40
0.9674810084
 40
0.9784028053
 40
0.9870279395
 40
0.9933717057
 40
0.9957192559
 40
0.9975548303
 40
1.0
 40
1.0
 40
1.0
 40
1.0
 10
16.6080584156
 20
16.0533920863
 30
0.0
 10
16.6080584156
 20
16.0761412587
 30
0.0
 10
16.6078694431
 20
16.120795579
 30
0.0
 10
16.6070298752
 20
16.1856160116
 30
0.0
 10
16.6058645252
 20
16.2368784932
 30
0.0
 10
16.6046490711
 20
16.2747198009
 30
0.0
 10
16.6036548812
 20
16.3000888187
 30
0.0
 10
16.602560495
 20
16.3230833266
 30
0.0
 10
16.6013756129
 20
16.3434806909
 30
0.0
 10
16.6001178474
 20
16.3610850019
 30
0.0
 10
16.5987989543
 20
16.3757279926
 30
0.0
 10
16.5975976604
 20
16.3860067583
 30
0.0
 10
16.5965697327
 20
16.3926375603
 30
0.0
 10
16.5958563622
 20
16.3964069193
 30
0.0
 10
16.5951379443
 20
16.3993546923
 30
0.0
 10
16.5945077282
 20
16.4012843437
 30
0.0
 10
16.5939557285
 20
16.4023973156
 30
0.0
 10
16.5935368215
 20
16.4030334609
 30
0.0
 10
16.5930779588
 20
16.4033842199
 30
0.0
 10
16.5927916299
 20
16.4033842889
 30
0.0
  0
SPLINE
  5
293
100
AcDbEntity
  8
0
100
AcDbSpline
 62
7
  6
BYLAYER
 70
0
 71
3
 72
24
 73
20
 74
0
 42
0.0000001
 43
0.0000001
 44
0.0000000001
 40
0.0
 40
0.0
 40
0.0
 40
0.0
 40
0.0024446289
 40
0.0042799584
 40
0.006627504
 40
0.0129724637
 40
0.0215981225
 40
0.0325185831
 40
0.0457218334
 40
0.0788852592
 40
0.1208636987
 40
0.1712620713
 40
0.229591461
 40
0.295338544
 40
0.3678489343
 40
0.4464039232
 40
0.6186660388
 40
0.8057327768
 40
1.0
 40
1.0
 40
1.0
 40
1.0
 10
16.064124655
 20
16.4033842889
 30
0.0
 10
16.0638383893
 20
16.4033843578
 30
0.0
 10
16.0633794463
 20
16.403033794
 30
0.0
 10
16.062960583
 20
16.402397725
 30
0.0
 10
16.0624085539
 20
16.4012846405
 30
0.0
 10
16.0617785203
 20
16.3993547118
 30
0.0
 10
16.0610601088
 20
16.3964069018
 30
0.0
 10
16.0603467187
 20
16.3926379099
 30
0.0
 10
16.0593187602
 20
16.3860079557
 30
0.0
 10
16.0581174767
 20
16.3757298672
 30
0.0
 10
16.0567987821
 20
16.3610877096
 30
0.0
 10
16.055540844
 20
16.3434840566
 30
0.0
 10
16.0543559381
 20
16.3230870636
 30
0.0
 10
16.0532616144
 20
16.3000924417
 30
0.0
 10
16.0522673047
 20
16.2747229671
 30
0.0
 10
16.0510517909
 20
16.2368806236
 30
0.0
 10
16.0498864303
 20
16.1856165483
 30
0.0
 10
16.0490468479
 20
16.1207951711
 30
0.0
 10
16.0488578696
 20
16.0761407522
 30
0.0
 10
16.0488578696
 20
16.0533920863
 30
0.0
  0
SPLINE
  5
294
100
AcDbEntity
  8
0
100
AcDbSpline
 62
7
  6
BYLAYER
 70
0
 71
3
 72
29
 73
25
 74
0
 42
0.0000001
 43
0.0000001
 44
0.0000000001
 40
0.0
 40
0.0
 40
0.0
 40
0.0
 40
0.0315705433
 40
0.0630729851
 40
0.0944614883
 40
0.1257150162
 40
0.1568421246
 40
0.1878718753
 40
0.2497355136
 40
0.3117323064
 40
0.3741030743
 40
0.4369076607
 40
0.5000000071
 40
0.5630923471
 40
0.6258969167
 40
0.6882676638
 40
0.7502644311
 40
0.8121280291
 40
0.8431577561
 40
0.8742848836
 40
0.9055384333
 40
0.9369269972
 40
0.9684294678
 40
1.0
 40
1.0
 40
1.0
 40
1.0
 10
16.3284581426
 20
37.6383920863
 30
0.0
 10
16.2724936177
 20
37.6383920863
 30
0.0
 10
16.1605332588
 20
37.6306388913
 30
0.0
 10
15.9961482545
 20
37.5963028292
 30
0.0
 10
15.8382538491
 20
37.5408217256
 30
0.0
 10
15.6891889311
 20
37.4663590233
 30
0.0
 10
15.5504602994
 20
37.375281638
 30
0.0
 10
15.380726926
 20
37.2349837804
 30
0.0
 10
15.1970928105
 20
37.0283286235
 30
0.0
 10
15.0250887601
 20
36.7447209267
 30
0.0
 10
14.9013971458
 20
36.4353128592
 30
0.0
 10
14.8266741541
 20
36.1087249301
 30
0.0
 10
14.8016460117
 20
35.77339206
 30
0.0
 10
14.8266741773
 20
35.4380592224
 30
0.0
 10
14.9013971435
 20
35.1114713702
 30
0.0
 10
15.0250886849
 20
34.8020633937
 30
0.0
 10
15.1970926296
 20
34.5184558182
 30
0.0
 10
15.380726567
 20
34.3118007145
 30
0.0
 10
15.55045986
 20
34.1715028886
 30
0.0
 10
15.689188457
 20
34.0804253926
 30
0.0
 10
15.8382535336
 20
34.0059626026
 30
0.0
 10
15.9961481026
 20
33.9504813664
 30
0.0
 10
16.1605332488
 20
33.9161452915
 30
0.0
 10
16.2724936374
 20
33.9083920863
 30
0.0
 10
16.3284581426
 20
33.9083920863
 30
0.0
  0
SPLINE
  5
295
100
AcDbEntity
  8
0
100
AcDbSpline
 62
7
  6
BYLAYER
 70
0
 71
3
 72
29
 73
25
 74
0
 42
0.0000001
 43
0.0000001
 44
0.0000000001
 40
0.0
 40
0.0
 40
0.0
 40
0.0
 40
0.0315705056
 40
0.0630729034
 40
0.0944613777
 40
0.1257149034
 40
0.1568420183
 40
0.1878717745
 40
0.2497354127
 40
0.3117322056
 40
0.3741029826
 40
0.4369075755
 40
0.4999999271
 40
0.5630922825
 40
0.62589688
 40
0.6882676349
 40
0.7502643805
 40
0.8121279746
 40
0.8431577038
 40
0.8742848428
 40
0.9055384069
 40
0.9369269964
 40
0.9684294748
 40
1.0
 40
1.0
 40
1.0
 40
1.0
 10
16.3284581426
 20
33.9083920863
 30
0.0
 10
16.3844226005
 20
33.9083920863
 30
0.0
 10
16.4963828166
 20
33.9161452488
 30
0.0
 10
16.6607676252
 20
33.9504812686
 30
0.0
 10
16.818661947
 20
34.0059622067
 30
0.0
 10
16.967726835
 20
34.080424874
 30
0.0
 10
17.1064555368
 20
34.171502182
 30
0.0
 10
17.2761889568
 20
34.3118000198
 30
0.0
 10
17.4598231565
 20
34.5184551106
 30
0.0
 10
17.6318273004
 20
34.8020627733
 30
0.0
 10
17.7555189901
 20
35.1114708412
 30
0.0
 10
17.8302420573
 20
35.4380587908
 30
0.0
 10
17.8552702755
 20
35.7733917035
 30
0.0
 10
17.8302421711
 20
36.1087246332
 30
0.0
 10
17.7555192205
 20
36.4353125843
 30
0.0
 10
17.631827686
 20
36.7447205907
 30
0.0
 10
17.4598237919
 20
37.0283281565
 30
0.0
 10
17.2761899216
 20
37.2349832642
 30
0.0
 10
17.1064566365
 20
37.3752811267
 30
0.0
 10
16.9677280143
 20
37.466358675
 30
0.0
 10
16.8186628648
 20
37.5408215252
 30
0.0
 10
16.6607682166
 20
37.5963027938
 30
0.0
 10
16.4963830255
 20
37.6306388841
 30
0.0
 10
16.3844226354
 20
37.6383920863
 30
0.0
 10
16.3284581426
 20
37.6383920863
 30
0.0
  0
ENDSEC
  0
SECTION
  2
OBJECTS
  0
DICTIONARY
  5
C
100
AcDbDictionary
280
0
281
1
  3
ACAD_GROUP
350
D
  3
ACAD_MLINESTYLE
350
17
  3
ACAD_LAYOUT
350
1A
  3
ACAD_PLOTSETTINGS
350
19
  3
ACAD_PLOTSTYLENAME
350
E
  0
DICTIONARY
  5
D
102
{ACAD_REACTORS
330
C
102
}
100
AcDbDictionary
280
0
281
1
  0
ACDBDICTIONARYWDFLT
  5
E
102
{ACAD_REACTORS
330
C
102
}
100
AcDbDictionary
281
1
  3
Normal
350
F
100
AcDbDictionaryWithDefault
340
F
  0
DICTIONARY
  5
17
102
{ACAD_REACTORS
330
C
102
}
100
AcDbDictionary
280
0
281
1
  3
Standard
350
18
  0
DICTIONARY
  5
19
102
{ACAD_REACTORS
330
C
102
}
100
AcDbDictionary
281
1
  0
DICTIONARY
  5
1A
102
{ACAD_REACTORS
330
C
102
}
100
AcDbDictionary
281
1
  3
Model
350
296
  3
Layout1
350
297
  0
ACDBPLACEHOLDER
  5
F
102
{ACAD_REACTORS
330
E
102
}
  0
MLINESTYLE
  5
18
102
{ACAD_REACTORS
330
17
102
}
100
AcDbMlineStyle
  2
STANDARD
 70
0
  3

 62
256
 51
90.0
 52
90.0
 71
2
 49
0.5
 62
256
  6
BYLAYER
 49
-0.5
 62
256
  6
BYLAYER
  0
LAYOUT
  5
296
102
{ACAD_REACTORS
330
1A
102
}
100
AcDbPlotSettings
  1

  2
none_device
  4

  6

 40
0.0
 41
0.0
 42
0.0
 43
0.0
 44
210.0
 45
297.0
 46
0.0
 47
0.0
 48
0.0
 49
0.0
140
0.0
141
0.0
142
1.0
143
1.0
 70
1024
 72
1
 73
0
 74
0
  7

 75
0
147
1.0
148
0.0
149
0.0
100
AcDbLayout
  1
Model
 70
0
 71
0
 10
0.0
 20
0.0
 11
210.0
 21
297.0
 12
0.0
 22
0.0
 32
0.0
 14
0.0
 24
0.0
 34
0.0
 15
0.0
 25
0.0
 35
0.0
146
0.0
 13
0.0
 23
0.0
 33
0.0
 16
1.0
 26
0.0
 36
0.0
 17
0.0
 27
1.0
 37
0.0
 76
0
330
210
345
0
346
0
  0
LAYOUT
  5
297
102
{ACAD_REACTORS
330
1A
102
}
100
AcDbPlotSettings
  1

  2
none_device
  4

  6

 40
0.0
 41
0.0
 42
0.0
 43
0.0
 44
210.0
 45
297.0
 46
0.0
 47
0.0
 48
0.0
 49
0.0
140
0.0
141
0.0
142
1.0
143
1.0
 70
0
 72
1
 73
0
 74
0
  7

 75
0
147
1.0
148
0.0
149
0.0
100
AcDbLayout
  1
Layout1
 70
0
 71
1
 10
0.0
 20
0.0
 11
210.0
 21
297.0
 12
0.0
 22
0.0
 32
0.0
 14
0.0
 24
0.0
 34
0.0
 15
0.0
 25
0.0
 35
0.0
146
0.0
 13
0.0
 23
0.0
 33
0.0
 16
1.0
 26
0.0
 36
0.0
 17
0.0
 27
1.0
 37
0.0
 76
0
330
211
345
0
346
0
  0
ENDSEC
  0
EOF
