999
DXF file: C:\Users\sesa63760\Dev\_Creo\CAD\MCADID0004474_3D-CAD\drw0001_1.dxf
999
Pro/ENGINEER 2019471 by Parametric Technology Corporation
  0
SECTION
  2
HEADER
  9
$ACADVER
  1
AC1024
  9
$DWGCODEPAGE
  3
ANSI_1252
  9
$EXTMAX
 10
70.3941434649
 20
99.5574314718
 30
0.0
  9
$EXTMIN
 10
0.0
 20
0.0
 30
0.0
  9
$LIMMIN
 10
0.0
 20
0.0
  9
$LIMMAX
 10
70.3941434649
 20
99.5574314718
  9
$VIEWCTR
 10
35.1970717325
 20
49.7787157359
  9
$VIEWSIZE
 40
99.5574314718
  9
$CLAYER
  8
0
  9
$LTSCALE
 40
6.4896696071
  9
$CELTYPE
  6
BYLAYER
  9
$DIMSCALE
 40
1.0
  9
$DIMASZ
 40
0.8380255174
  9
$DIMEXO
 40
1.0
  9
$DIMDLI
 40
4.4837717285
  9
$DIMEXE
 40
1.0
  9
$DIMCEN
 40
1.0619459357
  9
$DIMLFAC
 40
1.0
  9
$DIMBLK
  1
_FILLED
  9
$DIMALT
 70
0
  9
$DIMALTF
 40
0.0393700787
  9
$DIMTXT
 40
1.1732357244
  9
$DIMTOL
 70
1
  9
$DIMLIM
 70
0
  9
$DIMTFAC
 40
1.0
  9
$DIMTP
 40
0.01
  9
$DIMTM
 40
0.01
  9
$DIMGAP
 40
0.625
  9
$DIMDSEP
 70
46
  9
$AUNITS
 70
0
  9
$PDMODE
 70
3
  9
$PDSIZE
 40
0.3125
  9
$HANDSEED
  5
266
  9
$TILEMODE
 70
1
  9
$MEASUREMENT
 70
1
  9
$INSUNITS
 70
4
  0
ENDSEC
  0
SECTION
  2
CLASSES
  0
CLASS
  1
ACDBDICTIONARYWDFLT
  2
AcDbDictionaryWithDefault
  3
AutoCAD 2000
 90
0
 91
1
280
0
281
0
  0
CLASS
  1
ACDBPLACEHOLDER
  2
AcDbPlaceHolder
  3
AutoCAD 2000
 90
0
 91
1
280
0
281
0
  0
CLASS
  1
LAYOUT
  2
AcDbLayout
  3
AutoCAD 2000
 90
0
 91
0
280
0
281
0
  0
ENDSEC
  0
SECTION
  2
TABLES
  0
TABLE
  2
VPORT
  5
8
100
AcDbSymbolTable
 70
2
  0
VPORT
  5
1F4
100
AcDbSymbolTableRecord
100
AcDbViewportTableRecord
  2
*ACTIVE
 70
0
 10
0.0
 20
0.0
 11
1.0
 21
1.0
 12
35.1970717325
 22
49.7787157359
 13
0.0
 23
0.0
 14
1.0
 24
1.0
 15
0.0
 25
0.0
 16
0.0
 26
0.0
 36
1.0
 17
0.0
 27
0.0
 37
0.0
 40
99.5574314718
 41
0.7070707071
 42
50.0
 43
0.0
 44
0.0
 50
0.0
 51
0.0
 71
0
 72
100
 73
1
 74
1
 75
0
 76
0
 77
0
 78
0
  0
ENDTAB
  0
TABLE
  2
LTYPE
  5
5
100
AcDbSymbolTable
 70
6
  0
LTYPE
  5
14
100
AcDbSymbolTableRecord
100
AcDbLinetypeTableRecord
  2
BYBLOCK
 70
0
  3

 72
65
 73
0
 40
0.0
  0
LTYPE
  5
15
100
AcDbSymbolTableRecord
100
AcDbLinetypeTableRecord
  2
BYLAYER
 70
0
  3

 72
65
 73
0
 40
0.0
  0
LTYPE
  5
16
100
AcDbSymbolTableRecord
100
AcDbLinetypeTableRecord
  2
CONTINUOUS
 70
64
  3
Solid line
 72
65
 73
0
 40
0.0
  0
LTYPE
  5
1F5
100
AcDbSymbolTableRecord
100
AcDbLinetypeTableRecord
  2
CENTER
 70
64
  3
____ _ ____ _ ____ _ ____ _ ____ _ ____ _ ____
 72
65
 73
4
 40
0.6
 49
0.375
 74
0
 49
-0.075
 74
0
 49
0.075
 74
0
 49
-0.075
 74
0
  0
LTYPE
  5
1F6
100
AcDbSymbolTableRecord
100
AcDbLinetypeTableRecord
  2
HIDDEN
 70
64
  3
- - - - - - - - - - - - - - - - - - - -
 72
65
 73
2
 40
0.2
 49
0.1
 74
0
 49
-0.1
 74
0
  0
LTYPE
  5
1F7
100
AcDbSymbolTableRecord
100
AcDbLinetypeTableRecord
  2
PHANTOM
 70
64
  3
_____ _ _ _____ _ _ _____ _ _ _____
 72
65
 73
6
 40
0.8
 49
0.45
 74
0
 49
-0.05
 74
0
 49
0.1
 74
0
 49
-0.05
 74
0
 49
0.1
 74
0
 49
-0.05
 74
0
  0
LTYPE
  5
1F8
100
AcDbSymbolTableRecord
100
AcDbLinetypeTableRecord
  2
DOT
 70
64
  3
. . . . . . . . . . . . . . . . . . . .
 72
65
 73
2
 40
0.2
 49
0.1
 74
0
 49
-0.1
 74
0
  0
LTYPE
  5
1F9
100
AcDbSymbolTableRecord
100
AcDbLinetypeTableRecord
  2
DASHED
 70
64
  3
- - - - - - - - - - - - - - - - - - - -
 72
65
 73
2
 40
0.2
 49
0.1
 74
0
 49
-0.1
 74
0
  0
ENDTAB
  0
TABLE
  2
LAYER
  5
2
100
AcDbSymbolTable
 70
36
  0
LAYER
  5
10
100
AcDbSymbolTableRecord
100
AcDbLayerTableRecord
  2
0
 70
0
 62
7
  6
CONTINUOUS
370
-3
390
F
  0
LAYER
  5
1FA
100
AcDbSymbolTableRecord
100
AcDbLayerTableRecord
  2
DEFAULT_1
 70
0
 62
7
  6
CENTER
370
-3
390
F
  0
LAYER
  5
1FB
100
AcDbSymbolTableRecord
100
AcDbLayerTableRecord
  2
DEFAULT_2
 70
0
 62
7
  6
HIDDEN
370
-3
390
F
  0
LAYER
  5
1FC
100
AcDbSymbolTableRecord
100
AcDbLayerTableRecord
  2
DEFAULT_3
 70
0
 62
7
  6
PHANTOM
370
-3
390
F
  0
LAYER
  5
1FD
100
AcDbSymbolTableRecord
100
AcDbLayerTableRecord
  2
00_COMPONENTS
 70
0
 62
7
  6
CONTINUOUS
370
-3
390
F
  0
LAYER
  5
1FE
100
AcDbSymbolTableRecord
100
AcDbLayerTableRecord
  2
01_1_DEFAULT_DATUMS
 70
0
 62
7
  6
CONTINUOUS
370
-3
390
F
  0
LAYER
  5
1FF
100
AcDbSymbolTableRecord
100
AcDbLayerTableRecord
  2
01_PLANES
 70
0
 62
7
  6
CONTINUOUS
370
-3
390
F
  0
LAYER
  5
200
100
AcDbSymbolTableRecord
100
AcDbLayerTableRecord
  2
02_COORD_SYS
 70
0
 62
7
  6
CONTINUOUS
370
-3
390
F
  0
LAYER
  5
201
100
AcDbSymbolTableRecord
100
AcDbLayerTableRecord
  2
03_AXES
 70
0
 62
7
  6
CONTINUOUS
370
-3
390
F
  0
LAYER
  5
202
100
AcDbSymbolTableRecord
100
AcDbLayerTableRecord
  2
04_POINTS
 70
0
 62
7
  6
CONTINUOUS
370
-3
390
F
  0
LAYER
  5
203
100
AcDbSymbolTableRecord
100
AcDbLayerTableRecord
  2
05_CURVES
 70
0
 62
7
  6
CONTINUOUS
370
-3
390
F
  0
LAYER
  5
204
100
AcDbSymbolTableRecord
100
AcDbLayerTableRecord
  2
06_SURFS
 70
0
 62
7
  6
CONTINUOUS
370
-3
390
F
  0
LAYER
  5
205
100
AcDbSymbolTableRecord
100
AcDbLayerTableRecord
  2
07_COSMETICS
 70
0
 62
7
  6
CONTINUOUS
370
-3
390
F
  0
LAYER
  5
206
100
AcDbSymbolTableRecord
100
AcDbLayerTableRecord
  2
10_NOTES
 70
0
 62
7
  6
CONTINUOUS
370
-3
390
F
  0
LAYER
  5
207
100
AcDbSymbolTableRecord
100
AcDbLayerTableRecord
  2
11_NOTES_PUB
 70
0
 62
7
  6
CONTINUOUS
370
-3
390
F
  0
LAYER
  5
208
100
AcDbSymbolTableRecord
100
AcDbLayerTableRecord
  2
13_REF_GTOL
 70
0
 62
7
  6
CONTINUOUS
370
-3
390
F
  0
LAYER
  5
209
100
AcDbSymbolTableRecord
100
AcDbLayerTableRecord
  2
16_MISC
 70
0
 62
7
  6
CONTINUOUS
370
-3
390
F
  0
LAYER
  5
20A
100
AcDbSymbolTableRecord
100
AcDbLayerTableRecord
  2
17_NO_PRINT
 70
0
 62
7
  6
CONTINUOUS
370
-3
390
F
  0
LAYER
  5
20B
100
AcDbSymbolTableRecord
100
AcDbLayerTableRecord
  2
18_DATUM_CAMS_JOINTS
 70
0
 62
7
  6
CONTINUOUS
370
-3
390
F
  0
LAYER
  5
20C
100
AcDbSymbolTableRecord
100
AcDbLayerTableRecord
  2
19_DATUM_FUNCTIONAL
 70
0
 62
7
  6
CONTINUOUS
370
-3
390
F
  0
LAYER
  5
20D
100
AcDbSymbolTableRecord
100
AcDbLayerTableRecord
  2
20_DATUM_KINEMATIC_SCHEME
 70
0
 62
7
  6
CONTINUOUS
370
-3
390
F
  0
ENDTAB
  0
TABLE
  2
STYLE
  5
3
100
AcDbSymbolTable
 70
1
  0
STYLE
  5
11
100
AcDbSymbolTableRecord
100
AcDbTextStyleTableRecord
  2
STANDARD
 70
0
 40
0.0
 41
1.0
 50
0.0
 71
0
 42
0.2
  3
ARIAL.TTF
  4

  0
STYLE
  5
20E
100
AcDbSymbolTableRecord
100
AcDbTextStyleTableRecord
  2
TEXTSTYLE_1
 70
0
 40
0.0
 41
0.8
 50
0.0
 71
0
 42
0.2
  3
gdt
  4

  0
ENDTAB
  0
TABLE
  2
VIEW
  5
6
100
AcDbSymbolTable
 70
0
  0
ENDTAB
  0
TABLE
  2
UCS
  5
7
100
AcDbSymbolTable
 70
0
  0
ENDTAB
  0
TABLE
  2
APPID
  5
9
100
AcDbSymbolTable
 70
1
  0
APPID
  5
20F
100
AcDbSymbolTableRecord
100
AcDbRegAppTableRecord
  2
ACAD
 70
0
  0
ENDTAB
  0
TABLE
  2
BLOCK_RECORD
  5
1
100
AcDbSymbolTable
 70
0
  0
BLOCK_RECORD
  5
210
100
AcDbSymbolTableRecord
100
AcDbBlockTableRecord
  2
*Model_Space
  0
BLOCK_RECORD
  5
211
100
AcDbSymbolTableRecord
100
AcDbBlockTableRecord
  2
*Paper_Space
  0
BLOCK_RECORD
  5
212
100
AcDbSymbolTableRecord
100
AcDbBlockTableRecord
  2
_FILLED
  0
ENDTAB
  0
TABLE
  2
DIMSTYLE
  5
A
100
AcDbSymbolTable
 70
1
100
AcDbDimStyleTable
 71
0
  0
DIMSTYLE
105
213
100
AcDbSymbolTableRecord
100
AcDbDimStyleTableRecord
  2
STANDARD
 70
0
  3

  4

 40
1.0
 41
0.8380255174
 42
1.0
 43
0.38
 44
1.0
 45
0.0
 46
0.0
 47
0.01
 48
0.01
140
1.1732357244
141
0.09
142
0.0
143
25.4
144
1.0
145
0.0
146
1.0
147
0.625
 71
1
 72
0
 73
0
 74
0
 75
0
 76
0
 77
1
 78
8
 79
2
170
0
171
1
172
0
173
0
174
0
175
0
176
0
177
0
178
0
270
2
179
2
271
2
272
2
273
2
274
2
275
0
280
0
281
0
282
0
283
1
284
8
285
0
286
0
287
3
288
0
340
11
278
46
341
212
342
212
343
212
344
212
  0
ENDTAB
  0
ENDSEC
  0
SECTION
  2
BLOCKS
  0
BLOCK
  5
20
100
AcDbEntity
  8
0
100
AcDbBlockBegin
  2
*Model_Space
 70
0
 10
0.0
 20
0.0
 30
0.0
  3
*Model_Space
  1

  0
ENDBLK
  5
21
100
AcDbEntity
  8
0
100
AcDbBlockEnd
  0
BLOCK
  5
1C
100
AcDbEntity
  8
0
100
AcDbBlockBegin
  2
*Paper_Space
 70
0
 10
0.0
 20
0.0
 30
0.0
  3
*Paper_Space
  1

  0
ENDBLK
  5
1D
100
AcDbEntity
  8
0
100
AcDbBlockEnd
  0
BLOCK
  5
214
100
AcDbEntity
  8
0
100
AcDbBlockBegin
  2
_FILLED
 70
64
 10
0.0
 20
0.0
  3
_FILLED
  1

  0
SOLID
  5
215
100
AcDbEntity
  8
0
  6
BYBLOCK
 62
0
100
AcDbTrace
 10
0.0
 20
0.0
 11
-1.0
 21
0.25
 12
-1.0
 22
-0.25
 13
-1.0
 23
-0.25
  0
ENDBLK
  5
216
100
AcDbEntity
  8
0
  6
BYBLOCK
 62
0
100
AcDbBlockEnd
  0
ENDSEC
  0
SECTION
  2
ENTITIES
  0
LINE
  5
217
100
AcDbEntity
  8
0
100
AcDbLine
 62
7
  6
BYLAYER
 10
20.8943996156
 20
90.3166938486
 11
8.1665305458
 21
82.9682990789
  0
LINE
  5
218
100
AcDbEntity
  8
0
100
AcDbLine
 62
7
  6
BYLAYER
 10
8.1665305458
 20
33.9781540512
 11
8.1665305458
 21
82.9682990789
  0
LINE
  5
219
100
AcDbEntity
  8
0
100
AcDbLine
 62
7
  6
BYLAYER
 10
50.5931140546
 20
9.48370878
 11
8.1665305458
 21
33.9781540512
  0
LINE
  5
21A
100
AcDbEntity
  8
0
100
AcDbLine
 62
7
  6
BYLAYER
 10
52.4542327243
 20
16.2965402631
 11
51.8776210122
 21
16.6294396591
  0
LINE
  5
21B
100
AcDbEntity
  8
0
100
AcDbLine
 62
7
  6
BYLAYER
 10
52.2901685631
 20
18.7186827834
 11
51.6537698105
 21
19.0860994625
  0
LINE
  5
21C
100
AcDbEntity
  8
0
100
AcDbLine
 62
7
  6
BYLAYER
 10
51.6537698105
 20
19.4773549445
 11
52.2901685631
 21
19.1099382654
  0
LINE
  5
21D
100
AcDbEntity
  8
0
100
AcDbLine
 62
7
  6
BYLAYER
 10
52.4542276026
 20
21.859597869
 11
51.8776210122
 21
22.1924943081
  0
LINE
  5
21E
100
AcDbEntity
  8
0
100
AcDbLine
 62
7
  6
BYLAYER
 10
63.3209831245
 20
65.8222485774
 11
50.5931140546
 21
58.4738538077
  0
LINE
  5
21F
100
AcDbEntity
  8
0
100
AcDbLine
 62
7
  6
BYLAYER
 10
58.5492187603
 20
61.4547758385
 11
55.3648784188
 21
59.6163070593
  0
LINE
  5
220
100
AcDbEntity
  8
0
100
AcDbLine
 62
7
  6
BYLAYER
 10
52.4542327243
 20
46.9153809054
 11
51.8776210122
 21
47.2482803014
  0
LINE
  5
221
100
AcDbEntity
  8
0
100
AcDbLine
 62
7
  6
BYLAYER
 10
52.3551939001
 20
51.1649652732
 11
62.8317007842
 21
57.2135432378
  0
LINE
  5
222
100
AcDbEntity
  8
0
100
AcDbLine
 62
7
  6
BYLAYER
 10
62.8317007842
 20
54.0249993684
 11
52.3551939001
 21
47.9764214038
  0
LINE
  5
223
100
AcDbEntity
  8
0
100
AcDbLine
 62
7
  6
BYLAYER
 10
52.2901685631
 20
49.3375234258
 11
51.6537698105
 21
49.7049401049
  0
LINE
  5
224
100
AcDbEntity
  8
0
100
AcDbLine
 62
7
  6
BYLAYER
 10
51.6537698105
 20
50.0961955868
 11
52.2901685631
 21
49.7287789078
  0
LINE
  5
225
100
AcDbEntity
  8
0
100
AcDbLine
 62
7
  6
BYLAYER
 10
52.4542276026
 20
52.4784385114
 11
51.8776210122
 21
52.8113349505
  0
LINE
  5
226
100
AcDbEntity
  8
0
100
AcDbLine
 62
7
  6
BYLAYER
 10
50.5931140546
 20
58.4738538077
 11
50.5931140546
 21
9.48370878
  0
LINE
  5
227
100
AcDbEntity
  8
0
100
AcDbLine
 62
7
  6
BYLAYER
 10
51.6537698105
 20
50.0961955868
 11
51.6537698105
 21
49.7049401049
  0
LINE
  5
228
100
AcDbEntity
  8
0
100
AcDbLine
 62
7
  6
BYLAYER
 10
51.6537698105
 20
19.4773549445
 11
51.6537698105
 21
19.0860994625
  0
LINE
  5
229
100
AcDbEntity
  8
0
100
AcDbLine
 62
7
  6
BYLAYER
 10
52.2901685631
 20
49.7287789078
 11
52.2901685631
 21
49.3375234258
  0
LINE
  5
22A
100
AcDbEntity
  8
0
100
AcDbLine
 62
7
  6
BYLAYER
 10
52.2901685631
 20
19.1099382654
 11
52.2901685631
 21
18.7186827834
  0
LINE
  5
22B
100
AcDbEntity
  8
0
100
AcDbLine
 62
7
  6
BYLAYER
 10
55.3648784188
 20
44.4700221613
 11
58.5492187603
 21
46.3084909405
  0
LINE
  5
22C
100
AcDbEntity
  8
0
100
AcDbLine
 62
7
  6
BYLAYER
 10
8.1665305458
 20
82.9682990789
 11
50.5931140546
 21
58.4738538077
  0
LINE
  5
22D
100
AcDbEntity
  8
0
100
AcDbLine
 62
7
  6
BYLAYER
 10
62.8967261212
 20
24.8423450915
 11
62.8967261212
 21
25.2336005734
  0
LINE
  5
22E
100
AcDbEntity
  8
0
100
AcDbLine
 62
7
  6
BYLAYER
 10
62.8967261212
 20
55.4611857338
 11
62.8967261212
 21
55.8524412158
  0
LINE
  5
22F
100
AcDbEntity
  8
0
100
AcDbLine
 62
7
  6
BYLAYER
 10
63.3209831245
 20
16.8321035496
 11
63.3209831245
 21
65.8222485774
  0
LINE
  5
230
100
AcDbEntity
  8
0
100
AcDbLine
 62
7
  6
BYLAYER
 10
58.5492187603
 20
30.8359351961
 11
55.3648784188
 21
28.9974664169
  0
LINE
  5
231
100
AcDbEntity
  8
0
100
AcDbLine
 62
7
  6
BYLAYER
 10
63.3209831245
 20
65.8222485774
 11
20.8943996156
 21
90.3166938486
  0
LINE
  5
232
100
AcDbEntity
  8
0
100
AcDbLine
 62
7
  6
BYLAYER
 10
52.3551939001
 20
20.5461246308
 11
62.8317007842
 21
26.5947025954
  0
LINE
  5
233
100
AcDbEntity
  8
0
100
AcDbLine
 62
7
  6
BYLAYER
 10
62.8317007842
 20
23.406158726
 11
52.3551939001
 21
17.3575807614
  0
LINE
  5
234
100
AcDbEntity
  8
0
100
AcDbLine
 62
7
  6
BYLAYER
 10
55.3648784188
 20
13.8511815189
 11
58.5492187603
 21
15.6896502981
  0
LINE
  5
235
100
AcDbEntity
  8
0
100
AcDbLine
 62
7
  6
BYLAYER
 10
63.3209831245
 20
16.8321035496
 11
50.5931140546
 21
9.48370878
  0
ARC
  5
236
100
AcDbEntity
  8
0
100
AcDbCircle
 62
7
  6
BYLAYER
 10
81.6484444866
 20
18.9979101947
 40
29.3341363571
100
AcDbArc
 50
174.4016140483
 51
176.9746579879
  0
ARC
  5
237
100
AcDbEntity
  8
0
100
AcDbCircle
 62
7
  6
BYLAYER
 10
81.6484444866
 20
49.6167508371
 40
29.334136357
100
AcDbArc
 50
174.4016140483
 51
176.9746579879
  0
ARC
  5
238
100
AcDbEntity
  8
0
100
AcDbCircle
 62
7
  6
BYLAYER
 10
49.8493904863
 20
25.0454197219
 40
13.0853937678
100
AcDbArc
 50
347.2689400441
 51
352.8035372195
  0
ARC
  5
239
100
AcDbEntity
  8
0
100
AcDbCircle
 62
7
  6
BYLAYER
 10
49.8493904863
 20
55.6642603642
 40
13.0853937677
100
AcDbArc
 50
347.268940044
 51
352.8035372195
  0
ARC
  5
23A
100
AcDbEntity
  8
0
100
AcDbCircle
 62
7
  6
BYLAYER
 10
53.0792361946
 20
25.2942428081
 40
9.8387877465
100
AcDbArc
 50
7.5952548185
 51
14.3022052508
  0
ARC
  5
23B
100
AcDbEntity
  8
0
100
AcDbCircle
 62
7
  6
BYLAYER
 10
53.0792361946
 20
55.9130834505
 40
9.8387877465
100
AcDbArc
 50
7.5952548185
 51
14.3022052508
  0
SPLINE
  5
23C
100
AcDbEntity
  8
0
100
AcDbSpline
 62
7
  6
BYLAYER
 70
0
 71
3
 72
13
 73
9
 74
0
 42
0.0000001
 43
0.0000001
 44
0.0000000001
 40
0.0
 40
0.0
 40
0.0
 40
0.0
 40
0.1185363245
 40
0.2379056259
 40
0.3586703766
 40
0.4813597434
 40
0.7342127159
 40
1.0
 40
1.0
 40
1.0
 40
1.0
 10
60.7257696635
 20
60.9752094303
 30
0.0
 10
60.8395064318
 20
60.9095457738
 30
0.0
 10
61.0607799831
 20
60.7651869464
 30
0.0
 10
61.368726139
 20
60.5128825444
 30
0.0
 10
61.6514340519
 20
60.2260228844
 30
0.0
 10
61.9952352705
 20
59.7957785003
 30
0.0
 10
62.3513056515
 20
59.1752996169
 30
0.0
 10
62.5402470703
 20
58.6289427632
 30
0.0
 10
62.613087879
 20
58.3436183023
 30
0.0
  0
SPLINE
  5
23D
100
AcDbEntity
  8
0
100
AcDbSpline
 62
7
  6
BYLAYER
 70
0
 71
3
 72
11
 73
7
 74
0
 42
0.0000001
 43
0.0000001
 44
0.0000000001
 40
0.0
 40
0.0
 40
0.0
 40
0.0
 40
0.2897016594
 40
0.5490895814
 40
0.7822189142
 40
1.0
 40
1.0
 40
1.0
 40
1.0
 10
35.7791653128
 20
64.5769903635
 30
0.0
 10
35.7791653128
 20
64.4731210333
 30
0.0
 10
35.7634173052
 20
64.2755825674
 30
0.0
 10
35.6834207814
 20
64.0041730661
 30
0.0
 10
35.5487233898
 20
63.7839397952
 30
0.0
 10
35.4222013051
 20
63.6775816688
 30
0.0
 10
35.3545822903
 20
63.6385352325
 30
0.0
  0
SPLINE
  5
23E
100
AcDbEntity
  8
0
100
AcDbSpline
 62
7
  6
BYLAYER
 70
0
 71
3
 72
11
 73
7
 74
0
 42
0.0000001
 43
0.0000001
 44
0.0000000001
 40
0.0
 40
0.0
 40
0.0
 40
0.0
 40
0.2897016594
 40
0.5490895814
 40
0.7822189142
 40
1.0
 40
1.0
 40
1.0
 40
1.0
 10
35.7791653128
 20
20.4858598385
 30
0.0
 10
35.7791653128
 20
20.3819905084
 30
0.0
 10
35.7634173052
 20
20.1844520424
 30
0.0
 10
35.6834207814
 20
19.9130425411
 30
0.0
 10
35.5487233898
 20
19.6928092702
 30
0.0
 10
35.4222013051
 20
19.5864511438
 30
0.0
 10
35.3545822903
 20
19.5474047075
 30
0.0
  0
SPLINE
  5
23F
100
AcDbEntity
  8
0
100
AcDbSpline
 62
7
  6
BYLAYER
 70
0
 71
3
 72
13
 73
9
 74
0
 42
0.0000001
 43
0.0000001
 44
0.0000000001
 40
0.0
 40
0.0
 40
0.0
 40
0.0
 40
0.1185363245
 40
0.2379056259
 40
0.3586703766
 40
0.4813597434
 40
0.7342127159
 40
1.0
 40
1.0
 40
1.0
 40
1.0
 10
60.7257696635
 20
30.3563687879
 30
0.0
 10
60.8395064318
 20
30.2907051314
 30
0.0
 10
61.0607799831
 20
30.1463463041
 30
0.0
 10
61.368726139
 20
29.894041902
 30
0.0
 10
61.6514340519
 20
29.607182242
 30
0.0
 10
61.9952352705
 20
29.1769378579
 30
0.0
 10
62.3513056515
 20
28.5564589745
 30
0.0
 10
62.5402470703
 20
28.0101021209
 30
0.0
 10
62.613087879
 20
27.7247776599
 30
0.0
  0
SPLINE
  5
240
100
AcDbEntity
  8
0
100
AcDbSpline
 62
7
  6
BYLAYER
 70
0
 71
3
 72
19
 73
15
 74
0
 42
0.0000001
 43
0.0000001
 44
0.0000000001
 40
0.0
 40
0.0
 40
0.0
 40
0.0
 40
0.0428394104
 40
0.0874448899
 40
0.1352571039
 40
0.1871950253
 40
0.2436735499
 40
0.3046656819
 40
0.4382689093
 40
0.5825434307
 40
0.7296392143
 40
0.871166535
 40
0.9376088396
 40
1.0
 40
1.0
 40
1.0
 40
1.0
 10
33.3045984621
 20
23.0981020631
 30
0.0
 10
33.3551354611
 20
23.1272845308
 30
0.0
 10
33.4665527922
 20
23.173548417
 30
0.0
 10
33.6504405594
 20
23.2005427532
 30
0.0
 10
33.8479175076
 20
23.1859779214
 30
0.0
 10
34.0545869791
 20
23.1310830123
 30
0.0
 10
34.2664140701
 20
23.0374896901
 30
0.0
 10
34.5588120728
 20
22.85850007
 30
0.0
 10
34.9071509728
 20
22.5500211893
 30
0.0
 10
35.2651759309
 20
22.091649718
 30
0.0
 10
35.5470934259
 20
21.5706953843
 30
0.0
 10
35.7030894389
 20
21.109642423
 30
0.0
 10
35.7675848639
 20
20.7464746815
 30
0.0
 10
35.7791653128
 20
20.5708515735
 30
0.0
 10
35.7791653128
 20
20.4858598385
 30
0.0
  0
SPLINE
  5
241
100
AcDbEntity
  8
0
100
AcDbSpline
 62
7
  6
BYLAYER
 70
0
 71
3
 72
15
 73
11
 74
0
 42
0.0000001
 43
0.0000001
 44
0.0000000001
 40
0.0
 40
0.0
 40
0.0
 40
0.0
 40
0.115370159
 40
0.2356245441
 40
0.3598503591
 40
0.4870619077
 40
0.6160590409
 40
0.7455099991
 40
0.874025339
 40
1.0
 40
1.0
 40
1.0
 40
1.0
 10
62.613087879
 20
22.1617230109
 30
0.0
 10
62.5477538727
 20
21.8708233896
 30
0.0
 10
62.3818435493
 20
21.2836637659
 30
0.0
 10
62.0448781708
 20
20.415663021
 30
0.0
 10
61.6214782524
 20
19.5522550433
 30
0.0
 10
61.1208748556
 20
18.7050582037
 30
0.0
 10
60.5531572842
 20
17.8849458014
 30
0.0
 10
59.9296442642
 20
17.1021887263
 30
0.0
 10
59.2623480158
 20
16.3670412724
 30
0.0
 10
58.7900534724
 20
15.908611908
 30
0.0
 10
58.5491781575
 20
15.6896085482
 30
0.0
  0
SPLINE
  5
242
100
AcDbEntity
  8
0
100
AcDbSpline
 62
7
  6
BYLAYER
 70
0
 71
3
 72
11
 73
7
 74
0
 42
0.0000001
 43
0.0000001
 44
0.0000000001
 40
0.0
 40
0.0
 40
0.0
 40
0.0
 40
0.2779624821
 40
0.5335010985
 40
0.7716836426
 40
1.0
 40
1.0
 40
1.0
 40
1.0
 10
55.3649190212
 20
13.8511866528
 30
0.0
 10
55.2050335249
 20
13.8211735959
 30
0.0
 10
54.8941034294
 20
13.7820478864
 30
0.0
 10
54.4405779579
 20
13.7943892285
 30
0.0
 10
54.0246712273
 20
13.8824083676
 30
0.0
 10
53.7725972609
 20
13.993428414
 30
0.0
 10
53.656875556
 20
14.0602377096
 30
0.0
  0
SPLINE
  5
243
100
AcDbEntity
  8
0
100
AcDbSpline
 62
7
  6
BYLAYER
 70
0
 71
3
 72
9
 73
5
 74
0
 42
0.0000001
 43
0.0000001
 44
0.0000000001
 40
0.0
 40
0.0
 40
0.0
 40
0.0
 40
0.2553005262
 40
1.0
 40
1.0
 40
1.0
 40
1.0
 10
62.8967261212
 20
25.2336005734
 30
0.0
 10
62.8967261212
 20
25.3495885313
 30
0.0
 10
62.8914862424
 20
25.8038838037
 30
0.0
 10
62.8648847388
 20
26.2580025416
 30
0.0
 10
62.8317007842
 20
26.5947025954
 30
0.0
  0
SPLINE
  5
244
100
AcDbEntity
  8
0
100
AcDbSpline
 62
7
  6
BYLAYER
 70
0
 71
3
 72
9
 73
5
 74
0
 42
0.0000001
 43
0.0000001
 44
0.0000000001
 40
0.0
 40
0.0
 40
0.0
 40
0.0
 40
0.2547429433
 40
1.0
 40
1.0
 40
1.0
 40
1.0
 10
62.8317007842
 20
23.406158726
 30
0.0
 10
62.8424629019
 20
23.5277831963
 30
0.0
 10
62.8797279543
 20
24.0056440621
 30
0.0
 10
62.8967261212
 20
24.4851392886
 30
0.0
 10
62.8967261212
 20
24.8423450915
 30
0.0
  0
SPLINE
  5
245
100
AcDbEntity
  8
0
100
AcDbSpline
 62
7
  6
BYLAYER
 70
0
 71
3
 72
19
 73
15
 74
0
 42
0.0000001
 43
0.0000001
 44
0.0000000001
 40
0.0
 40
0.0
 40
0.0
 40
0.0
 40
0.0428394104
 40
0.0874448899
 40
0.1352571039
 40
0.1871950253
 40
0.2436735499
 40
0.3046656819
 40
0.4382689093
 40
0.5825434307
 40
0.7296392143
 40
0.871166535
 40
0.9376088396
 40
1.0
 40
1.0
 40
1.0
 40
1.0
 10
33.3045984621
 20
67.1892325881
 30
0.0
 10
33.3551354611
 20
67.2184150558
 30
0.0
 10
33.4665527922
 20
67.264678942
 30
0.0
 10
33.6504405594
 20
67.2916732782
 30
0.0
 10
33.8479175076
 20
67.2771084464
 30
0.0
 10
34.0545869791
 20
67.2222135373
 30
0.0
 10
34.2664140701
 20
67.1286202151
 30
0.0
 10
34.5588120728
 20
66.949630595
 30
0.0
 10
34.9071509728
 20
66.6411517143
 30
0.0
 10
35.2651759309
 20
66.182780243
 30
0.0
 10
35.5470934259
 20
65.6618259093
 30
0.0
 10
35.7030894389
 20
65.200772948
 30
0.0
 10
35.7675848639
 20
64.8376052065
 30
0.0
 10
35.7791653128
 20
64.6619820985
 30
0.0
 10
35.7791653128
 20
64.5769903635
 30
0.0
  0
SPLINE
  5
246
100
AcDbEntity
  8
0
100
AcDbSpline
 62
7
  6
BYLAYER
 70
0
 71
3
 72
15
 73
11
 74
0
 42
0.0000001
 43
0.0000001
 44
0.0000000001
 40
0.0
 40
0.0
 40
0.0
 40
0.0
 40
0.115370159
 40
0.2356245441
 40
0.3598503591
 40
0.4870619077
 40
0.6160590409
 40
0.7455099991
 40
0.874025339
 40
1.0
 40
1.0
 40
1.0
 40
1.0
 10
62.613087879
 20
52.7805636532
 30
0.0
 10
62.5477538727
 20
52.489664032
 30
0.0
 10
62.3818435493
 20
51.9025044083
 30
0.0
 10
62.0448781708
 20
51.0345036634
 30
0.0
 10
61.6214782524
 20
50.1710956857
 30
0.0
 10
61.1208748556
 20
49.323898846
 30
0.0
 10
60.5531572842
 20
48.5037864438
 30
0.0
 10
59.9296442642
 20
47.7210293686
 30
0.0
 10
59.2623480158
 20
46.9858819148
 30
0.0
 10
58.7900534724
 20
46.5274525504
 30
0.0
 10
58.5491781575
 20
46.3084491906
 30
0.0
  0
SPLINE
  5
247
100
AcDbEntity
  8
0
100
AcDbSpline
 62
7
  6
BYLAYER
 70
0
 71
3
 72
11
 73
7
 74
0
 42
0.0000001
 43
0.0000001
 44
0.0000000001
 40
0.0
 40
0.0
 40
0.0
 40
0.0
 40
0.2779624821
 40
0.5335010985
 40
0.7716836426
 40
1.0
 40
1.0
 40
1.0
 40
1.0
 10
55.3649190212
 20
44.4700272952
 30
0.0
 10
55.2050335249
 20
44.4400142383
 30
0.0
 10
54.8941034294
 20
44.4008885288
 30
0.0
 10
54.4405779579
 20
44.4132298708
 30
0.0
 10
54.0246712273
 20
44.50124901
 30
0.0
 10
53.7725972609
 20
44.6122690564
 30
0.0
 10
53.656875556
 20
44.6790783519
 30
0.0
  0
SPLINE
  5
248
100
AcDbEntity
  8
0
100
AcDbSpline
 62
7
  6
BYLAYER
 70
0
 71
3
 72
9
 73
5
 74
0
 42
0.0000001
 43
0.0000001
 44
0.0000000001
 40
0.0
 40
0.0
 40
0.0
 40
0.0
 40
0.2553005262
 40
1.0
 40
1.0
 40
1.0
 40
1.0
 10
62.8967261212
 20
55.8524412158
 30
0.0
 10
62.8967261212
 20
55.9684291736
 30
0.0
 10
62.8914862424
 20
56.4227244461
 30
0.0
 10
62.8648847388
 20
56.876843184
 30
0.0
 10
62.8317007842
 20
57.2135432378
 30
0.0
  0
SPLINE
  5
249
100
AcDbEntity
  8
0
100
AcDbSpline
 62
7
  6
BYLAYER
 70
0
 71
3
 72
9
 73
5
 74
0
 42
0.0000001
 43
0.0000001
 44
0.0000000001
 40
0.0
 40
0.0
 40
0.0
 40
0.0
 40
0.2547429433
 40
1.0
 40
1.0
 40
1.0
 40
1.0
 10
62.8317007842
 20
54.0249993684
 30
0.0
 10
62.8424629019
 20
54.1466238387
 30
0.0
 10
62.8797279543
 20
54.6244847045
 30
0.0
 10
62.8967261212
 20
55.1039799309
 30
0.0
 10
62.8967261212
 20
55.4611857338
 30
0.0
  0
SPLINE
  5
24A
100
AcDbEntity
  8
0
100
AcDbSpline
 62
7
  6
BYLAYER
 70
0
 71
3
 72
14
 73
10
 74
0
 42
0.0000001
 43
0.0000001
 44
0.0000000001
 40
0.0
 40
0.0
 40
0.0
 40
0.0
 40
0.1198053065
 40
0.2438636465
 40
0.3706887574
 40
0.4989193467
 40
0.6271891596
 40
0.754227837
 40
1.0
 40
1.0
 40
1.0
 40
1.0
 10
52.4542327243
 20
52.4784355545
 30
0.0
 10
52.4844853891
 20
52.7891461617
 30
0.0
 10
52.5704274673
 20
53.4194245276
 30
0.0
 10
52.7680616403
 20
54.3656401523
 30
0.0
 10
53.0360604923
 20
55.3172863666
 30
0.0
 10
53.3724775382
 20
56.2585807954
 30
0.0
 10
53.7751896172
 20
57.174381097
 30
0.0
 10
54.3892094172
 20
58.3273364198
 30
0.0
 10
54.9484216497
 20
59.1298701106
 30
0.0
 10
55.3649190216
 20
59.6163488092
 30
0.0
  0
SPLINE
  5
24B
100
AcDbEntity
  8
0
100
AcDbSpline
 62
7
  6
BYLAYER
 70
0
 71
3
 72
11
 73
7
 74
0
 42
0.0000001
 43
0.0000001
 44
0.0000000001
 40
0.0
 40
0.0
 40
0.0
 40
0.0
 40
0.2572008559
 40
0.5081929231
 40
0.7549610399
 40
1.0
 40
1.0
 40
1.0
 40
1.0
 10
58.5491781578
 20
61.4547707046
 30
0.0
 10
58.7424567869
 20
61.4691242765
 30
0.0
 10
59.1269308062
 20
61.4710505062
 30
0.0
 10
59.6921787075
 20
61.3906053581
 30
0.0
 10
60.2300936102
 20
61.2284119286
 30
0.0
 10
60.565859785
 20
61.0675302117
 30
0.0
 10
60.7257696635
 20
60.9752094303
 30
0.0
  0
SPLINE
  5
24C
100
AcDbEntity
  8
0
100
AcDbSpline
 62
7
  6
BYLAYER
 70
0
 71
3
 72
11
 73
7
 74
0
 42
0.0000001
 43
0.0000001
 44
0.0000000001
 40
0.0
 40
0.0
 40
0.0
 40
0.0
 40
0.2656737053
 40
0.5184513587
 40
0.7617053607
 40
1.0
 40
1.0
 40
1.0
 40
1.0
 10
58.5492187603
 20
30.8359351961
 30
0.0
 10
58.7254711235
 20
30.8582217589
 30
0.0
 10
59.07290251
 20
30.8790976484
 30
0.0
 10
59.5822382803
 20
30.8326898242
 30
0.0
 10
60.0594311333
 20
30.7074030909
 30
0.0
 10
60.3534900608
 20
30.5712854653
 30
0.0
 10
60.4914898178
 20
30.4916131602
 30
0.0
  0
SPLINE
  5
24D
100
AcDbEntity
  8
0
100
AcDbSpline
 62
7
  6
BYLAYER
 70
0
 71
3
 72
9
 73
5
 74
0
 42
0.0000001
 43
0.0000001
 44
0.0000000001
 40
0.0
 40
0.0
 40
0.0
 40
0.0
 40
0.2553005262
 40
1.0
 40
1.0
 40
1.0
 40
1.0
 10
52.2901685631
 20
49.3375234258
 30
0.0
 10
52.2901685631
 20
49.2215354679
 30
0.0
 10
52.295408442
 20
48.7672401955
 30
0.0
 10
52.3220099456
 20
48.3131214576
 30
0.0
 10
52.3551939001
 20
47.9764214038
 30
0.0
  0
SPLINE
  5
24E
100
AcDbEntity
  8
0
100
AcDbSpline
 62
7
  6
BYLAYER
 70
0
 71
3
 72
9
 73
5
 74
0
 42
0.0000001
 43
0.0000001
 44
0.0000000001
 40
0.0
 40
0.0
 40
0.0
 40
0.0
 40
0.2547429433
 40
1.0
 40
1.0
 40
1.0
 40
1.0
 10
52.3551939001
 20
51.1649652732
 30
0.0
 10
52.3444317825
 20
51.0433408029
 30
0.0
 10
52.30716673
 20
50.5654799371
 30
0.0
 10
52.2901685631
 20
50.0859847107
 30
0.0
 10
52.2901685631
 20
49.7287789078
 30
0.0
  0
SPLINE
  5
24F
100
AcDbEntity
  8
0
100
AcDbSpline
 62
7
  6
BYLAYER
 70
0
 71
3
 72
14
 73
10
 74
0
 42
0.0000001
 43
0.0000001
 44
0.0000000001
 40
0.0
 40
0.0
 40
0.0
 40
0.0
 40
0.1198053065
 40
0.2438636465
 40
0.3706887574
 40
0.4989193467
 40
0.6271891596
 40
0.754227837
 40
1.0
 40
1.0
 40
1.0
 40
1.0
 10
52.4542327243
 20
21.8595949121
 30
0.0
 10
52.4844853891
 20
22.1703055194
 30
0.0
 10
52.5704274673
 20
22.8005838852
 30
0.0
 10
52.7680616403
 20
23.7467995099
 30
0.0
 10
53.0360604923
 20
24.6984457243
 30
0.0
 10
53.3724775382
 20
25.639740153
 30
0.0
 10
53.7751896172
 20
26.5555404547
 30
0.0
 10
54.3892094172
 20
27.7084957774
 30
0.0
 10
54.9484216497
 20
28.5110294683
 30
0.0
 10
55.3649190216
 20
28.9975081668
 30
0.0
  0
SPLINE
  5
250
100
AcDbEntity
  8
0
100
AcDbSpline
 62
7
  6
BYLAYER
 70
0
 71
3
 72
15
 73
11
 74
0
 42
0.0000001
 43
0.0000001
 44
0.0000000001
 40
0.0
 40
0.0
 40
0.0
 40
0.0
 40
0.1174895942
 40
0.2395944553
 40
0.3651294069
 40
0.4929056653
 40
0.6216058338
 40
0.7498821976
 40
0.8764601571
 40
1.0
 40
1.0
 40
1.0
 40
1.0
 10
51.8776210122
 20
22.1924943081
 30
0.0
 10
51.9252828524
 20
22.4925527072
 30
0.0
 10
52.0507958472
 20
23.1002226613
 30
0.0
 10
52.3176591288
 20
24.0069011161
 30
0.0
 10
52.6633291982
 20
24.915081747
 30
0.0
 10
53.0823106964
 20
25.8106458058
 30
0.0
 10
53.5682617754
 20
26.6798218549
 30
0.0
 10
54.1136444119
 20
27.5093163769
 30
0.0
 10
54.7100389267
 20
28.2861287731
 30
0.0
 10
55.1421496408
 20
28.768446273
 30
0.0
 10
55.3648784188
 20
28.9974664169
 30
0.0
  0
SPLINE
  5
251
100
AcDbEntity
  8
0
100
AcDbSpline
 62
7
  6
BYLAYER
 70
0
 71
3
 72
11
 73
7
 74
0
 42
0.0000001
 43
0.0000001
 44
0.0000000001
 40
0.0
 40
0.0
 40
0.0
 40
0.0
 40
0.2572008559
 40
0.5081929231
 40
0.7549610399
 40
1.0
 40
1.0
 40
1.0
 40
1.0
 10
58.5491781578
 20
30.8359300622
 30
0.0
 10
58.7424567869
 20
30.8502836341
 30
0.0
 10
59.1269308062
 20
30.8522098638
 30
0.0
 10
59.6921787075
 20
30.7717647157
 30
0.0
 10
60.2300936102
 20
30.6095712863
 30
0.0
 10
60.565859785
 20
30.4486895694
 30
0.0
 10
60.7257696635
 20
30.3563687879
 30
0.0
  0
SPLINE
  5
252
100
AcDbEntity
  8
0
100
AcDbSpline
 62
7
  6
BYLAYER
 70
0
 71
3
 72
14
 73
10
 74
0
 42
0.0000001
 43
0.0000001
 44
0.0000000001
 40
0.0
 40
0.0
 40
0.0
 40
0.0
 40
0.1074972221
 40
0.2167868519
 40
0.3298593303
 40
0.4484373884
 40
0.5739113668
 40
0.7073373742
 40
1.0
 40
1.0
 40
1.0
 40
1.0
 10
53.656875556
 20
44.6790783519
 30
0.0
 10
53.5752766125
 20
44.7261876469
 30
0.0
 10
53.4177105127
 20
44.8339285178
 30
0.0
 10
53.2055749681
 20
45.0318282907
 30
0.0
 10
53.0175327753
 20
45.2652903517
 30
0.0
 10
52.8540534483
 20
45.5331435516
 30
0.0
 10
52.7152583413
 20
45.8342267597
 30
0.0
 10
52.5586268335
 20
46.2922590138
 30
0.0
 10
52.4869344538
 20
46.6609548584
 30
0.0
 10
52.4542327243
 20
46.9153809054
 30
0.0
  0
SPLINE
  5
253
100
AcDbEntity
  8
0
100
AcDbSpline
 62
7
  6
BYLAYER
 70
0
 71
3
 72
13
 73
9
 74
0
 42
0.0000001
 43
0.0000001
 44
0.0000000001
 40
0.0
 40
0.0
 40
0.0
 40
0.0
 40
0.1140302782
 40
0.2292712894
 40
0.3468632361
 40
0.4678309022
 40
0.7229857352
 40
1.0
 40
1.0
 40
1.0
 40
1.0
 10
53.4226073613
 20
44.8143441972
 30
0.0
 10
53.3248029957
 20
44.8708102333
 30
0.0
 10
53.1351637065
 20
44.9970046314
 30
0.0
 10
52.8748068476
 20
45.2224036362
 30
0.0
 10
52.639188633
 20
45.4829095176
 30
0.0
 10
52.3548566977
 20
45.8818868054
 30
0.0
 10
52.0696917464
 20
46.4678596568
 30
0.0
 10
51.930005798
 20
46.9789766523
 30
0.0
 10
51.8776210122
 20
47.2482803014
 30
0.0
  0
SPLINE
  5
254
100
AcDbEntity
  8
0
100
AcDbSpline
 62
7
  6
BYLAYER
 70
0
 71
3
 72
11
 73
7
 74
0
 42
0.0000001
 43
0.0000001
 44
0.0000000001
 40
0.0
 40
0.0
 40
0.0
 40
0.0
 40
0.2656737053
 40
0.5184513587
 40
0.7617053607
 40
1.0
 40
1.0
 40
1.0
 40
1.0
 10
58.5492187603
 20
61.4547758385
 30
0.0
 10
58.7254711235
 20
61.4770624012
 30
0.0
 10
59.07290251
 20
61.4979382907
 30
0.0
 10
59.5822382803
 20
61.4515304665
 30
0.0
 10
60.0594311333
 20
61.3262437332
 30
0.0
 10
60.3534900608
 20
61.1901261077
 30
0.0
 10
60.4914898178
 20
61.1104538025
 30
0.0
  0
SPLINE
  5
255
100
AcDbEntity
  8
0
100
AcDbSpline
 62
7
  6
BYLAYER
 70
0
 71
3
 72
19
 73
15
 74
0
 42
0.0000001
 43
0.0000001
 44
0.0000000001
 40
0.0
 40
0.0
 40
0.0
 40
0.0
 40
0.0428394104
 40
0.0874448899
 40
0.1352571039
 40
0.1871950253
 40
0.2436735499
 40
0.3046656819
 40
0.4382689093
 40
0.5825434307
 40
0.7296392143
 40
0.871166535
 40
0.9376088396
 40
1.0
 40
1.0
 40
1.0
 40
1.0
 10
35.3545822903
 20
19.5474047075
 30
0.0
 10
35.3040452913
 20
19.5182222399
 30
0.0
 10
35.1926279602
 20
19.4719583536
 30
0.0
 10
35.0087401931
 20
19.4449640174
 30
0.0
 10
34.8112632448
 20
19.4595288492
 30
0.0
 10
34.6045937733
 20
19.5144237583
 30
0.0
 10
34.3927666823
 20
19.6080170806
 30
0.0
 10
34.1003686796
 20
19.7870067006
 30
0.0
 10
33.7520297796
 20
20.0954855813
 30
0.0
 10
33.3940048215
 20
20.5538570526
 30
0.0
 10
33.1120873265
 20
21.0748113864
 30
0.0
 10
32.9560913136
 20
21.5358643476
 30
0.0
 10
32.8915958886
 20
21.8990320891
 30
0.0
 10
32.8800154397
 20
22.0746551971
 30
0.0
 10
32.8800154397
 20
22.1596469321
 30
0.0
  0
SPLINE
  5
256
100
AcDbEntity
  8
0
100
AcDbSpline
 62
7
  6
BYLAYER
 70
0
 71
3
 72
15
 73
11
 74
0
 42
0.0000001
 43
0.0000001
 44
0.0000000001
 40
0.0
 40
0.0
 40
0.0
 40
0.0
 40
0.1174895942
 40
0.2395944553
 40
0.3651294069
 40
0.4929056653
 40
0.6216058338
 40
0.7498821976
 40
0.8764601571
 40
1.0
 40
1.0
 40
1.0
 40
1.0
 10
51.8776210122
 20
52.8113349505
 30
0.0
 10
51.9252828524
 20
53.1113933496
 30
0.0
 10
52.0507958472
 20
53.7190633036
 30
0.0
 10
52.3176591288
 20
54.6257417585
 30
0.0
 10
52.6633291982
 20
55.5339223894
 30
0.0
 10
53.0823106964
 20
56.4294864482
 30
0.0
 10
53.5682617754
 20
57.2986624972
 30
0.0
 10
54.1136444119
 20
58.1281570193
 30
0.0
 10
54.7100389267
 20
58.9049694155
 30
0.0
 10
55.1421496408
 20
59.3872869154
 30
0.0
 10
55.3648784188
 20
59.6163070593
 30
0.0
  0
SPLINE
  5
257
100
AcDbEntity
  8
0
100
AcDbSpline
 62
7
  6
BYLAYER
 70
0
 71
3
 72
19
 73
15
 74
0
 42
0.0000001
 43
0.0000001
 44
0.0000000001
 40
0.0
 40
0.0
 40
0.0
 40
0.0
 40
0.0428394104
 40
0.0874448899
 40
0.1352571039
 40
0.1871950253
 40
0.2436735499
 40
0.3046656819
 40
0.4382689093
 40
0.5825434307
 40
0.7296392143
 40
0.871166535
 40
0.9376088396
 40
1.0
 40
1.0
 40
1.0
 40
1.0
 10
35.3545822903
 20
63.6385352325
 30
0.0
 10
35.3040452913
 20
63.6093527649
 30
0.0
 10
35.1926279602
 20
63.5630888786
 30
0.0
 10
35.0087401931
 20
63.5360945424
 30
0.0
 10
34.8112632448
 20
63.5506593742
 30
0.0
 10
34.6045937733
 20
63.6055542833
 30
0.0
 10
34.3927666823
 20
63.6991476056
 30
0.0
 10
34.1003686796
 20
63.8781372256
 30
0.0
 10
33.7520297796
 20
64.1866161063
 30
0.0
 10
33.3940048215
 20
64.6449875776
 30
0.0
 10
33.1120873265
 20
65.1659419113
 30
0.0
 10
32.9560913136
 20
65.6269948726
 30
0.0
 10
32.8915958886
 20
65.9901626141
 30
0.0
 10
32.8800154397
 20
66.1657857221
 30
0.0
 10
32.8800154397
 20
66.2507774571
 30
0.0
  0
SPLINE
  5
258
100
AcDbEntity
  8
0
100
AcDbSpline
 62
7
  6
BYLAYER
 70
0
 71
3
 72
9
 73
5
 74
0
 42
0.0000001
 43
0.0000001
 44
0.0000000001
 40
0.0
 40
0.0
 40
0.0
 40
0.0
 40
0.2416554123
 40
1.0
 40
1.0
 40
1.0
 40
1.0
 10
51.6537698105
 20
50.0961955868
 30
0.0
 10
51.6537698105
 20
50.3157769295
 30
0.0
 10
51.6736194288
 20
51.2243890976
 30
0.0
 10
51.7695225018
 20
52.1307933297
 30
0.0
 10
51.8776210122
 20
52.8113349505
 30
0.0
  0
SPLINE
  5
259
100
AcDbEntity
  8
0
100
AcDbSpline
 62
7
  6
BYLAYER
 70
0
 71
3
 72
9
 73
5
 74
0
 42
0.0000001
 43
0.0000001
 44
0.0000000001
 40
0.0
 40
0.0
 40
0.0
 40
0.0
 40
0.2399786176
 40
1.0
 40
1.0
 40
1.0
 40
1.0
 10
51.8776210122
 20
47.2482803014
 30
0.0
 10
51.8399094819
 20
47.4421505747
 30
0.0
 10
51.7047081868
 20
48.2542399798
 30
0.0
 10
51.6537698105
 20
49.079437348
 30
0.0
 10
51.6537698105
 20
49.7049401049
 30
0.0
  0
SPLINE
  5
25A
100
AcDbEntity
  8
0
100
AcDbSpline
 62
7
  6
BYLAYER
 70
0
 71
3
 72
9
 73
5
 74
0
 42
0.0000001
 43
0.0000001
 44
0.0000000001
 40
0.0
 40
0.0
 40
0.0
 40
0.0
 40
0.2424811234
 40
1.0
 40
1.0
 40
1.0
 40
1.0
 10
52.4542276026
 20
16.29654322
 30
0.0
 10
52.4432456758
 20
16.3819848242
 30
0.0
 10
52.4011816809
 20
16.7347604366
 30
0.0
 10
52.3716249606
 20
17.0889897765
 30
0.0
 10
52.3551914439
 20
17.3576056824
 30
0.0
  0
SPLINE
  5
25B
100
AcDbEntity
  8
0
100
AcDbSpline
 62
7
  6
BYLAYER
 70
0
 71
3
 72
9
 73
5
 74
0
 42
0.0000001
 43
0.0000001
 44
0.0000000001
 40
0.0
 40
0.0
 40
0.0
 40
0.0
 40
0.2553005262
 40
1.0
 40
1.0
 40
1.0
 40
1.0
 10
52.2901685631
 20
18.7186827834
 30
0.0
 10
52.2901685631
 20
18.6026948256
 30
0.0
 10
52.295408442
 20
18.1483995532
 30
0.0
 10
52.3220099456
 20
17.6942808152
 30
0.0
 10
52.3551939001
 20
17.3575807614
 30
0.0
  0
SPLINE
  5
25C
100
AcDbEntity
  8
0
100
AcDbSpline
 62
7
  6
BYLAYER
 70
0
 71
3
 72
9
 73
5
 74
0
 42
0.0000001
 43
0.0000001
 44
0.0000000001
 40
0.0
 40
0.0
 40
0.0
 40
0.0
 40
0.2547429433
 40
1.0
 40
1.0
 40
1.0
 40
1.0
 10
52.3551939001
 20
20.5461246308
 30
0.0
 10
52.3444317825
 20
20.4245001605
 30
0.0
 10
52.30716673
 20
19.9466392948
 30
0.0
 10
52.2901685631
 20
19.4671440683
 30
0.0
 10
52.2901685631
 20
19.1099382654
 30
0.0
  0
SPLINE
  5
25D
100
AcDbEntity
  8
0
100
AcDbSpline
 62
7
  6
BYLAYER
 70
0
 71
3
 72
14
 73
10
 74
0
 42
0.0000001
 43
0.0000001
 44
0.0000000001
 40
0.0
 40
0.0
 40
0.0
 40
0.0
 40
0.1074972221
 40
0.2167868519
 40
0.3298593303
 40
0.4484373884
 40
0.5739113668
 40
0.7073373742
 40
1.0
 40
1.0
 40
1.0
 40
1.0
 10
53.656875556
 20
14.0602377096
 30
0.0
 10
53.5752766125
 20
14.1073470046
 30
0.0
 10
53.4177105127
 20
14.2150878754
 30
0.0
 10
53.2055749681
 20
14.4129876483
 30
0.0
 10
53.0175327753
 20
14.6464497093
 30
0.0
 10
52.8540534483
 20
14.9143029092
 30
0.0
 10
52.7152583413
 20
15.2153861173
 30
0.0
 10
52.5586268335
 20
15.6734183714
 30
0.0
 10
52.4869344538
 20
16.042114216
 30
0.0
 10
52.4542327243
 20
16.2965402631
 30
0.0
  0
SPLINE
  5
25E
100
AcDbEntity
  8
0
100
AcDbSpline
 62
7
  6
BYLAYER
 70
0
 71
3
 72
9
 73
5
 74
0
 42
0.0000001
 43
0.0000001
 44
0.0000000001
 40
0.0
 40
0.0
 40
0.0
 40
0.0
 40
0.2416554123
 40
1.0
 40
1.0
 40
1.0
 40
1.0
 10
51.6537698105
 20
19.4773549445
 30
0.0
 10
51.6537698105
 20
19.6969362871
 30
0.0
 10
51.6736194288
 20
20.6055484552
 30
0.0
 10
51.7695225018
 20
21.5119526873
 30
0.0
 10
51.8776210122
 20
22.1924943081
 30
0.0
  0
SPLINE
  5
25F
100
AcDbEntity
  8
0
100
AcDbSpline
 62
7
  6
BYLAYER
 70
0
 71
3
 72
13
 73
9
 74
0
 42
0.0000001
 43
0.0000001
 44
0.0000000001
 40
0.0
 40
0.0
 40
0.0
 40
0.0
 40
0.1140302782
 40
0.2292712894
 40
0.3468632361
 40
0.4678309022
 40
0.7229857352
 40
1.0
 40
1.0
 40
1.0
 40
1.0
 10
53.4226073613
 20
14.1955035548
 30
0.0
 10
53.3248029957
 20
14.2519695909
 30
0.0
 10
53.1351637065
 20
14.378163989
 30
0.0
 10
52.8748068476
 20
14.6035629938
 30
0.0
 10
52.639188633
 20
14.8640688753
 30
0.0
 10
52.3548566977
 20
15.263046163
 30
0.0
 10
52.0696917464
 20
15.8490190144
 30
0.0
 10
51.930005798
 20
16.3601360099
 30
0.0
 10
51.8776210122
 20
16.6294396591
 30
0.0
  0
SPLINE
  5
260
100
AcDbEntity
  8
0
100
AcDbSpline
 62
7
  6
BYLAYER
 70
0
 71
3
 72
11
 73
7
 74
0
 42
0.0000001
 43
0.0000001
 44
0.0000000001
 40
0.0
 40
0.0
 40
0.0
 40
0.0
 40
0.2897016594
 40
0.5490895814
 40
0.7822189142
 40
1.0
 40
1.0
 40
1.0
 40
1.0
 10
32.8800154397
 20
66.2507774571
 30
0.0
 10
32.8800154397
 20
66.3546467873
 30
0.0
 10
32.8957634472
 20
66.5521852532
 30
0.0
 10
32.975759971
 20
66.8235947546
 30
0.0
 10
33.1104573627
 20
67.0438280254
 30
0.0
 10
33.2369794474
 20
67.1501861518
 30
0.0
 10
33.3045984621
 20
67.1892325881
 30
0.0
  0
SPLINE
  5
261
100
AcDbEntity
  8
0
100
AcDbSpline
 62
7
  6
BYLAYER
 70
0
 71
3
 72
9
 73
5
 74
0
 42
0.0000001
 43
0.0000001
 44
0.0000000001
 40
0.0
 40
0.0
 40
0.0
 40
0.0
 40
0.2399786176
 40
1.0
 40
1.0
 40
1.0
 40
1.0
 10
51.8776210122
 20
16.6294396591
 30
0.0
 10
51.8399094819
 20
16.8233099324
 30
0.0
 10
51.7047081868
 20
17.6353993375
 30
0.0
 10
51.6537698105
 20
18.4605967056
 30
0.0
 10
51.6537698105
 20
19.0860994625
 30
0.0
  0
SPLINE
  5
262
100
AcDbEntity
  8
0
100
AcDbSpline
 62
7
  6
BYLAYER
 70
0
 71
3
 72
11
 73
7
 74
0
 42
0.0000001
 43
0.0000001
 44
0.0000000001
 40
0.0
 40
0.0
 40
0.0
 40
0.0
 40
0.2897016594
 40
0.5490895814
 40
0.7822189142
 40
1.0
 40
1.0
 40
1.0
 40
1.0
 10
32.8800154397
 20
22.1596469321
 30
0.0
 10
32.8800154397
 20
22.2635162623
 30
0.0
 10
32.8957634472
 20
22.4610547282
 30
0.0
 10
32.975759971
 20
22.7324642296
 30
0.0
 10
33.1104573627
 20
22.9526975004
 30
0.0
 10
33.2369794474
 20
23.0590556268
 30
0.0
 10
33.3045984621
 20
23.0981020631
 30
0.0
  0
SPLINE
  5
263
100
AcDbEntity
  8
0
100
AcDbSpline
 62
7
  6
BYLAYER
 70
0
 71
3
 72
9
 73
5
 74
0
 42
0.0000001
 43
0.0000001
 44
0.0000000001
 40
0.0
 40
0.0
 40
0.0
 40
0.0
 40
0.2424811234
 40
1.0
 40
1.0
 40
1.0
 40
1.0
 10
52.4542276026
 20
46.9153838624
 30
0.0
 10
52.4432456758
 20
47.0008254665
 30
0.0
 10
52.4011816809
 20
47.353601079
 30
0.0
 10
52.3716249606
 20
47.7078304189
 30
0.0
 10
52.3551914439
 20
47.9764463248
 30
0.0
  0
ENDSEC
  0
SECTION
  2
OBJECTS
  0
DICTIONARY
  5
C
100
AcDbDictionary
280
0
281
1
  3
ACAD_GROUP
350
D
  3
ACAD_MLINESTYLE
350
17
  3
ACAD_LAYOUT
350
1A
  3
ACAD_PLOTSETTINGS
350
19
  3
ACAD_PLOTSTYLENAME
350
E
  0
DICTIONARY
  5
D
102
{ACAD_REACTORS
330
C
102
}
100
AcDbDictionary
280
0
281
1
  0
ACDBDICTIONARYWDFLT
  5
E
102
{ACAD_REACTORS
330
C
102
}
100
AcDbDictionary
281
1
  3
Normal
350
F
100
AcDbDictionaryWithDefault
340
F
  0
DICTIONARY
  5
17
102
{ACAD_REACTORS
330
C
102
}
100
AcDbDictionary
280
0
281
1
  3
Standard
350
18
  0
DICTIONARY
  5
19
102
{ACAD_REACTORS
330
C
102
}
100
AcDbDictionary
281
1
  0
DICTIONARY
  5
1A
102
{ACAD_REACTORS
330
C
102
}
100
AcDbDictionary
281
1
  3
Model
350
264
  3
Layout1
350
265
  0
ACDBPLACEHOLDER
  5
F
102
{ACAD_REACTORS
330
E
102
}
  0
MLINESTYLE
  5
18
102
{ACAD_REACTORS
330
17
102
}
100
AcDbMlineStyle
  2
STANDARD
 70
0
  3

 62
256
 51
90.0
 52
90.0
 71
2
 49
0.5
 62
256
  6
BYLAYER
 49
-0.5
 62
256
  6
BYLAYER
  0
LAYOUT
  5
264
102
{ACAD_REACTORS
330
1A
102
}
100
AcDbPlotSettings
  1

  2
none_device
  4

  6

 40
0.0
 41
0.0
 42
0.0
 43
0.0
 44
210.0
 45
297.0
 46
0.0
 47
0.0
 48
0.0
 49
0.0
140
0.0
141
0.0
142
1.0
143
1.0
 70
1024
 72
1
 73
0
 74
0
  7

 75
0
147
1.0
148
0.0
149
0.0
100
AcDbLayout
  1
Model
 70
0
 71
0
 10
0.0
 20
0.0
 11
210.0
 21
297.0
 12
0.0
 22
0.0
 32
0.0
 14
0.0
 24
0.0
 34
0.0
 15
0.0
 25
0.0
 35
0.0
146
0.0
 13
0.0
 23
0.0
 33
0.0
 16
1.0
 26
0.0
 36
0.0
 17
0.0
 27
1.0
 37
0.0
 76
0
330
210
345
0
346
0
  0
LAYOUT
  5
265
102
{ACAD_REACTORS
330
1A
102
}
100
AcDbPlotSettings
  1

  2
none_device
  4

  6

 40
0.0
 41
0.0
 42
0.0
 43
0.0
 44
210.0
 45
297.0
 46
0.0
 47
0.0
 48
0.0
 49
0.0
140
0.0
141
0.0
142
1.0
143
1.0
 70
0
 72
1
 73
0
 74
0
  7

 75
0
147
1.0
148
0.0
149
0.0
100
AcDbLayout
  1
Layout1
 70
0
 71
1
 10
0.0
 20
0.0
 11
210.0
 21
297.0
 12
0.0
 22
0.0
 32
0.0
 14
0.0
 24
0.0
 34
0.0
 15
0.0
 25
0.0
 35
0.0
146
0.0
 13
0.0
 23
0.0
 33
0.0
 16
1.0
 26
0.0
 36
0.0
 17
0.0
 27
1.0
 37
0.0
 76
0
330
211
345
0
346
0
  0
ENDSEC
  0
EOF
