999
DXF file: C:\Users\sesa63760\Dev\_Creo\CAD\MCADID0004760_3D-CAD\drw0001_2.dxf
999
Pro/ENGINEER 2019471 by Parametric Technology Corporation
  0
SECTION
  2
HEADER
  9
$ACADVER
  1
AC1024
  9
$DWGCODEPAGE
  3
ANSI_1252
  9
$EXTMAX
 10
33.9809863329
 20
48.058823528
 30
0.0
  9
$EXTMIN
 10
0.0
 20
0.0
 30
0.0
  9
$LIMMIN
 10
0.0
 20
0.0
  9
$LIMMAX
 10
33.9809863329
 20
48.058823528
  9
$VIEWCTR
 10
16.9904931665
 20
24.029411764
  9
$VIEWSIZE
 40
48.058823528
  9
$CLAYER
  8
0
  9
$LTSCALE
 40
3.1327233115
  9
$CELTYPE
  6
BYLAYER
  9
$DIMSCALE
 40
1.0
  9
$DIMASZ
 40
0.4045355516
  9
$DIMEXO
 40
1.0
  9
$DIMDLI
 40
2.1644270152
  9
$DIMEXE
 40
1.0
  9
$DIMCEN
 40
0.512627451
  9
$DIMLFAC
 40
1.0
  9
$DIMBLK
  1
_FILLED
  9
$DIMALT
 70
0
  9
$DIMALTF
 40
0.0393700787
  9
$DIMTXT
 40
0.5663497722
  9
$DIMTOL
 70
1
  9
$DIMLIM
 70
0
  9
$DIMTFAC
 40
1.0
  9
$DIMTP
 40
0.01
  9
$DIMTM
 40
0.01
  9
$DIMGAP
 40
0.625
  9
$DIMDSEP
 70
46
  9
$AUNITS
 70
0
  9
$PDMODE
 70
3
  9
$PDSIZE
 40
0.3125
  9
$HANDSEED
  5
2BE
  9
$TILEMODE
 70
1
  9
$MEASUREMENT
 70
1
  9
$INSUNITS
 70
4
  0
ENDSEC
  0
SECTION
  2
CLASSES
  0
CLASS
  1
ACDBDICTIONARYWDFLT
  2
AcDbDictionaryWithDefault
  3
AutoCAD 2000
 90
0
 91
1
280
0
281
0
  0
CLASS
  1
ACDBPLACEHOLDER
  2
AcDbPlaceHolder
  3
AutoCAD 2000
 90
0
 91
1
280
0
281
0
  0
CLASS
  1
LAYOUT
  2
AcDbLayout
  3
AutoCAD 2000
 90
0
 91
0
280
0
281
0
  0
ENDSEC
  0
SECTION
  2
TABLES
  0
TABLE
  2
VPORT
  5
8
100
AcDbSymbolTable
 70
2
  0
VPORT
  5
1F4
100
AcDbSymbolTableRecord
100
AcDbViewportTableRecord
  2
*ACTIVE
 70
0
 10
0.0
 20
0.0
 11
1.0
 21
1.0
 12
16.9904931665
 22
24.029411764
 13
0.0
 23
0.0
 14
1.0
 24
1.0
 15
0.0
 25
0.0
 16
0.0
 26
0.0
 36
1.0
 17
0.0
 27
0.0
 37
0.0
 40
48.058823528
 41
0.7070707071
 42
50.0
 43
0.0
 44
0.0
 50
0.0
 51
0.0
 71
0
 72
100
 73
1
 74
1
 75
0
 76
0
 77
0
 78
0
  0
ENDTAB
  0
TABLE
  2
LTYPE
  5
5
100
AcDbSymbolTable
 70
6
  0
LTYPE
  5
14
100
AcDbSymbolTableRecord
100
AcDbLinetypeTableRecord
  2
BYBLOCK
 70
0
  3

 72
65
 73
0
 40
0.0
  0
LTYPE
  5
15
100
AcDbSymbolTableRecord
100
AcDbLinetypeTableRecord
  2
BYLAYER
 70
0
  3

 72
65
 73
0
 40
0.0
  0
LTYPE
  5
16
100
AcDbSymbolTableRecord
100
AcDbLinetypeTableRecord
  2
CONTINUOUS
 70
64
  3
Solid line
 72
65
 73
0
 40
0.0
  0
LTYPE
  5
1F5
100
AcDbSymbolTableRecord
100
AcDbLinetypeTableRecord
  2
CENTER
 70
64
  3
____ _ ____ _ ____ _ ____ _ ____ _ ____ _ ____
 72
65
 73
4
 40
0.6
 49
0.375
 74
0
 49
-0.075
 74
0
 49
0.075
 74
0
 49
-0.075
 74
0
  0
LTYPE
  5
1F6
100
AcDbSymbolTableRecord
100
AcDbLinetypeTableRecord
  2
HIDDEN
 70
64
  3
- - - - - - - - - - - - - - - - - - - -
 72
65
 73
2
 40
0.2
 49
0.1
 74
0
 49
-0.1
 74
0
  0
LTYPE
  5
1F7
100
AcDbSymbolTableRecord
100
AcDbLinetypeTableRecord
  2
PHANTOM
 70
64
  3
_____ _ _ _____ _ _ _____ _ _ _____
 72
65
 73
6
 40
0.8
 49
0.45
 74
0
 49
-0.05
 74
0
 49
0.1
 74
0
 49
-0.05
 74
0
 49
0.1
 74
0
 49
-0.05
 74
0
  0
LTYPE
  5
1F8
100
AcDbSymbolTableRecord
100
AcDbLinetypeTableRecord
  2
DOT
 70
64
  3
. . . . . . . . . . . . . . . . . . . .
 72
65
 73
2
 40
0.2
 49
0.1
 74
0
 49
-0.1
 74
0
  0
LTYPE
  5
1F9
100
AcDbSymbolTableRecord
100
AcDbLinetypeTableRecord
  2
DASHED
 70
64
  3
- - - - - - - - - - - - - - - - - - - -
 72
65
 73
2
 40
0.2
 49
0.1
 74
0
 49
-0.1
 74
0
  0
ENDTAB
  0
TABLE
  2
LAYER
  5
2
100
AcDbSymbolTable
 70
36
  0
LAYER
  5
10
100
AcDbSymbolTableRecord
100
AcDbLayerTableRecord
  2
0
 70
0
 62
7
  6
CONTINUOUS
370
-3
390
F
  0
LAYER
  5
1FA
100
AcDbSymbolTableRecord
100
AcDbLayerTableRecord
  2
DEFAULT_1
 70
0
 62
7
  6
CENTER
370
-3
390
F
  0
LAYER
  5
1FB
100
AcDbSymbolTableRecord
100
AcDbLayerTableRecord
  2
DEFAULT_2
 70
0
 62
7
  6
HIDDEN
370
-3
390
F
  0
LAYER
  5
1FC
100
AcDbSymbolTableRecord
100
AcDbLayerTableRecord
  2
DEFAULT_3
 70
0
 62
7
  6
PHANTOM
370
-3
390
F
  0
LAYER
  5
1FD
100
AcDbSymbolTableRecord
100
AcDbLayerTableRecord
  2
00_COMPONENTS
 70
0
 62
7
  6
CONTINUOUS
370
-3
390
F
  0
LAYER
  5
1FE
100
AcDbSymbolTableRecord
100
AcDbLayerTableRecord
  2
01_1_DEFAULT_DATUMS
 70
0
 62
7
  6
CONTINUOUS
370
-3
390
F
  0
LAYER
  5
1FF
100
AcDbSymbolTableRecord
100
AcDbLayerTableRecord
  2
01_PLANES
 70
0
 62
7
  6
CONTINUOUS
370
-3
390
F
  0
LAYER
  5
200
100
AcDbSymbolTableRecord
100
AcDbLayerTableRecord
  2
02_COORD_SYS
 70
0
 62
7
  6
CONTINUOUS
370
-3
390
F
  0
LAYER
  5
201
100
AcDbSymbolTableRecord
100
AcDbLayerTableRecord
  2
03_AXES
 70
0
 62
7
  6
CONTINUOUS
370
-3
390
F
  0
LAYER
  5
202
100
AcDbSymbolTableRecord
100
AcDbLayerTableRecord
  2
04_POINTS
 70
0
 62
7
  6
CONTINUOUS
370
-3
390
F
  0
LAYER
  5
203
100
AcDbSymbolTableRecord
100
AcDbLayerTableRecord
  2
05_CURVES
 70
0
 62
7
  6
CONTINUOUS
370
-3
390
F
  0
LAYER
  5
204
100
AcDbSymbolTableRecord
100
AcDbLayerTableRecord
  2
06_SURFS
 70
0
 62
7
  6
CONTINUOUS
370
-3
390
F
  0
LAYER
  5
205
100
AcDbSymbolTableRecord
100
AcDbLayerTableRecord
  2
07_COSMETICS
 70
0
 62
7
  6
CONTINUOUS
370
-3
390
F
  0
LAYER
  5
206
100
AcDbSymbolTableRecord
100
AcDbLayerTableRecord
  2
10_NOTES
 70
0
 62
7
  6
CONTINUOUS
370
-3
390
F
  0
LAYER
  5
207
100
AcDbSymbolTableRecord
100
AcDbLayerTableRecord
  2
11_NOTES_PUB
 70
0
 62
7
  6
CONTINUOUS
370
-3
390
F
  0
LAYER
  5
208
100
AcDbSymbolTableRecord
100
AcDbLayerTableRecord
  2
13_REF_GTOL
 70
0
 62
7
  6
CONTINUOUS
370
-3
390
F
  0
LAYER
  5
209
100
AcDbSymbolTableRecord
100
AcDbLayerTableRecord
  2
16_MISC
 70
0
 62
7
  6
CONTINUOUS
370
-3
390
F
  0
LAYER
  5
20A
100
AcDbSymbolTableRecord
100
AcDbLayerTableRecord
  2
17_NO_PRINT
 70
0
 62
7
  6
CONTINUOUS
370
-3
390
F
  0
LAYER
  5
20B
100
AcDbSymbolTableRecord
100
AcDbLayerTableRecord
  2
18_DATUM_CAMS_JOINTS
 70
0
 62
7
  6
CONTINUOUS
370
-3
390
F
  0
LAYER
  5
20C
100
AcDbSymbolTableRecord
100
AcDbLayerTableRecord
  2
19_DATUM_FUNCTIONAL
 70
0
 62
7
  6
CONTINUOUS
370
-3
390
F
  0
LAYER
  5
20D
100
AcDbSymbolTableRecord
100
AcDbLayerTableRecord
  2
20_DATUM_KINEMATIC_SCHEME
 70
0
 62
7
  6
CONTINUOUS
370
-3
390
F
  0
ENDTAB
  0
TABLE
  2
STYLE
  5
3
100
AcDbSymbolTable
 70
1
  0
STYLE
  5
11
100
AcDbSymbolTableRecord
100
AcDbTextStyleTableRecord
  2
STANDARD
 70
0
 40
0.0
 41
1.0
 50
0.0
 71
0
 42
0.2
  3
ARIAL.TTF
  4

  0
STYLE
  5
20E
100
AcDbSymbolTableRecord
100
AcDbTextStyleTableRecord
  2
TEXTSTYLE_1
 70
0
 40
0.0
 41
0.8
 50
0.0
 71
0
 42
0.2
  3
gdt
  4

  0
ENDTAB
  0
TABLE
  2
VIEW
  5
6
100
AcDbSymbolTable
 70
0
  0
ENDTAB
  0
TABLE
  2
UCS
  5
7
100
AcDbSymbolTable
 70
0
  0
ENDTAB
  0
TABLE
  2
APPID
  5
9
100
AcDbSymbolTable
 70
1
  0
APPID
  5
20F
100
AcDbSymbolTableRecord
100
AcDbRegAppTableRecord
  2
ACAD
 70
0
  0
ENDTAB
  0
TABLE
  2
BLOCK_RECORD
  5
1
100
AcDbSymbolTable
 70
0
  0
BLOCK_RECORD
  5
210
100
AcDbSymbolTableRecord
100
AcDbBlockTableRecord
  2
*Model_Space
  0
BLOCK_RECORD
  5
211
100
AcDbSymbolTableRecord
100
AcDbBlockTableRecord
  2
*Paper_Space
  0
BLOCK_RECORD
  5
212
100
AcDbSymbolTableRecord
100
AcDbBlockTableRecord
  2
_FILLED
  0
ENDTAB
  0
TABLE
  2
DIMSTYLE
  5
A
100
AcDbSymbolTable
 70
1
100
AcDbDimStyleTable
 71
0
  0
DIMSTYLE
105
213
100
AcDbSymbolTableRecord
100
AcDbDimStyleTableRecord
  2
STANDARD
 70
0
  3

  4

 40
1.0
 41
0.4045355516
 42
1.0
 43
0.38
 44
1.0
 45
0.0
 46
0.0
 47
0.01
 48
0.01
140
0.5663497722
141
0.09
142
0.0
143
25.4
144
1.0
145
0.0
146
1.0
147
0.625
 71
1
 72
0
 73
0
 74
0
 75
0
 76
0
 77
1
 78
8
 79
2
170
0
171
1
172
0
173
0
174
0
175
0
176
0
177
0
178
0
270
2
179
2
271
2
272
2
273
2
274
2
275
0
280
0
281
0
282
0
283
1
284
8
285
0
286
0
287
3
288
0
340
11
278
46
341
212
342
212
343
212
344
212
  0
ENDTAB
  0
ENDSEC
  0
SECTION
  2
BLOCKS
  0
BLOCK
  5
20
100
AcDbEntity
  8
0
100
AcDbBlockBegin
  2
*Model_Space
 70
0
 10
0.0
 20
0.0
 30
0.0
  3
*Model_Space
  1

  0
ENDBLK
  5
21
100
AcDbEntity
  8
0
100
AcDbBlockEnd
  0
BLOCK
  5
1C
100
AcDbEntity
  8
0
100
AcDbBlockBegin
  2
*Paper_Space
 70
0
 10
0.0
 20
0.0
 30
0.0
  3
*Paper_Space
  1

  0
ENDBLK
  5
1D
100
AcDbEntity
  8
0
100
AcDbBlockEnd
  0
BLOCK
  5
214
100
AcDbEntity
  8
0
100
AcDbBlockBegin
  2
_FILLED
 70
64
 10
0.0
 20
0.0
  3
_FILLED
  1

  0
SOLID
  5
215
100
AcDbEntity
  8
0
  6
BYBLOCK
 62
0
100
AcDbTrace
 10
0.0
 20
0.0
 11
-1.0
 21
0.25
 12
-1.0
 22
-0.25
 13
-1.0
 23
-0.25
  0
ENDBLK
  5
216
100
AcDbEntity
  8
0
  6
BYBLOCK
 62
0
100
AcDbBlockEnd
  0
ENDSEC
  0
SECTION
  2
ENTITIES
  0
LINE
  5
217
100
AcDbEntity
  8
0
100
AcDbLine
 62
7
  6
BYLAYER
 10
3.7257872841
 20
36.7412830833
 11
3.7257872841
 21
11.1410698565
  0
LINE
  5
218
100
AcDbEntity
  8
0
100
AcDbLine
 62
7
  6
BYLAYER
 10
3.8043350763
 20
36.6627264668
 11
3.8043350763
 21
36.3019685059
  0
LINE
  5
219
100
AcDbEntity
  8
0
100
AcDbLine
 62
7
  6
BYLAYER
 10
3.8043350763
 20
11.5803844338
 11
3.8043350763
 21
11.219626473
  0
LINE
  5
21A
100
AcDbEntity
  8
0
100
AcDbLine
 62
7
  6
BYLAYER
 10
3.8392452062
 20
36.2670583761
 11
3.8392452062
 21
11.6152945637
  0
LINE
  5
21B
100
AcDbEntity
  8
0
100
AcDbLine
 62
7
  6
BYLAYER
 10
4.4256806708
 20
10.4411764699
 11
30.0258938975
 21
10.4411764699
  0
LINE
  5
21C
100
AcDbEntity
  8
0
100
AcDbLine
 62
7
  6
BYLAYER
 10
4.5042372872
 20
10.5197242621
 11
4.8649952481
 21
10.5197242621
  0
LINE
  5
21D
100
AcDbEntity
  8
0
100
AcDbLine
 62
7
  6
BYLAYER
 10
29.5865793202
 20
10.5197242621
 11
29.9473350931
 21
10.5197242621
  0
LINE
  5
21E
100
AcDbEntity
  8
0
100
AcDbLine
 62
7
  6
BYLAYER
 10
4.899905378
 20
10.5546343919
 11
29.5516691903
 21
10.5546343919
  0
LINE
  5
21F
100
AcDbEntity
  8
0
100
AcDbLine
 62
7
  6
BYLAYER
 10
6.3523189862
 20
18.4087550133
 11
5.2939356316
 21
14.4588145601
  0
LINE
  5
220
100
AcDbEntity
  8
0
100
AcDbLine
 62
7
  6
BYLAYER
 10
7.7434253744
 20
12.0093248173
 11
11.6933658276
 21
13.0677081719
  0
LINE
  5
221
100
AcDbEntity
  8
0
100
AcDbLine
 62
7
  6
BYLAYER
 10
22.7582087407
 20
13.0677081719
 11
26.7081491939
 21
12.0093248173
  0
LINE
  5
222
100
AcDbEntity
  8
0
100
AcDbLine
 62
7
  6
BYLAYER
 10
10.1193641332
 20
17.3297280658
 11
10.6143388801
 21
16.834753319
  0
LINE
  5
223
100
AcDbEntity
  8
0
100
AcDbLine
 62
7
  6
BYLAYER
 10
10.6707549456
 20
16.8911693845
 11
10.1757801988
 21
17.3861441313
  0
LINE
  5
224
100
AcDbEntity
  8
0
100
AcDbLine
 62
7
  6
BYLAYER
 10
10.2320645705
 20
17.442428503
 11
10.7270393173
 21
16.9474537562
  0
LINE
  5
225
100
AcDbEntity
  8
0
100
AcDbLine
 62
7
  6
BYLAYER
 10
10.6143388801
 20
16.6226212846
 11
10.0134457942
 21
17.2238097268
  0
LINE
  5
226
100
AcDbEntity
  8
0
100
AcDbLine
 62
7
  6
BYLAYER
 10
5.2939356316
 20
33.4235383796
 11
6.3523189862
 21
29.4735979264
  0
LINE
  5
227
100
AcDbEntity
  8
0
100
AcDbLine
 62
7
  6
BYLAYER
 10
10.8122004809
 20
18.0225644134
 11
11.3071752277
 21
17.5275896666
  0
LINE
  5
228
100
AcDbEntity
  8
0
100
AcDbLine
 62
7
  6
BYLAYER
 10
10.9701911825
 20
18.1805551151
 11
11.4651659293
 21
17.6855803682
  0
LINE
  5
229
100
AcDbEntity
  8
0
100
AcDbLine
 62
7
  6
BYLAYER
 10
11.8034121609
 20
18.0238265998
 11
11.3084374141
 21
18.5188013466
  0
LINE
  5
22A
100
AcDbEntity
  8
0
100
AcDbLine
 62
7
  6
BYLAYER
 10
11.3068260328
 20
18.7293219998
 11
12.0139328141
 21
18.0222152187
  0
LINE
  5
22B
100
AcDbEntity
  8
0
100
AcDbLine
 62
7
  6
BYLAYER
 10
12.5235271893
 20
19.9460231562
 11
13.2306339704
 21
19.238916375
  0
LINE
  5
22C
100
AcDbEntity
  8
0
100
AcDbLine
 62
7
  6
BYLAYER
 10
12.7356592236
 20
19.9460231562
 11
13.2306339704
 21
19.4510484093
  0
LINE
  5
22D
100
AcDbEntity
  8
0
100
AcDbLine
 62
7
  6
BYLAYER
 10
22.907762698
 20
31.0373654461
 11
20.3288862931
 21
28.4584890412
  0
LINE
  5
22E
100
AcDbEntity
  8
0
100
AcDbLine
 62
7
  6
BYLAYER
 10
12.7084745712
 20
20.8380773193
 11
10.1295983079
 21
18.259201056
  0
LINE
  5
22F
100
AcDbEntity
  8
0
100
AcDbLine
 62
7
  6
BYLAYER
 10
3.8043350763
 20
11.5803844338
 11
5.6148214464
 21
13.3908708039
  0
LINE
  5
230
100
AcDbEntity
  8
0
100
AcDbLine
 62
7
  6
BYLAYER
 10
27.7760929501
 20
35.5521423076
 11
29.5865793202
 21
37.3626286777
  0
LINE
  5
231
100
AcDbEntity
  8
0
100
AcDbLine
 62
7
  6
BYLAYER
 10
9.5976205018
 20
17.0201164687
 11
12.5235271893
 21
19.9460231562
  0
LINE
  5
232
100
AcDbEntity
  8
0
100
AcDbLine
 62
7
  6
BYLAYER
 10
23.5811618604
 20
31.0036578273
 11
24.1468472853
 21
31.5693432523
  0
LINE
  5
233
100
AcDbEntity
  8
0
100
AcDbLine
 62
7
  6
BYLAYER
 10
3.7257872841
 20
11.1410698565
 11
3.8043350763
 21
11.2196176487
  0
LINE
  5
234
100
AcDbEntity
  8
0
100
AcDbLine
 62
7
  6
BYLAYER
 10
29.9473461054
 20
37.3626286777
 11
30.0258938975
 21
37.4411764699
  0
LINE
  5
235
100
AcDbEntity
  8
0
100
AcDbLine
 62
7
  6
BYLAYER
 10
9.6993061616
 20
16.9096700942
 11
12.7356592236
 21
19.9460231562
  0
LINE
  5
236
100
AcDbEntity
  8
0
100
AcDbLine
 62
7
  6
BYLAYER
 10
10.1295983079
 20
29.6231518837
 11
12.7084744636
 21
27.0442757281
  0
LINE
  5
237
100
AcDbEntity
  8
0
100
AcDbLine
 62
7
  6
BYLAYER
 10
20.3288865479
 20
19.4238636438
 11
22.907762698
 21
16.8449874937
  0
LINE
  5
238
100
AcDbEntity
  8
0
100
AcDbLine
 62
7
  6
BYLAYER
 10
29.5865793202
 20
10.5197242621
 11
27.7760929501
 21
12.3302106321
  0
LINE
  5
239
100
AcDbEntity
  8
0
100
AcDbLine
 62
7
  6
BYLAYER
 10
5.6148214464
 20
34.4914821358
 11
3.8043350763
 21
36.3019685059
  0
LINE
  5
23A
100
AcDbEntity
  8
0
100
AcDbLine
 62
7
  6
BYLAYER
 10
30.0258938975
 20
10.4411764699
 11
29.9473461054
 21
10.5197242621
  0
LINE
  5
23B
100
AcDbEntity
  8
0
100
AcDbLine
 62
7
  6
BYLAYER
 10
3.8043350763
 20
36.6627352911
 11
3.7257872841
 21
36.7412830833
  0
LINE
  5
23C
100
AcDbEntity
  8
0
100
AcDbLine
 62
7
  6
BYLAYER
 10
10.1942809084
 20
16.4146953473
 11
13.2306339704
 21
19.4510484093
  0
LINE
  5
23D
100
AcDbEntity
  8
0
100
AcDbLine
 62
7
  6
BYLAYER
 10
30.7257872841
 20
36.7412830833
 11
30.647239492
 21
36.6627352911
  0
LINE
  5
23E
100
AcDbEntity
  8
0
100
AcDbLine
 62
7
  6
BYLAYER
 10
4.5042284629
 20
10.5197242621
 11
4.4256806708
 21
10.4411764699
  0
LINE
  5
23F
100
AcDbEntity
  8
0
100
AcDbLine
 62
7
  6
BYLAYER
 10
10.3047272829
 20
16.3130096875
 11
13.2306339704
 21
19.238916375
  0
LINE
  5
240
100
AcDbEntity
  8
0
100
AcDbLine
 62
7
  6
BYLAYER
 10
24.2882686416
 20
30.2965510461
 11
24.8539540665
 21
30.8622364711
  0
LINE
  5
241
100
AcDbEntity
  8
0
100
AcDbLine
 62
7
  6
BYLAYER
 10
30.647239492
 20
36.3019685059
 11
28.8367531219
 21
34.4914821358
  0
LINE
  5
242
100
AcDbEntity
  8
0
100
AcDbLine
 62
7
  6
BYLAYER
 10
4.8649952481
 20
10.5197242621
 11
6.6754816182
 21
12.3302106321
  0
LINE
  5
243
100
AcDbEntity
  8
0
100
AcDbLine
 62
7
  6
BYLAYER
 10
11.5438118703
 20
16.8449874937
 11
14.1226881337
 21
19.423863757
  0
LINE
  5
244
100
AcDbEntity
  8
0
100
AcDbLine
 62
7
  6
BYLAYER
 10
21.7430998555
 20
27.0442754789
 11
24.3219762604
 21
29.6231518837
  0
LINE
  5
245
100
AcDbEntity
  8
0
100
AcDbLine
 62
7
  6
BYLAYER
 10
4.4256806708
 20
37.4411764699
 11
4.5042284629
 21
37.3626286777
  0
LINE
  5
246
100
AcDbEntity
  8
0
100
AcDbLine
 62
7
  6
BYLAYER
 10
30.647239492
 20
11.2196176487
 11
30.7257872841
 21
11.1410698565
  0
LINE
  5
247
100
AcDbEntity
  8
0
100
AcDbLine
 62
7
  6
BYLAYER
 10
4.8649952481
 20
37.3626286777
 11
6.6754816182
 21
35.5521423076
  0
LINE
  5
248
100
AcDbEntity
  8
0
100
AcDbLine
 62
7
  6
BYLAYER
 10
28.8367531219
 20
13.3908708039
 11
30.647239492
 21
11.5803844338
  0
LINE
  5
249
100
AcDbEntity
  8
0
100
AcDbLine
 62
7
  6
BYLAYER
 10
24.3219762604
 20
18.259201056
 11
21.7431007292
 21
20.8380765872
  0
LINE
  5
24A
100
AcDbEntity
  8
0
100
AcDbLine
 62
7
  6
BYLAYER
 10
14.1226874177
 20
28.4584898987
 11
11.5438118703
 21
31.0373654461
  0
LINE
  5
24B
100
AcDbEntity
  8
0
100
AcDbLine
 62
7
  6
BYLAYER
 10
28.0992555821
 20
29.4735979264
 11
29.1576389367
 21
33.4235383797
  0
LINE
  5
24C
100
AcDbEntity
  8
0
100
AcDbLine
 62
7
  6
BYLAYER
 10
26.7081491939
 20
35.8730281225
 11
22.7582087407
 21
34.8146447679
  0
LINE
  5
24D
100
AcDbEntity
  8
0
100
AcDbLine
 62
7
  6
BYLAYER
 10
11.6933658276
 20
34.8146447679
 11
7.7434253744
 21
35.8730281225
  0
LINE
  5
24E
100
AcDbEntity
  8
0
100
AcDbLine
 62
7
  6
BYLAYER
 10
29.1576389367
 20
14.4588145601
 11
28.0992555821
 21
18.4087550133
  0
LINE
  5
24F
100
AcDbEntity
  8
0
100
AcDbLine
 62
7
  6
BYLAYER
 10
24.2882686416
 20
30.2965510461
 11
23.5811618604
 21
31.0036578273
  0
LINE
  5
250
100
AcDbEntity
  8
0
100
AcDbLine
 62
7
  6
BYLAYER
 10
30.6123293621
 20
11.6152945637
 11
30.6123293621
 21
36.2670583761
  0
LINE
  5
251
100
AcDbEntity
  8
0
100
AcDbLine
 62
7
  6
BYLAYER
 10
30.647239492
 20
11.2196286609
 11
30.647239492
 21
11.5803844338
  0
LINE
  5
252
100
AcDbEntity
  8
0
100
AcDbLine
 62
7
  6
BYLAYER
 10
30.647239492
 20
36.3019685059
 11
30.647239492
 21
36.6627242788
  0
LINE
  5
253
100
AcDbEntity
  8
0
100
AcDbLine
 62
7
  6
BYLAYER
 10
30.7257872841
 20
11.1410698565
 11
30.7257872841
 21
36.7412830833
  0
LINE
  5
254
100
AcDbEntity
  8
0
100
AcDbLine
 62
7
  6
BYLAYER
 10
29.5516691903
 20
37.3277185478
 11
4.899905378
 21
37.3277185478
  0
LINE
  5
255
100
AcDbEntity
  8
0
100
AcDbLine
 62
7
  6
BYLAYER
 10
29.9473350931
 20
37.3626286777
 11
29.5865793202
 21
37.3626286777
  0
LINE
  5
256
100
AcDbEntity
  8
0
100
AcDbLine
 62
7
  6
BYLAYER
 10
4.8649952481
 20
37.3626286777
 11
4.5042372872
 21
37.3626286777
  0
LINE
  5
257
100
AcDbEntity
  8
0
100
AcDbLine
 62
7
  6
BYLAYER
 10
30.0258938975
 20
37.4411764699
 11
4.4256806708
 21
37.4411764699
  0
ARC
  5
258
100
AcDbEntity
  8
0
100
AcDbCircle
 62
7
  6
BYLAYER
 10
7.2257872841
 20
13.9411764699
 40
2.0
100
AcDbArc
 50
247.024312837
 51
285.0000000004
  0
ARC
  5
259
100
AcDbEntity
  8
0
100
AcDbCircle
 62
7
  6
BYLAYER
 10
7.2257872841
 20
13.9411764699
 40
2.0
100
AcDbArc
 50
164.9999999995
 51
202.975687163
  0
ARC
  5
25A
100
AcDbEntity
  8
0
100
AcDbCircle
 62
7
  6
BYLAYER
 10
7.2257872841
 20
13.9411764699
 40
1.7477483636
100
AcDbArc
 50
250.4119519199
 51
199.5880480801
  0
ARC
  5
25B
100
AcDbEntity
  8
0
100
AcDbCircle
 62
7
  6
BYLAYER
 10
7.2257872841
 20
13.9411764699
 40
1.7023651948
100
AcDbArc
 50
198.8601586403
 51
251.1398413597
  0
CIRCLE
  5
25C
100
AcDbEntity
  8
0
100
AcDbCircle
 62
7
  6
BYLAYER
 10
7.2257872841
 20
13.9411764699
 40
1.65
  0
CIRCLE
  5
25D
100
AcDbEntity
  8
0
100
AcDbCircle
 62
7
  6
BYLAYER
 10
7.2257872841
 20
13.9411764699
 40
1.5
  0
CIRCLE
  5
25E
100
AcDbEntity
  8
0
100
AcDbCircle
 62
7
  6
BYLAYER
 10
7.2257872841
 20
13.9411764699
 40
1.3
  0
ARC
  5
25F
100
AcDbEntity
  8
0
100
AcDbCircle
 62
7
  6
BYLAYER
 10
10.013298116
 20
17.2236620486
 40
0.15
100
AcDbArc
 50
45.0
 51
135.0
  0
ARC
  5
260
100
AcDbEntity
  8
0
100
AcDbCircle
 62
7
  6
BYLAYER
 10
10.5082728629
 20
16.7286873018
 40
0.15
100
AcDbArc
 50
314.9999993309
 51
45.0
  0
ARC
  5
261
100
AcDbEntity
  8
0
100
AcDbCircle
 62
7
  6
BYLAYER
 10
13.1245679533
 20
19.3449823922
 40
0.15
100
AcDbArc
 50
315.0
 51
45.0000000001
  0
ARC
  5
262
100
AcDbEntity
  8
0
100
AcDbCircle
 62
7
  6
BYLAYER
 10
12.6295932064
 20
19.839957139
 40
0.15
100
AcDbArc
 50
45.0
 51
135.0000000001
  0
ARC
  5
263
100
AcDbEntity
  8
0
100
AcDbCircle
 62
7
  6
BYLAYER
 10
10.0697046557
 20
17.2801172685
 40
0.1499655779
100
AcDbArc
 50
44.9992762075
 51
134.9992758752
  0
ARC
  5
264
100
AcDbEntity
  8
0
100
AcDbCircle
 62
7
  6
BYLAYER
 10
10.5647280827
 20
16.7850938414
 40
0.1499655779
100
AcDbArc
 50
315.0007241248
 51
45.0007237923
  0
ARC
  5
265
100
AcDbEntity
  8
0
100
AcDbCircle
 62
7
  6
BYLAYER
 10
10.8635189815
 20
18.0761991598
 40
0.1487658078
100
AcDbArc
 50
89.5847581163
 51
102.5906401244
  0
ARC
  5
266
100
AcDbEntity
  8
0
100
AcDbCircle
 62
7
  6
BYLAYER
 10
11.3608099747
 20
17.5789081668
 40
0.148765807
100
AcDbArc
 50
347.4093788993
 51
0.415241946
  0
ARC
  5
267
100
AcDbEntity
  8
0
100
AcDbCircle
 62
7
  6
BYLAYER
 10
10.8630679087
 20
18.0785208659
 40
0.1464016214
100
AcDbArc
 50
102.616418561
 51
134.9313005346
  0
ARC
  5
268
100
AcDbEntity
  8
0
100
AcDbCircle
 62
7
  6
BYLAYER
 10
11.3631316803
 20
17.578457094
 40
0.146401621
100
AcDbArc
 50
315.0686994237
 51
347.3836008272
  0
ARC
  5
269
100
AcDbEntity
  8
0
100
AcDbCircle
 62
7
  6
BYLAYER
 10
7.2257872841
 20
33.9411764699
 40
2.0
100
AcDbArc
 50
74.9999999998
 51
112.975687163
  0
ARC
  5
26A
100
AcDbEntity
  8
0
100
AcDbCircle
 62
7
  6
BYLAYER
 10
7.2257872841
 20
33.9411764699
 40
2.0
100
AcDbArc
 50
157.024312837
 51
195.0000000012
  0
ARC
  5
26B
100
AcDbEntity
  8
0
100
AcDbCircle
 62
7
  6
BYLAYER
 10
7.2257872841
 20
33.9411764699
 40
1.7477483636
100
AcDbArc
 50
160.4119519199
 51
109.5880480801
  0
ARC
  5
26C
100
AcDbEntity
  8
0
100
AcDbCircle
 62
7
  6
BYLAYER
 10
7.2257872841
 20
33.9411764699
 40
1.7023651948
100
AcDbArc
 50
108.8601586403
 51
161.1398413597
  0
CIRCLE
  5
26D
100
AcDbEntity
  8
0
100
AcDbCircle
 62
7
  6
BYLAYER
 10
7.2257872841
 20
33.9411764699
 40
1.65
  0
CIRCLE
  5
26E
100
AcDbEntity
  8
0
100
AcDbCircle
 62
7
  6
BYLAYER
 10
7.2257872841
 20
33.9411764699
 40
1.5
  0
CIRCLE
  5
26F
100
AcDbEntity
  8
0
100
AcDbCircle
 62
7
  6
BYLAYER
 10
7.2257872841
 20
33.9411764699
 40
1.3
  0
ARC
  5
270
100
AcDbEntity
  8
0
100
AcDbCircle
 62
7
  6
BYLAYER
 10
27.2257872841
 20
13.9411764699
 40
2.0
100
AcDbArc
 50
254.9999999998
 51
292.975687163
  0
ARC
  5
271
100
AcDbEntity
  8
0
100
AcDbCircle
 62
7
  6
BYLAYER
 10
27.2257872841
 20
13.9411764699
 40
2.0
100
AcDbArc
 50
337.024312837
 51
15.0000000012
  0
ARC
  5
272
100
AcDbEntity
  8
0
100
AcDbCircle
 62
7
  6
BYLAYER
 10
27.2257872841
 20
13.9411764699
 40
1.7477483636
100
AcDbArc
 50
340.4119519199
 51
289.5880480801
  0
ARC
  5
273
100
AcDbEntity
  8
0
100
AcDbCircle
 62
7
  6
BYLAYER
 10
27.2257872841
 20
13.9411764699
 40
1.7023651948
100
AcDbArc
 50
288.8601586403
 51
341.1398413597
  0
CIRCLE
  5
274
100
AcDbEntity
  8
0
100
AcDbCircle
 62
7
  6
BYLAYER
 10
27.2257872841
 20
13.9411764699
 40
1.65
  0
CIRCLE
  5
275
100
AcDbEntity
  8
0
100
AcDbCircle
 62
7
  6
BYLAYER
 10
27.2257872841
 20
13.9411764699
 40
1.5
  0
CIRCLE
  5
276
100
AcDbEntity
  8
0
100
AcDbCircle
 62
7
  6
BYLAYER
 10
27.2257872841
 20
13.9411764699
 40
1.3
  0
CIRCLE
  5
277
100
AcDbEntity
  8
0
100
AcDbCircle
 62
7
  6
BYLAYER
 10
17.2257872841
 20
23.9411764699
 40
12.2
  0
CIRCLE
  5
278
100
AcDbEntity
  8
0
100
AcDbCircle
 62
7
  6
BYLAYER
 10
17.2257872841
 20
23.9411764699
 40
10.4999997447
  0
CIRCLE
  5
279
100
AcDbEntity
  8
0
100
AcDbCircle
 62
7
  6
BYLAYER
 10
17.2257872841
 20
23.9411764699
 40
10.3
  0
ARC
  5
27A
100
AcDbEntity
  8
0
100
AcDbCircle
 62
7
  6
BYLAYER
 10
17.2257872841
 20
23.9411764699
 40
10.212260565
100
AcDbArc
 50
227.8063666721
 51
42.1936333279
  0
ARC
  5
27B
100
AcDbEntity
  8
0
100
AcDbCircle
 62
7
  6
BYLAYER
 10
17.2257872841
 20
23.9411764699
 40
10.212260565
100
AcDbArc
 50
47.8063666721
 51
222.1936333279
  0
ARC
  5
27C
100
AcDbEntity
  8
0
100
AcDbCircle
 62
7
  6
BYLAYER
 10
17.2257872841
 20
23.9411764699
 40
10.1453494193
100
AcDbArc
 50
227.8248903327
 51
42.1751096673
  0
ARC
  5
27D
100
AcDbEntity
  8
0
100
AcDbCircle
 62
7
  6
BYLAYER
 10
17.2257872841
 20
23.9411764699
 40
10.1453494193
100
AcDbArc
 50
47.8248903327
 51
222.1751096673
  0
ARC
  5
27E
100
AcDbEntity
  8
0
100
AcDbCircle
 62
7
  6
BYLAYER
 10
17.2257872841
 20
23.9411764699
 40
9.5783121635
100
AcDbArc
 50
227.9922721279
 51
42.0077278721
  0
ARC
  5
27F
100
AcDbEntity
  8
0
100
AcDbCircle
 62
7
  6
BYLAYER
 10
17.2257872841
 20
23.9411764699
 40
9.5783121635
100
AcDbArc
 50
47.9922721279
 51
222.0077278721
  0
ARC
  5
280
100
AcDbEntity
  8
0
100
AcDbCircle
 62
7
  6
BYLAYER
 10
17.2257872841
 20
23.9411764699
 40
9.1452994616
100
AcDbArc
 50
228.1340888433
 51
221.8659111567
  0
ARC
  5
281
100
AcDbEntity
  8
0
100
AcDbCircle
 62
7
  6
BYLAYER
 10
17.2257872841
 20
23.9411764699
 40
9.0906953854
100
AcDbArc
 50
218.684535365
 51
221.8470670031
  0
ARC
  5
282
100
AcDbEntity
  8
0
100
AcDbCircle
 62
7
  6
BYLAYER
 10
17.2257872841
 20
23.9411764699
 40
9.0906953854
100
AcDbArc
 50
128.684535365
 51
141.315464635
  0
ARC
  5
283
100
AcDbEntity
  8
0
100
AcDbCircle
 62
7
  6
BYLAYER
 10
17.2257872841
 20
23.9411764699
 40
9.0906953854
100
AcDbArc
 50
38.684535365
 51
51.315464635
  0
ARC
  5
284
100
AcDbEntity
  8
0
100
AcDbCircle
 62
7
  6
BYLAYER
 10
17.2257872841
 20
23.9411764699
 40
9.0906953854
100
AcDbArc
 50
308.684535365
 51
321.315464635
  0
ARC
  5
285
100
AcDbEntity
  8
0
100
AcDbCircle
 62
7
  6
BYLAYER
 10
17.2257872841
 20
23.9411764699
 40
9.0906953854
100
AcDbArc
 50
228.1529329969
 51
231.315464635
  0
ARC
  5
286
100
AcDbEntity
  8
0
100
AcDbCircle
 62
7
  6
BYLAYER
 10
17.2257872841
 20
23.9411764699
 40
8.5728540609
100
AcDbArc
 50
228.3435955085
 51
231.6986460403
  0
ARC
  5
287
100
AcDbEntity
  8
0
100
AcDbCircle
 62
7
  6
BYLAYER
 10
17.2257872841
 20
23.9411764699
 40
8.5728540609
100
AcDbArc
 50
218.3013539597
 51
221.6564044915
  0
ARC
  5
288
100
AcDbEntity
  8
0
100
AcDbCircle
 62
7
  6
BYLAYER
 10
17.2257872841
 20
23.9411764699
 40
8.5728540609
100
AcDbArc
 50
128.3013539597
 51
141.6986460403
  0
ARC
  5
289
100
AcDbEntity
  8
0
100
AcDbCircle
 62
7
  6
BYLAYER
 10
17.2257872841
 20
23.9411764699
 40
8.5728540609
100
AcDbArc
 50
38.3013539597
 51
51.6986460403
  0
ARC
  5
28A
100
AcDbEntity
  8
0
100
AcDbCircle
 62
7
  6
BYLAYER
 10
17.2257872841
 20
23.9411764699
 40
8.5728540609
100
AcDbArc
 50
308.3013539597
 51
321.6986460403
  0
ARC
  5
28B
100
AcDbEntity
  8
0
100
AcDbCircle
 62
7
  6
BYLAYER
 10
17.2257872841
 20
23.9411764699
 40
8.0804501844
100
AcDbArc
 50
217.8911079276
 51
221.4524002861
  0
ARC
  5
28C
100
AcDbEntity
  8
0
100
AcDbCircle
 62
7
  6
BYLAYER
 10
17.2257872841
 20
23.9411764699
 40
8.0804501844
100
AcDbArc
 50
127.8911079193
 51
142.108892073
  0
ARC
  5
28D
100
AcDbEntity
  8
0
100
AcDbCircle
 62
7
  6
BYLAYER
 10
17.2257872841
 20
23.9411764699
 40
8.0804501844
100
AcDbArc
 50
37.8911079193
 51
52.108892073
  0
ARC
  5
28E
100
AcDbEntity
  8
0
100
AcDbCircle
 62
7
  6
BYLAYER
 10
17.2257872841
 20
23.9411764699
 40
8.0804501844
100
AcDbArc
 50
307.8911079193
 51
322.108892073
  0
ARC
  5
28F
100
AcDbEntity
  8
0
100
AcDbCircle
 62
7
  6
BYLAYER
 10
17.2257872841
 20
23.9411764699
 40
8.0804501844
100
AcDbArc
 50
228.5475997139
 51
232.1088920698
  0
ARC
  5
290
100
AcDbEntity
  8
0
100
AcDbCircle
 62
7
  6
BYLAYER
 10
17.2257872841
 20
23.9411764699
 40
6.910245201
100
AcDbArc
 50
143.320637798
 51
216.6793581552
  0
ARC
  5
291
100
AcDbEntity
  8
0
100
AcDbCircle
 62
7
  6
BYLAYER
 10
17.2257872841
 20
23.9411764699
 40
6.910245201
100
AcDbArc
 50
53.3206401331
 51
126.6793605147
  0
ARC
  5
292
100
AcDbEntity
  8
0
100
AcDbCircle
 62
7
  6
BYLAYER
 10
17.2257872841
 20
23.9411764699
 40
6.910245201
100
AcDbArc
 50
323.3206404188
 51
36.6793596919
  0
ARC
  5
293
100
AcDbEntity
  8
0
100
AcDbCircle
 62
7
  6
BYLAYER
 10
17.2257872841
 20
23.9411764699
 40
6.910245201
100
AcDbArc
 50
233.3206410673
 51
306.6793621508
  0
ARC
  5
294
100
AcDbEntity
  8
0
100
AcDbCircle
 62
7
  6
BYLAYER
 10
17.2257872841
 20
23.9411764699
 40
6.4178413245
100
AcDbArc
 50
233.9641032688
 51
306.0358967312
  0
ARC
  5
295
100
AcDbEntity
  8
0
100
AcDbCircle
 62
7
  6
BYLAYER
 10
17.2257872841
 20
23.9411764699
 40
6.4178413245
100
AcDbArc
 50
143.9641032688
 51
216.0358967312
  0
ARC
  5
296
100
AcDbEntity
  8
0
100
AcDbCircle
 62
7
  6
BYLAYER
 10
17.2257872841
 20
23.9411764699
 40
6.4178413245
100
AcDbArc
 50
53.9641032688
 51
126.0358967312
  0
ARC
  5
297
100
AcDbEntity
  8
0
100
AcDbCircle
 62
7
  6
BYLAYER
 10
17.2257872841
 20
23.9411764699
 40
6.4178413245
100
AcDbArc
 50
323.9641032688
 51
36.0358967312
  0
ARC
  5
298
100
AcDbEntity
  8
0
100
AcDbCircle
 62
7
  6
BYLAYER
 10
17.2257872841
 20
23.9411764699
 40
5.9728540609
100
AcDbArc
 50
234.6380871911
 51
305.3619128089
  0
ARC
  5
299
100
AcDbEntity
  8
0
100
AcDbCircle
 62
7
  6
BYLAYER
 10
17.2257872841
 20
23.9411764699
 40
5.9728540609
100
AcDbArc
 50
144.6380871911
 51
215.3619128089
  0
ARC
  5
29A
100
AcDbEntity
  8
0
100
AcDbCircle
 62
7
  6
BYLAYER
 10
17.2257872841
 20
23.9411764699
 40
5.9728540609
100
AcDbArc
 50
54.6380871911
 51
125.3619128089
  0
ARC
  5
29B
100
AcDbEntity
  8
0
100
AcDbCircle
 62
7
  6
BYLAYER
 10
17.2257872841
 20
23.9411764699
 40
5.9728540609
100
AcDbArc
 50
324.6380871911
 51
35.3619128089
  0
ARC
  5
29C
100
AcDbEntity
  8
0
100
AcDbCircle
 62
7
  6
BYLAYER
 10
17.2257872841
 20
23.9411764699
 40
5.4804501844
100
AcDbArc
 50
145.5134737629
 51
214.4865259467
  0
ARC
  5
29D
100
AcDbEntity
  8
0
100
AcDbCircle
 62
7
  6
BYLAYER
 10
17.2257872841
 20
23.9411764699
 40
5.4804501844
100
AcDbArc
 50
55.5134744352
 51
124.4865278781
  0
ARC
  5
29E
100
AcDbEntity
  8
0
100
AcDbCircle
 62
7
  6
BYLAYER
 10
17.2257872841
 20
23.9411764699
 40
5.4804501844
100
AcDbArc
 50
325.5134720782
 51
34.4865255648
  0
ARC
  5
29F
100
AcDbEntity
  8
0
100
AcDbCircle
 62
7
  6
BYLAYER
 10
17.2257872841
 20
23.9411764699
 40
5.4804501844
100
AcDbArc
 50
235.5134740535
 51
304.486526252
  0
CIRCLE
  5
2A0
100
AcDbEntity
  8
0
100
AcDbCircle
 62
7
  6
BYLAYER
 10
17.2257872841
 20
23.9411764699
 40
2.5
  0
CIRCLE
  5
2A1
100
AcDbEntity
  8
0
100
AcDbCircle
 62
7
  6
BYLAYER
 10
17.2257872841
 20
23.9411764699
 40
1.9
  0
ARC
  5
2A2
100
AcDbEntity
  8
0
100
AcDbCircle
 62
7
  6
BYLAYER
 10
27.2257872841
 20
33.9411764699
 40
2.0
100
AcDbArc
 50
67.024312837
 51
105.0000000004
  0
ARC
  5
2A3
100
AcDbEntity
  8
0
100
AcDbCircle
 62
7
  6
BYLAYER
 10
27.2257872841
 20
33.9411764699
 40
2.0
100
AcDbArc
 50
344.9999999995
 51
22.975687163
  0
ARC
  5
2A4
100
AcDbEntity
  8
0
100
AcDbCircle
 62
7
  6
BYLAYER
 10
27.2257872841
 20
33.9411764699
 40
1.7477483636
100
AcDbArc
 50
70.4119519199
 51
19.5880480801
  0
ARC
  5
2A5
100
AcDbEntity
  8
0
100
AcDbCircle
 62
7
  6
BYLAYER
 10
27.2257872841
 20
33.9411764699
 40
1.7023651948
100
AcDbArc
 50
18.8601586403
 51
71.1398413597
  0
CIRCLE
  5
2A6
100
AcDbEntity
  8
0
100
AcDbCircle
 62
7
  6
BYLAYER
 10
27.2257872841
 20
33.9411764699
 40
1.65
  0
CIRCLE
  5
2A7
100
AcDbEntity
  8
0
100
AcDbCircle
 62
7
  6
BYLAYER
 10
27.2257872841
 20
33.9411764699
 40
1.5
  0
CIRCLE
  5
2A8
100
AcDbEntity
  8
0
100
AcDbCircle
 62
7
  6
BYLAYER
 10
27.2257872841
 20
33.9411764699
 40
1.3
  0
SPLINE
  5
2A9
100
AcDbEntity
  8
0
100
AcDbSpline
 62
7
  6
BYLAYER
 70
0
 71
3
 72
11
 73
7
 74
0
 42
0.0000001
 43
0.0000001
 44
0.0000000001
 40
0.0
 40
0.0
 40
0.0
 40
0.0
 40
0.2561132917
 40
0.5086890883
 40
0.7561758272
 40
1.0
 40
1.0
 40
1.0
 40
1.0
 10
10.2320645705
 20
17.442428503
 30
0.0
 10
10.218296107
 20
17.4561969665
 30
0.0
 10
10.1855302877
 20
17.4786793248
 30
0.0
 10
10.1281269334
 20
17.491735306
 30
0.0
 10
10.070887445
 20
17.4821281417
 30
0.0
 10
10.0385383098
 20
17.4610343817
 30
0.0
 10
10.0254305528
 20
17.4479265197
 30
0.0
  0
SPLINE
  5
2AA
100
AcDbEntity
  8
0
100
AcDbSpline
 62
7
  6
BYLAYER
 70
0
 71
3
 72
26
 73
22
 74
0
 42
0.0000001
 43
0.0000001
 44
0.0000000001
 40
0.0
 40
0.0
 40
0.0
 40
0.0
 40
0.0003044513
 40
0.0012158864
 40
0.0027314728
 40
0.0048483729
 40
0.0108747614
 40
0.0192723456
 40
0.0300184182
 40
0.0430902722
 40
0.0584652001
 40
0.0761204948
 40
0.1181213831
 40
0.1686114471
 40
0.2270492396
 40
0.2928933164
 40
0.3655680635
 40
0.4443611765
 40
0.6173167081
 40
0.8053130562
 40
1.0
 40
1.0
 40
1.0
 40
1.0
 10
9.9072320989
 20
17.3297280658
 30
0.0
 10
9.9072428629
 20
17.3297388298
 30
0.0
 10
9.90728645
 20
17.3296440907
 30
0.0
 10
9.9073827894
 20
17.3295977369
 30
0.0
 10
9.9075438468
 20
17.3294089968
 30
0.0
 10
9.9078854284
 20
17.3290848527
 30
0.0
 10
9.9084705367
 20
17.3284875516
 30
0.0
 10
9.9093605523
 20
17.3276039084
 30
0.0
 10
9.910499696
 20
17.3264626876
 30
0.0
 10
9.9118854938
 20
17.3250779787
 30
0.0
 10
9.9135155976
 20
17.3234478747
 30
0.0
 10
9.916168627
 20
17.3207955124
 30
0.0
 10
9.9200634072
 20
17.3169016814
 30
0.0
 10
9.9253996879
 20
17.3115656895
 30
0.0
 10
9.9315778528
 20
17.3053855694
 30
0.0
 10
9.9385385424
 20
17.2984192899
 30
0.0
 10
9.9462165296
 20
17.2907309638
 30
0.0
 10
9.9576813238
 20
17.2792555021
 30
0.0
 10
9.973235846
 20
17.2637152564
 30
0.0
 10
9.9929361107
 20
17.244125943
 30
0.0
 10
10.0065268638
 20
17.2306570931
 30
0.0
 10
10.0134457942
 20
17.2238097268
 30
0.0
  0
SPLINE
  5
2AB
100
AcDbEntity
  8
0
100
AcDbSpline
 62
7
  6
BYLAYER
 70
0
 71
3
 72
11
 73
7
 74
0
 42
0.0000001
 43
0.0000001
 44
0.0000000001
 40
0.0
 40
0.0
 40
0.0
 40
0.0
 40
0.2561132781
 40
0.5086890915
 40
0.7561758597
 40
1.0
 40
1.0
 40
1.0
 40
1.0
 10
10.7270393173
 20
16.9474537562
 30
0.0
 10
10.7408077249
 20
16.9336853485
 30
0.0
 10
10.7632900124
 20
16.900919684
 30
0.0
 10
10.7763460737
 20
16.8435165996
 30
0.0
 10
10.7667391846
 20
16.7862773135
 30
0.0
 10
10.7456457101
 20
16.7539281909
 30
0.0
 10
10.732537993
 20
16.7408203975
 30
0.0
  0
SPLINE
  5
2AC
100
AcDbEntity
  8
0
100
AcDbSpline
 62
7
  6
BYLAYER
 70
0
 71
3
 72
9
 73
5
 74
0
 42
0.0000001
 43
0.0000001
 44
0.0000000001
 40
0.0
 40
0.0
 40
0.0
 40
0.0
 40
0.4989746948
 40
1.0
 40
1.0
 40
1.0
 40
1.0
 10
11.5095718748
 20
17.5799863137
 30
0.0
 10
11.5094232483
 20
17.5994037777
 30
0.0
 10
11.5013584355
 20
17.6386289579
 30
0.0
 10
11.4789529801
 20
17.6717933175
 30
0.0
 10
11.4651659293
 20
17.6855803682
 30
0.0
  0
SPLINE
  5
2AD
100
AcDbEntity
  8
0
100
AcDbSpline
 62
7
  6
BYLAYER
 70
0
 71
3
 72
16
 73
12
 74
0
 42
0.0000001
 43
0.0000001
 44
0.0000000001
 40
0.0
 40
0.0
 40
0.0
 40
0.0
 40
0.1580795705
 40
0.236115055
 40
0.3125747223
 40
0.5270498674
 40
0.7127562011
 40
0.7938862948
 40
0.8676492398
 40
0.9355825592
 40
1.0
 40
1.0
 40
1.0
 40
1.0
 10
11.3071752257
 20
17.5275896646
 30
0.0
 10
11.3140682688
 20
17.5206966216
 30
0.0
 10
11.3238271438
 20
17.5098423422
 30
0.0
 10
11.3355352667
 20
17.4945205684
 30
0.0
 10
11.3483210287
 20
17.4756900501
 30
0.0
 10
11.3620753687
 20
17.4495275424
 30
0.0
 10
11.3701309017
 20
17.4205708797
 30
0.0
 10
11.3708826634
 20
17.3994818959
 30
0.0
 10
11.3687425932
 20
17.385805014
 30
0.0
 10
11.3639575311
 20
17.3739012702
 30
0.0
 10
11.3589919506
 20
17.3672741974
 30
0.0
 10
11.356182956
 20
17.3644653606
 30
0.0
  0
SPLINE
  5
2AE
100
AcDbEntity
  8
0
100
AcDbSpline
 62
7
  6
BYLAYER
 70
0
 71
3
 72
16
 73
12
 74
0
 42
0.0000001
 43
0.0000001
 44
0.0000000001
 40
0.0
 40
0.0
 40
0.0
 40
0.0
 40
0.1580790258
 40
0.2361142713
 40
0.3125737447
 40
0.5270486612
 40
0.7127553682
 40
0.7938858037
 40
0.8676490847
 40
0.9355826077
 40
1.0
 40
1.0
 40
1.0
 40
1.0
 10
10.8122004808
 20
18.0225644134
 30
0.0
 10
10.8053075147
 20
18.0294573795
 30
0.0
 10
10.7944533612
 20
18.0392161526
 30
0.0
 10
10.7791317711
 20
18.0509241716
 30
0.0
 10
10.7603014609
 20
18.0637098547
 30
0.0
 10
10.734139211
 20
18.0774641806
 30
0.0
 10
10.7051828166
 20
18.0855198653
 30
0.0
 10
10.6840939465
 20
18.0862719047
 30
0.0
 10
10.67041708
 20
18.0841321103
 30
0.0
 10
10.658513284
 20
18.0793473775
 30
0.0
 10
10.6518861023
 20
18.0743820404
 30
0.0
 10
10.6490771959
 20
18.0715731628
 30
0.0
  0
SPLINE
  5
2AF
100
AcDbEntity
  8
0
100
AcDbSpline
 62
7
  6
BYLAYER
 70
0
 71
3
 72
9
 73
5
 74
0
 42
0.0000001
 43
0.0000001
 44
0.0000000001
 40
0.0
 40
0.0
 40
0.0
 40
0.0
 40
0.5010253052
 40
1.0
 40
1.0
 40
1.0
 40
1.0
 10
11.8034121609
 20
18.0238265998
 30
0.0
 10
11.8171992117
 20
18.0100395491
 30
0.0
 10
11.8396046671
 20
17.9768751895
 30
0.0
 10
11.8476694799
 20
17.9376500093
 30
0.0
 10
11.8478181063
 20
17.9182325452
 30
0.0
  0
SPLINE
  5
2B0
100
AcDbEntity
  8
0
100
AcDbSpline
 62
7
  6
BYLAYER
 70
0
 71
3
 72
9
 73
5
 74
0
 42
0.0000001
 43
0.0000001
 44
0.0000000001
 40
0.0
 40
0.0
 40
0.0
 40
0.0
 40
0.501046019
 40
1.0
 40
1.0
 40
1.0
 40
1.0
 10
11.8478181063
 20
17.9182325452
 30
0.0
 10
11.8479658647
 20
17.898928497
 30
0.0
 10
11.8406156254
 20
17.8599423389
 30
0.0
 10
11.8186169701
 20
17.8268993747
 30
0.0
 10
11.805023542
 20
17.8133059466
 30
0.0
  0
SPLINE
  5
2B1
100
AcDbEntity
  8
0
100
AcDbSpline
 62
7
  6
BYLAYER
 70
0
 71
3
 72
9
 73
5
 74
0
 42
0.0000001
 43
0.0000001
 44
0.0000000001
 40
0.0
 40
0.0
 40
0.0
 40
0.0
 40
0.5010253052
 40
1.0
 40
1.0
 40
1.0
 40
1.0
 10
10.9701911827
 20
18.1805551153
 30
0.0
 10
10.956404132
 20
18.194342166
 30
0.0
 10
10.9232397723
 20
18.2167476215
 30
0.0
 10
10.8840145922
 20
18.2248124343
 30
0.0
 10
10.8645971281
 20
18.2249610607
 30
0.0
  0
SPLINE
  5
2B2
100
AcDbEntity
  8
0
100
AcDbSpline
 62
7
  6
BYLAYER
 70
0
 71
3
 72
9
 73
5
 74
0
 42
0.0000001
 43
0.0000001
 44
0.0000000001
 40
0.0
 40
0.0
 40
0.0
 40
0.0
 40
0.498953981
 40
1.0
 40
1.0
 40
1.0
 40
1.0
 10
11.0979167608
 20
18.5204127278
 30
0.0
 10
11.1115101889
 20
18.5340061558
 30
0.0
 10
11.1445531532
 20
18.5560048111
 30
0.0
 10
11.1835393113
 20
18.5633550504
 30
0.0
 10
11.2028433595
 20
18.5632072921
 30
0.0
  0
SPLINE
  5
2B3
100
AcDbEntity
  8
0
100
AcDbSpline
 62
7
  6
BYLAYER
 70
0
 71
3
 72
9
 73
5
 74
0
 42
0.0000001
 43
0.0000001
 44
0.0000000001
 40
0.0
 40
0.0
 40
0.0
 40
0.0
 40
0.4989746948
 40
1.0
 40
1.0
 40
1.0
 40
1.0
 10
11.2028433595
 20
18.5632072921
 30
0.0
 10
11.2222608236
 20
18.5630586656
 30
0.0
 10
11.2614860037
 20
18.5549938528
 30
0.0
 10
11.2946503633
 20
18.5325883974
 30
0.0
 10
11.3084374141
 20
18.5188013466
 30
0.0
  0
ELLIPSE
  5
2B4
100
AcDbEntity
  8
0
100
AcDbEllipse
 62
7
  6
BYLAYER
 10
4.4258939138
 20
36.7410698402
 30
0.0
 11
0.4951255324
 21
-0.4951255324
 31
0.0
 40
0.9996954599
 41
2.3563341792
 42
3.926851128
  0
ELLIPSE
  5
2B5
100
AcDbEntity
  8
0
100
AcDbEllipse
 62
7
  6
BYLAYER
 10
30.0256806545
 20
36.7410698402
 30
0.0
 11
-0.4951255324
 21
-0.4951255324
 31
0.0
 40
0.9996954599
 41
2.356331054
 42
3.9268542532
  0
ELLIPSE
  5
2B6
100
AcDbEntity
  8
0
100
AcDbEllipse
 62
7
  6
BYLAYER
 10
30.0256806545
 20
11.1412830995
 30
0.0
 11
-0.4951255324
 21
0.4951255324
 31
0.0
 40
0.9996954599
 41
2.356331054
 42
3.9268542532
  0
ELLIPSE
  5
2B7
100
AcDbEntity
  8
0
100
AcDbEllipse
 62
7
  6
BYLAYER
 10
4.4258939138
 20
11.1412830995
 30
0.0
 11
0.4951255324
 21
0.4951255324
 31
0.0
 40
0.9996954599
 41
2.3563341792
 42
3.926851128
  0
ELLIPSE
  5
2B8
100
AcDbEntity
  8
0
100
AcDbEllipse
 62
7
  6
BYLAYER
 10
4.504441706
 20
11.2198308917
 30
0.0
 11
0.4951255324
 21
0.4951255324
 31
0.0
 40
0.9996954599
 41
-3.926851128
 42
-2.3563341792
  0
ELLIPSE
  5
2B9
100
AcDbEntity
  8
0
100
AcDbEllipse
 62
7
  6
BYLAYER
 10
4.504441706
 20
36.6625220481
 30
0.0
 11
0.4951255324
 21
-0.4951255324
 31
0.0
 40
0.9996954599
 41
2.3563341792
 42
3.926851128
  0
ELLIPSE
  5
2BA
100
AcDbEntity
  8
0
100
AcDbEllipse
 62
7
  6
BYLAYER
 10
29.9471328623
 20
36.6625220481
 30
0.0
 11
0.4951255324
 21
0.4951255324
 31
0.0
 40
0.9996954599
 41
-0.7852615996
 42
0.7852615996
  0
ELLIPSE
  5
2BB
100
AcDbEntity
  8
0
100
AcDbEllipse
 62
7
  6
BYLAYER
 10
29.9471328623
 20
11.2198308917
 30
0.0
 11
0.4951255324
 21
-0.4951255324
 31
0.0
 40
0.9996954599
 41
-0.7852615996
 42
0.7852615996
  0
ENDSEC
  0
SECTION
  2
OBJECTS
  0
DICTIONARY
  5
C
100
AcDbDictionary
280
0
281
1
  3
ACAD_GROUP
350
D
  3
ACAD_MLINESTYLE
350
17
  3
ACAD_LAYOUT
350
1A
  3
ACAD_PLOTSETTINGS
350
19
  3
ACAD_PLOTSTYLENAME
350
E
  0
DICTIONARY
  5
D
102
{ACAD_REACTORS
330
C
102
}
100
AcDbDictionary
280
0
281
1
  0
ACDBDICTIONARYWDFLT
  5
E
102
{ACAD_REACTORS
330
C
102
}
100
AcDbDictionary
281
1
  3
Normal
350
F
100
AcDbDictionaryWithDefault
340
F
  0
DICTIONARY
  5
17
102
{ACAD_REACTORS
330
C
102
}
100
AcDbDictionary
280
0
281
1
  3
Standard
350
18
  0
DICTIONARY
  5
19
102
{ACAD_REACTORS
330
C
102
}
100
AcDbDictionary
281
1
  0
DICTIONARY
  5
1A
102
{ACAD_REACTORS
330
C
102
}
100
AcDbDictionary
281
1
  3
Model
350
2BC
  3
Layout1
350
2BD
  0
ACDBPLACEHOLDER
  5
F
102
{ACAD_REACTORS
330
E
102
}
  0
MLINESTYLE
  5
18
102
{ACAD_REACTORS
330
17
102
}
100
AcDbMlineStyle
  2
STANDARD
 70
0
  3

 62
256
 51
90.0
 52
90.0
 71
2
 49
0.5
 62
256
  6
BYLAYER
 49
-0.5
 62
256
  6
BYLAYER
  0
LAYOUT
  5
2BC
102
{ACAD_REACTORS
330
1A
102
}
100
AcDbPlotSettings
  1

  2
none_device
  4

  6

 40
0.0
 41
0.0
 42
0.0
 43
0.0
 44
210.0
 45
297.0
 46
0.0
 47
0.0
 48
0.0
 49
0.0
140
0.0
141
0.0
142
1.0
143
1.0
 70
1024
 72
1
 73
0
 74
0
  7

 75
0
147
1.0
148
0.0
149
0.0
100
AcDbLayout
  1
Model
 70
0
 71
0
 10
0.0
 20
0.0
 11
210.0
 21
297.0
 12
0.0
 22
0.0
 32
0.0
 14
0.0
 24
0.0
 34
0.0
 15
0.0
 25
0.0
 35
0.0
146
0.0
 13
0.0
 23
0.0
 33
0.0
 16
1.0
 26
0.0
 36
0.0
 17
0.0
 27
1.0
 37
0.0
 76
0
330
210
345
0
346
0
  0
LAYOUT
  5
2BD
102
{ACAD_REACTORS
330
1A
102
}
100
AcDbPlotSettings
  1

  2
none_device
  4

  6

 40
0.0
 41
0.0
 42
0.0
 43
0.0
 44
210.0
 45
297.0
 46
0.0
 47
0.0
 48
0.0
 49
0.0
140
0.0
141
0.0
142
1.0
143
1.0
 70
0
 72
1
 73
0
 74
0
  7

 75
0
147
1.0
148
0.0
149
0.0
100
AcDbLayout
  1
Layout1
 70
0
 71
1
 10
0.0
 20
0.0
 11
210.0
 21
297.0
 12
0.0
 22
0.0
 32
0.0
 14
0.0
 24
0.0
 34
0.0
 15
0.0
 25
0.0
 35
0.0
146
0.0
 13
0.0
 23
0.0
 33
0.0
 16
1.0
 26
0.0
 36
0.0
 17
0.0
 27
1.0
 37
0.0
 76
0
330
211
345
0
346
0
  0
ENDSEC
  0
EOF
