999
DXF file: C:\Users\sesa63760\Dev\_Creo\CAD\MCADID0004334_3D-CAD\drw0001_7.dxf
999
Pro/ENGINEER 2019471 by Parametric Technology Corporation
  0
SECTION
  2
HEADER
  9
$ACADVER
  1
AC1024
  9
$DWGCODEPAGE
  3
ANSI_1252
  9
$EXTMAX
 10
90.0936811188
 20
127.4182061537
 30
0.0
  9
$EXTMIN
 10
0.0
 20
0.0
 30
0.0
  9
$LIMMIN
 10
0.0
 20
0.0
  9
$LIMMAX
 10
90.0936811188
 20
127.4182061537
  9
$VIEWCTR
 10
45.0468405594
 20
63.7091030768
  9
$VIEWSIZE
 40
127.4182061537
  9
$CLAYER
  8
0
  9
$LTSCALE
 40
8.3057793641
  9
$CELTYPE
  6
BYLAYER
  9
$DIMSCALE
 40
1.0
  9
$DIMASZ
 40
1.0725438228
  9
$DIMEXO
 40
1.0
  9
$DIMDLI
 40
5.7385384697
  9
$DIMEXE
 40
1.0
  9
$DIMCEN
 40
1.3591275323
  9
$DIMLFAC
 40
1.0
  9
$DIMBLK
  1
_FILLED
  9
$DIMALT
 70
0
  9
$DIMALTF
 40
0.0393700787
  9
$DIMTXT
 40
1.501561352
  9
$DIMTOL
 70
1
  9
$DIMLIM
 70
0
  9
$DIMTFAC
 40
1.0
  9
$DIMTP
 40
0.01
  9
$DIMTM
 40
0.01
  9
$DIMGAP
 40
0.625
  9
$DIMDSEP
 70
46
  9
$AUNITS
 70
0
  9
$PDMODE
 70
3
  9
$PDSIZE
 40
0.3125
  9
$HANDSEED
  5
290
  9
$TILEMODE
 70
1
  9
$MEASUREMENT
 70
1
  9
$INSUNITS
 70
4
  0
ENDSEC
  0
SECTION
  2
CLASSES
  0
CLASS
  1
ACDBDICTIONARYWDFLT
  2
AcDbDictionaryWithDefault
  3
AutoCAD 2000
 90
0
 91
1
280
0
281
0
  0
CLASS
  1
ACDBPLACEHOLDER
  2
AcDbPlaceHolder
  3
AutoCAD 2000
 90
0
 91
1
280
0
281
0
  0
CLASS
  1
LAYOUT
  2
AcDbLayout
  3
AutoCAD 2000
 90
0
 91
0
280
0
281
0
  0
ENDSEC
  0
SECTION
  2
TABLES
  0
TABLE
  2
VPORT
  5
8
100
AcDbSymbolTable
 70
2
  0
VPORT
  5
1F4
100
AcDbSymbolTableRecord
100
AcDbViewportTableRecord
  2
*ACTIVE
 70
0
 10
0.0
 20
0.0
 11
1.0
 21
1.0
 12
45.0468405594
 22
63.7091030768
 13
0.0
 23
0.0
 14
1.0
 24
1.0
 15
0.0
 25
0.0
 16
0.0
 26
0.0
 36
1.0
 17
0.0
 27
0.0
 37
0.0
 40
127.4182061537
 41
0.7070707071
 42
50.0
 43
0.0
 44
0.0
 50
0.0
 51
0.0
 71
0
 72
100
 73
1
 74
1
 75
0
 76
0
 77
0
 78
0
  0
ENDTAB
  0
TABLE
  2
LTYPE
  5
5
100
AcDbSymbolTable
 70
6
  0
LTYPE
  5
14
100
AcDbSymbolTableRecord
100
AcDbLinetypeTableRecord
  2
BYBLOCK
 70
0
  3

 72
65
 73
0
 40
0.0
  0
LTYPE
  5
15
100
AcDbSymbolTableRecord
100
AcDbLinetypeTableRecord
  2
BYLAYER
 70
0
  3

 72
65
 73
0
 40
0.0
  0
LTYPE
  5
16
100
AcDbSymbolTableRecord
100
AcDbLinetypeTableRecord
  2
CONTINUOUS
 70
64
  3
Solid line
 72
65
 73
0
 40
0.0
  0
LTYPE
  5
1F5
100
AcDbSymbolTableRecord
100
AcDbLinetypeTableRecord
  2
CENTER
 70
64
  3
____ _ ____ _ ____ _ ____ _ ____ _ ____ _ ____
 72
65
 73
4
 40
0.6
 49
0.375
 74
0
 49
-0.075
 74
0
 49
0.075
 74
0
 49
-0.075
 74
0
  0
LTYPE
  5
1F6
100
AcDbSymbolTableRecord
100
AcDbLinetypeTableRecord
  2
HIDDEN
 70
64
  3
- - - - - - - - - - - - - - - - - - - -
 72
65
 73
2
 40
0.2
 49
0.1
 74
0
 49
-0.1
 74
0
  0
LTYPE
  5
1F7
100
AcDbSymbolTableRecord
100
AcDbLinetypeTableRecord
  2
PHANTOM
 70
64
  3
_____ _ _ _____ _ _ _____ _ _ _____
 72
65
 73
6
 40
0.8
 49
0.45
 74
0
 49
-0.05
 74
0
 49
0.1
 74
0
 49
-0.05
 74
0
 49
0.1
 74
0
 49
-0.05
 74
0
  0
LTYPE
  5
1F8
100
AcDbSymbolTableRecord
100
AcDbLinetypeTableRecord
  2
DOT
 70
64
  3
. . . . . . . . . . . . . . . . . . . .
 72
65
 73
2
 40
0.2
 49
0.1
 74
0
 49
-0.1
 74
0
  0
LTYPE
  5
1F9
100
AcDbSymbolTableRecord
100
AcDbLinetypeTableRecord
  2
DASHED
 70
64
  3
- - - - - - - - - - - - - - - - - - - -
 72
65
 73
2
 40
0.2
 49
0.1
 74
0
 49
-0.1
 74
0
  0
ENDTAB
  0
TABLE
  2
LAYER
  5
2
100
AcDbSymbolTable
 70
36
  0
LAYER
  5
10
100
AcDbSymbolTableRecord
100
AcDbLayerTableRecord
  2
0
 70
0
 62
7
  6
CONTINUOUS
370
-3
390
F
  0
LAYER
  5
1FA
100
AcDbSymbolTableRecord
100
AcDbLayerTableRecord
  2
DEFAULT_1
 70
0
 62
7
  6
CENTER
370
-3
390
F
  0
LAYER
  5
1FB
100
AcDbSymbolTableRecord
100
AcDbLayerTableRecord
  2
DEFAULT_2
 70
0
 62
7
  6
HIDDEN
370
-3
390
F
  0
LAYER
  5
1FC
100
AcDbSymbolTableRecord
100
AcDbLayerTableRecord
  2
DEFAULT_3
 70
0
 62
7
  6
PHANTOM
370
-3
390
F
  0
LAYER
  5
1FD
100
AcDbSymbolTableRecord
100
AcDbLayerTableRecord
  2
00_COMPONENTS
 70
0
 62
7
  6
CONTINUOUS
370
-3
390
F
  0
LAYER
  5
1FE
100
AcDbSymbolTableRecord
100
AcDbLayerTableRecord
  2
01_1_DEFAULT_DATUMS
 70
0
 62
7
  6
CONTINUOUS
370
-3
390
F
  0
LAYER
  5
1FF
100
AcDbSymbolTableRecord
100
AcDbLayerTableRecord
  2
01_PLANES
 70
0
 62
7
  6
CONTINUOUS
370
-3
390
F
  0
LAYER
  5
200
100
AcDbSymbolTableRecord
100
AcDbLayerTableRecord
  2
02_COORD_SYS
 70
0
 62
7
  6
CONTINUOUS
370
-3
390
F
  0
LAYER
  5
201
100
AcDbSymbolTableRecord
100
AcDbLayerTableRecord
  2
03_AXES
 70
0
 62
7
  6
CONTINUOUS
370
-3
390
F
  0
LAYER
  5
202
100
AcDbSymbolTableRecord
100
AcDbLayerTableRecord
  2
04_POINTS
 70
0
 62
7
  6
CONTINUOUS
370
-3
390
F
  0
LAYER
  5
203
100
AcDbSymbolTableRecord
100
AcDbLayerTableRecord
  2
05_CURVES
 70
0
 62
7
  6
CONTINUOUS
370
-3
390
F
  0
LAYER
  5
204
100
AcDbSymbolTableRecord
100
AcDbLayerTableRecord
  2
06_SURFS
 70
0
 62
7
  6
CONTINUOUS
370
-3
390
F
  0
LAYER
  5
205
100
AcDbSymbolTableRecord
100
AcDbLayerTableRecord
  2
07_COSMETICS
 70
0
 62
7
  6
CONTINUOUS
370
-3
390
F
  0
LAYER
  5
206
100
AcDbSymbolTableRecord
100
AcDbLayerTableRecord
  2
10_NOTES
 70
0
 62
7
  6
CONTINUOUS
370
-3
390
F
  0
LAYER
  5
207
100
AcDbSymbolTableRecord
100
AcDbLayerTableRecord
  2
11_NOTES_PUB
 70
0
 62
7
  6
CONTINUOUS
370
-3
390
F
  0
LAYER
  5
208
100
AcDbSymbolTableRecord
100
AcDbLayerTableRecord
  2
13_REF_GTOL
 70
0
 62
7
  6
CONTINUOUS
370
-3
390
F
  0
LAYER
  5
209
100
AcDbSymbolTableRecord
100
AcDbLayerTableRecord
  2
16_MISC
 70
0
 62
7
  6
CONTINUOUS
370
-3
390
F
  0
LAYER
  5
20A
100
AcDbSymbolTableRecord
100
AcDbLayerTableRecord
  2
17_NO_PRINT
 70
0
 62
7
  6
CONTINUOUS
370
-3
390
F
  0
LAYER
  5
20B
100
AcDbSymbolTableRecord
100
AcDbLayerTableRecord
  2
18_DATUM_CAMS_JOINTS
 70
0
 62
7
  6
CONTINUOUS
370
-3
390
F
  0
LAYER
  5
20C
100
AcDbSymbolTableRecord
100
AcDbLayerTableRecord
  2
19_DATUM_FUNCTIONAL
 70
0
 62
7
  6
CONTINUOUS
370
-3
390
F
  0
LAYER
  5
20D
100
AcDbSymbolTableRecord
100
AcDbLayerTableRecord
  2
20_DATUM_KINEMATIC_SCHEME
 70
0
 62
7
  6
CONTINUOUS
370
-3
390
F
  0
ENDTAB
  0
TABLE
  2
STYLE
  5
3
100
AcDbSymbolTable
 70
1
  0
STYLE
  5
11
100
AcDbSymbolTableRecord
100
AcDbTextStyleTableRecord
  2
STANDARD
 70
0
 40
0.0
 41
1.0
 50
0.0
 71
0
 42
0.2
  3
ARIAL.TTF
  4

  0
STYLE
  5
20E
100
AcDbSymbolTableRecord
100
AcDbTextStyleTableRecord
  2
TEXTSTYLE_1
 70
0
 40
0.0
 41
0.8
 50
0.0
 71
0
 42
0.2
  3
gdt
  4

  0
ENDTAB
  0
TABLE
  2
VIEW
  5
6
100
AcDbSymbolTable
 70
0
  0
ENDTAB
  0
TABLE
  2
UCS
  5
7
100
AcDbSymbolTable
 70
0
  0
ENDTAB
  0
TABLE
  2
APPID
  5
9
100
AcDbSymbolTable
 70
1
  0
APPID
  5
20F
100
AcDbSymbolTableRecord
100
AcDbRegAppTableRecord
  2
ACAD
 70
0
  0
ENDTAB
  0
TABLE
  2
BLOCK_RECORD
  5
1
100
AcDbSymbolTable
 70
0
  0
BLOCK_RECORD
  5
210
100
AcDbSymbolTableRecord
100
AcDbBlockTableRecord
  2
*Model_Space
  0
BLOCK_RECORD
  5
211
100
AcDbSymbolTableRecord
100
AcDbBlockTableRecord
  2
*Paper_Space
  0
BLOCK_RECORD
  5
212
100
AcDbSymbolTableRecord
100
AcDbBlockTableRecord
  2
_FILLED
  0
ENDTAB
  0
TABLE
  2
DIMSTYLE
  5
A
100
AcDbSymbolTable
 70
1
100
AcDbDimStyleTable
 71
0
  0
DIMSTYLE
105
213
100
AcDbSymbolTableRecord
100
AcDbDimStyleTableRecord
  2
STANDARD
 70
0
  3

  4

 40
1.0
 41
1.0725438228
 42
1.0
 43
0.38
 44
1.0
 45
0.0
 46
0.0
 47
0.01
 48
0.01
140
1.501561352
141
0.09
142
0.0
143
25.4
144
1.0
145
0.0
146
1.0
147
0.625
 71
1
 72
0
 73
0
 74
0
 75
0
 76
0
 77
1
 78
8
 79
2
170
0
171
1
172
0
173
0
174
0
175
0
176
0
177
0
178
0
270
2
179
2
271
2
272
2
273
2
274
2
275
0
280
0
281
0
282
0
283
1
284
8
285
0
286
0
287
3
288
0
340
11
278
46
341
212
342
212
343
212
344
212
  0
ENDTAB
  0
ENDSEC
  0
SECTION
  2
BLOCKS
  0
BLOCK
  5
20
100
AcDbEntity
  8
0
100
AcDbBlockBegin
  2
*Model_Space
 70
0
 10
0.0
 20
0.0
 30
0.0
  3
*Model_Space
  1

  0
ENDBLK
  5
21
100
AcDbEntity
  8
0
100
AcDbBlockEnd
  0
BLOCK
  5
1C
100
AcDbEntity
  8
0
100
AcDbBlockBegin
  2
*Paper_Space
 70
0
 10
0.0
 20
0.0
 30
0.0
  3
*Paper_Space
  1

  0
ENDBLK
  5
1D
100
AcDbEntity
  8
0
100
AcDbBlockEnd
  0
BLOCK
  5
214
100
AcDbEntity
  8
0
100
AcDbBlockBegin
  2
_FILLED
 70
64
 10
0.0
 20
0.0
  3
_FILLED
  1

  0
SOLID
  5
215
100
AcDbEntity
  8
0
  6
BYBLOCK
 62
0
100
AcDbTrace
 10
0.0
 20
0.0
 11
-1.0
 21
0.25
 12
-1.0
 22
-0.25
 13
-1.0
 23
-0.25
  0
ENDBLK
  5
216
100
AcDbEntity
  8
0
  6
BYBLOCK
 62
0
100
AcDbBlockEnd
  0
ENDSEC
  0
SECTION
  2
ENTITIES
  0
LINE
  5
217
100
AcDbEntity
  8
0
100
AcDbLine
 62
7
  6
BYLAYER
 10
10.3228934617
 20
61.397423218
 11
10.3228934617
 21
63.6210203502
  0
LINE
  5
218
100
AcDbEntity
  8
0
100
AcDbLine
 62
7
  6
BYLAYER
 10
10.3228934617
 20
64.4210203502
 11
10.3228934617
 21
66.6446174823
  0
LINE
  5
219
100
AcDbEntity
  8
0
100
AcDbLine
 62
7
  6
BYLAYER
 10
10.8218597874
 20
61.2203706508
 11
10.8218597874
 21
63.6210203502
  0
LINE
  5
21A
100
AcDbEntity
  8
0
100
AcDbLine
 62
7
  6
BYLAYER
 10
10.8218597874
 20
64.4210203502
 11
10.8218597874
 21
66.8216700495
  0
LINE
  5
21B
100
AcDbEntity
  8
0
100
AcDbLine
 62
7
  6
BYLAYER
 10
10.8703476735
 20
63.6210203502
 11
10.8703476735
 21
64.4210203502
  0
LINE
  5
21C
100
AcDbEntity
  8
0
100
AcDbLine
 62
7
  6
BYLAYER
 10
11.1450189484
 20
59.7212474178
 11
11.1450189484
 21
61.2203706508
  0
LINE
  5
21D
100
AcDbEntity
  8
0
100
AcDbLine
 62
7
  6
BYLAYER
 10
11.1450189484
 20
66.8216700495
 11
11.1450189484
 21
68.3046924413
  0
LINE
  5
21E
100
AcDbEntity
  8
0
100
AcDbLine
 62
7
  6
BYLAYER
 10
11.2897921126
 20
70.4193578921
 11
11.2897921126
 21
57.6065790946
  0
LINE
  5
21F
100
AcDbEntity
  8
0
100
AcDbLine
 62
7
  6
BYLAYER
 10
11.5897490308
 20
58.1927112276
 11
11.5897490308
 21
69.8493294727
  0
LINE
  5
220
100
AcDbEntity
  8
0
100
AcDbLine
 62
7
  6
BYLAYER
 10
11.901516281
 20
58.1927112276
 11
11.901516281
 21
69.8493294727
  0
LINE
  5
221
100
AcDbEntity
  8
0
100
AcDbLine
 62
7
  6
BYLAYER
 10
12.1751429757
 20
61.6440049167
 11
12.1751429757
 21
66.3980357836
  0
LINE
  5
222
100
AcDbEntity
  8
0
100
AcDbLine
 62
7
  6
BYLAYER
 10
16.923619956
 20
48.6742032461
 11
16.923619956
 21
48.8710203502
  0
LINE
  5
223
100
AcDbEntity
  8
0
100
AcDbLine
 62
7
  6
BYLAYER
 10
16.923619956
 20
79.1710203502
 11
16.923619956
 21
79.3678374543
  0
LINE
  5
224
100
AcDbEntity
  8
0
100
AcDbLine
 62
7
  6
BYLAYER
 10
29.5906773131
 20
61.6440049167
 11
29.5906773131
 21
66.3980357836
  0
LINE
  5
225
100
AcDbEntity
  8
0
100
AcDbLine
 62
7
  6
BYLAYER
 10
29.9447824475
 20
58.6521336712
 11
29.9447824475
 21
69.3899070291
  0
LINE
  5
226
100
AcDbEntity
  8
0
100
AcDbLine
 62
7
  6
BYLAYER
 10
16.923619956
 20
48.6742032461
 11
78.5601883086
 21
48.6742032461
  0
LINE
  5
227
100
AcDbEntity
  8
0
100
AcDbLine
 62
7
  6
BYLAYER
 10
16.923619956
 20
48.7697724237
 11
70.6869482931
 21
48.7697724237
  0
LINE
  5
228
100
AcDbEntity
  8
0
100
AcDbLine
 62
7
  6
BYLAYER
 10
74.0007355272
 20
48.7697724237
 11
78.9763090385
 21
48.7697724237
  0
LINE
  5
229
100
AcDbEntity
  8
0
100
AcDbLine
 62
7
  6
BYLAYER
 10
30.8461409714
 20
50.806494889
 11
30.8461409714
 21
77.2355458114
  0
LINE
  5
22A
100
AcDbEntity
  8
0
100
AcDbLine
 62
7
  6
BYLAYER
 10
31.1439951035
 20
58.41523524
 11
31.1439951035
 21
62.8770359638
  0
LINE
  5
22B
100
AcDbEntity
  8
0
100
AcDbLine
 62
7
  6
BYLAYER
 10
31.1439951035
 20
65.1650047365
 11
31.1439951035
 21
69.6268054603
  0
LINE
  5
22C
100
AcDbEntity
  8
0
100
AcDbLine
 62
7
  6
BYLAYER
 10
10.3228934617
 20
66.6446174823
 11
10.8218597874
 21
66.8216700495
  0
LINE
  5
22D
100
AcDbEntity
  8
0
100
AcDbLine
 62
7
  6
BYLAYER
 10
13.233522046
 20
48.8710203502
 11
16.923619956
 21
48.8710203502
  0
LINE
  5
22E
100
AcDbEntity
  8
0
100
AcDbLine
 62
7
  6
BYLAYER
 10
69.9264712588
 20
50.806494889
 11
65.677209646
 21
50.806494889
  0
LINE
  5
22F
100
AcDbEntity
  8
0
100
AcDbLine
 62
7
  6
BYLAYER
 10
10.3228934617
 20
61.397423218
 11
10.8218597874
 21
61.2203706508
  0
LINE
  5
230
100
AcDbEntity
  8
0
100
AcDbLine
 62
7
  6
BYLAYER
 10
11.901516281
 20
58.1927112276
 11
11.5897490308
 21
58.1927112276
  0
LINE
  5
231
100
AcDbEntity
  8
0
100
AcDbLine
 62
7
  6
BYLAYER
 10
57.4391555616
 20
59.0800607631
 11
62.2003476735
 21
59.0800607631
  0
LINE
  5
232
100
AcDbEntity
  8
0
100
AcDbLine
 62
7
  6
BYLAYER
 10
10.8218597874
 20
61.2203706508
 11
11.2300279035
 21
61.2203706508
  0
LINE
  5
233
100
AcDbEntity
  8
0
100
AcDbLine
 62
7
  6
BYLAYER
 10
77.8294540311
 20
61.6440049167
 11
76.0106412954
 21
61.6440049167
  0
LINE
  5
234
100
AcDbEntity
  8
0
100
AcDbLine
 62
7
  6
BYLAYER
 10
29.5906773131
 20
61.6440049167
 11
12.1751429757
 21
61.6440049167
  0
LINE
  5
235
100
AcDbEntity
  8
0
100
AcDbLine
 62
7
  6
BYLAYER
 10
36.4722853962
 20
63.6210203502
 11
30.9284099509
 21
63.6210203502
  0
LINE
  5
236
100
AcDbEntity
  8
0
100
AcDbLine
 62
7
  6
BYLAYER
 10
10.8703476735
 20
63.6210203502
 11
9.5662507185
 21
63.6210203502
  0
LINE
  5
237
100
AcDbEntity
  8
0
100
AcDbLine
 62
7
  6
BYLAYER
 10
9.5662507185
 20
64.4210203502
 11
10.8703476735
 21
64.4210203502
  0
LINE
  5
238
100
AcDbEntity
  8
0
100
AcDbLine
 62
7
  6
BYLAYER
 10
30.9284099509
 20
64.4210203502
 11
36.4722853962
 21
64.4210203502
  0
LINE
  5
239
100
AcDbEntity
  8
0
100
AcDbLine
 62
7
  6
BYLAYER
 10
12.1751429757
 20
66.3980357836
 11
29.5906773131
 21
66.3980357836
  0
LINE
  5
23A
100
AcDbEntity
  8
0
100
AcDbLine
 62
7
  6
BYLAYER
 10
76.0106412954
 20
66.3980357836
 11
77.8294540311
 21
66.3980357836
  0
LINE
  5
23B
100
AcDbEntity
  8
0
100
AcDbLine
 62
7
  6
BYLAYER
 10
10.8218597874
 20
66.8216700495
 11
11.2300279035
 21
66.8216700495
  0
LINE
  5
23C
100
AcDbEntity
  8
0
100
AcDbLine
 62
7
  6
BYLAYER
 10
62.2003476735
 20
68.9619799372
 11
57.4391555616
 21
68.9619799372
  0
LINE
  5
23D
100
AcDbEntity
  8
0
100
AcDbLine
 62
7
  6
BYLAYER
 10
70.7845084952
 20
79.3678374543
 11
70.6869482931
 21
79.2722682767
  0
LINE
  5
23E
100
AcDbEntity
  8
0
100
AcDbLine
 62
7
  6
BYLAYER
 10
11.5897490308
 20
69.8493294727
 11
11.901516281
 21
69.8493294727
  0
LINE
  5
23F
100
AcDbEntity
  8
0
100
AcDbLine
 62
7
  6
BYLAYER
 10
70.6869482931
 20
48.7697724237
 11
70.7845084952
 21
48.6742032461
  0
LINE
  5
240
100
AcDbEntity
  8
0
100
AcDbLine
 62
7
  6
BYLAYER
 10
54.9053350956
 20
67.4333775683
 11
54.9053350956
 21
60.608663132
  0
LINE
  5
241
100
AcDbEntity
  8
0
100
AcDbLine
 62
7
  6
BYLAYER
 10
57.4391555616
 20
59.0800607631
 11
57.4391555616
 21
68.9619799372
  0
LINE
  5
242
100
AcDbEntity
  8
0
100
AcDbLine
 62
7
  6
BYLAYER
 10
65.677209646
 20
77.2355458114
 11
69.9264712588
 21
77.2355458114
  0
LINE
  5
243
100
AcDbEntity
  8
0
100
AcDbLine
 62
7
  6
BYLAYER
 10
16.923619956
 20
79.1710203502
 11
13.1100612997
 21
79.1710203502
  0
LINE
  5
244
100
AcDbEntity
  8
0
100
AcDbLine
 62
7
  6
BYLAYER
 10
78.9763090385
 20
79.2722682767
 11
74.0007355272
 21
79.2722682767
  0
LINE
  5
245
100
AcDbEntity
  8
0
100
AcDbLine
 62
7
  6
BYLAYER
 10
70.6869482931
 20
79.2722682767
 11
16.923619956
 21
79.2722682767
  0
LINE
  5
246
100
AcDbEntity
  8
0
100
AcDbLine
 62
7
  6
BYLAYER
 10
16.923619956
 20
79.3678374543
 11
78.5601883086
 21
79.3678374543
  0
LINE
  5
247
100
AcDbEntity
  8
0
100
AcDbLine
 62
7
  6
BYLAYER
 10
62.2003476735
 20
68.9619799372
 11
62.2003476735
 21
59.0800607631
  0
LINE
  5
248
100
AcDbEntity
  8
0
100
AcDbLine
 62
7
  6
BYLAYER
 10
62.7003476735
 20
68.3153714495
 11
62.7003476735
 21
59.7266692508
  0
LINE
  5
249
100
AcDbEntity
  8
0
100
AcDbLine
 62
7
  6
BYLAYER
 10
64.3951826589
 20
61.9595101532
 11
64.3951826589
 21
66.0825305472
  0
LINE
  5
24A
100
AcDbEntity
  8
0
100
AcDbLine
 62
7
  6
BYLAYER
 10
65.677209646
 20
50.806494889
 11
65.677209646
 21
77.2355458114
  0
LINE
  5
24B
100
AcDbEntity
  8
0
100
AcDbLine
 62
7
  6
BYLAYER
 10
73.7894363614
 20
48.6997621358
 11
74.0007355272
 21
48.7697724237
  0
LINE
  5
24C
100
AcDbEntity
  8
0
100
AcDbLine
 62
7
  6
BYLAYER
 10
74.0007355272
 20
79.2722682767
 11
73.7894363614
 21
79.3422785645
  0
LINE
  5
24D
100
AcDbEntity
  8
0
100
AcDbLine
 62
7
  6
BYLAYER
 10
69.9264712588
 20
77.2355458114
 11
69.9264712588
 21
50.806494889
  0
LINE
  5
24E
100
AcDbEntity
  8
0
100
AcDbLine
 62
7
  6
BYLAYER
 10
70.6668729035
 20
49.0082868935
 11
70.6668729035
 21
79.0337538069
  0
LINE
  5
24F
100
AcDbEntity
  8
0
100
AcDbLine
 62
7
  6
BYLAYER
 10
71.230221981
 20
48.6742032461
 11
71.230221981
 21
79.3678374543
  0
LINE
  5
250
100
AcDbEntity
  8
0
100
AcDbLine
 62
7
  6
BYLAYER
 10
71.5038486757
 20
48.6742032461
 11
71.5038486757
 21
79.3678374543
  0
LINE
  5
251
100
AcDbEntity
  8
0
100
AcDbLine
 62
7
  6
BYLAYER
 10
72.8397907737
 20
79.3678374543
 11
72.8397907737
 21
48.6742032461
  0
LINE
  5
252
100
AcDbEntity
  8
0
100
AcDbLine
 62
7
  6
BYLAYER
 10
73.3387570994
 20
48.6742032461
 11
73.3387570994
 21
79.3678374543
  0
LINE
  5
253
100
AcDbEntity
  8
0
100
AcDbLine
 62
7
  6
BYLAYER
 10
73.5801924183
 20
79.3678374543
 11
73.5801924183
 21
48.6742032461
  0
LINE
  5
254
100
AcDbEntity
  8
0
100
AcDbLine
 62
7
  6
BYLAYER
 10
73.7894363614
 20
48.6997621358
 11
73.7894363614
 21
79.3422785645
  0
LINE
  5
255
100
AcDbEntity
  8
0
100
AcDbLine
 62
7
  6
BYLAYER
 10
75.7048232247
 20
59.1549512441
 11
75.7048232247
 21
68.8870894563
  0
LINE
  5
256
100
AcDbEntity
  8
0
100
AcDbLine
 62
7
  6
BYLAYER
 10
76.0106412954
 20
61.6440049167
 11
76.0106412954
 21
66.3980357836
  0
LINE
  5
257
100
AcDbEntity
  8
0
100
AcDbLine
 62
7
  6
BYLAYER
 10
77.8294540311
 20
61.6440049167
 11
77.8294540311
 21
66.3980357836
  0
LINE
  5
258
100
AcDbEntity
  8
0
100
AcDbLine
 62
7
  6
BYLAYER
 10
80.5335296029
 20
68.6150048428
 11
80.5335296029
 21
59.4270358575
  0
LINE
  5
259
100
AcDbEntity
  8
0
100
AcDbLine
 62
7
  6
BYLAYER
 10
80.8393476735
 20
63.6192056803
 11
80.8393476735
 21
64.4228350201
  0
ARC
  5
25A
100
AcDbEntity
  8
0
100
AcDbCircle
 62
7
  6
BYLAYER
 10
0.1123331989
 20
64.0210203502
 40
80.7280144746
100
AcDbArc
 50
349.62272512
 51
359.7148154833
  0
ARC
  5
25B
100
AcDbEntity
  8
0
100
AcDbCircle
 62
7
  6
BYLAYER
 10
0.1123331989
 20
64.0210203502
 40
80.7280144746
100
AcDbArc
 50
0.2851845167
 51
10.37727488
  0
ARC
  5
25C
100
AcDbEntity
  8
0
100
AcDbCircle
 62
7
  6
BYLAYER
 10
89.3570113408
 20
64.0129684934
 40
78.3296402593
100
AcDbArc
 50
169.3378806692
 51
176.8592884538
  0
ARC
  5
25D
100
AcDbEntity
  8
0
100
AcDbCircle
 62
7
  6
BYLAYER
 10
89.3570113408
 20
64.0129684934
 40
78.3296402593
100
AcDbArc
 50
183.1407108937
 51
190.5510738294
  0
ARC
  5
25E
100
AcDbEntity
  8
0
100
AcDbCircle
 62
7
  6
BYLAYER
 10
14.00046238
 20
64.152685838
 40
4.4423233189
100
AcDbArc
 50
145.8783162413
 51
176.5369923212
  0
ARC
  5
25F
100
AcDbEntity
  8
0
100
AcDbCircle
 62
7
  6
BYLAYER
 10
14.00046238
 20
63.8893548624
 40
4.4423233189
100
AcDbArc
 50
183.4630076788
 51
214.1216837587
  0
CIRCLE
  5
260
100
AcDbEntity
  8
0
100
AcDbCircle
 62
7
  6
BYLAYER
 10
33.7003476735
 20
64.0210203502
 40
2.8006496993
  0
ARC
  5
261
100
AcDbEntity
  8
0
100
AcDbCircle
 62
7
  6
BYLAYER
 10
33.7003476735
 20
64.0210203502
 40
2.6235971321
100
AcDbArc
 50
8.7696551779
 51
171.2303448221
  0
ARC
  5
262
100
AcDbEntity
  8
0
100
AcDbCircle
 62
7
  6
BYLAYER
 10
33.7003476735
 20
64.0210203502
 40
2.6235971321
100
AcDbArc
 50
188.7696551779
 51
351.2303448221
  0
ARC
  5
263
100
AcDbEntity
  8
0
100
AcDbCircle
 62
7
  6
BYLAYER
 10
13.3174804995
 20
49.8497523814
 40
0.9823265297
100
AcDbArc
 50
190.5510738294
 51
265.0970060019
  0
ARC
  5
264
100
AcDbEntity
  8
0
100
AcDbCircle
 62
7
  6
BYLAYER
 10
78.5536203221
 20
49.6565078182
 40
0.9823265297
100
AcDbArc
 50
270.3830912639
 51
349.62272512
  0
ARC
  5
265
100
AcDbEntity
  8
0
100
AcDbCircle
 62
7
  6
BYLAYER
 10
78.5536203221
 20
78.3855328822
 40
0.9823265297
100
AcDbArc
 50
10.37727488
 51
89.616908735
  0
ARC
  5
266
100
AcDbEntity
  8
0
100
AcDbCircle
 62
7
  6
BYLAYER
 10
13.1868162765
 20
78.353325455
 40
0.8212893936
100
AcDbArc
 50
95.3624986517
 51
169.3378806692
  0
SPLINE
  5
267
100
AcDbEntity
  8
0
100
AcDbSpline
 62
7
  6
BYLAYER
 70
0
 71
3
 72
11
 73
7
 74
0
 42
0.0000001
 43
0.0000001
 44
0.0000000001
 40
0.0
 40
0.0
 40
0.0
 40
0.0
 40
0.2499593008
 40
0.4999351384
 40
0.7499743255
 40
1.0
 40
1.0
 40
1.0
 40
1.0
 10
57.4391555616
 20
68.9619799372
 30
0.0
 10
57.1868227896
 20
68.9619799372
 30
0.0
 10
56.6793252089
 20
68.8899769219
 30
0.0
 10
55.9795679868
 20
68.5785593921
 30
0.0
 10
55.3833810756
 20
68.0995506733
 30
0.0
 10
55.0712222166
 20
67.6969465005
 30
0.0
 10
54.9373169722
 20
67.4829954958
 30
0.0
  0
SPLINE
  5
268
100
AcDbEntity
  8
0
100
AcDbSpline
 62
7
  6
BYLAYER
 70
0
 71
3
 72
12
 73
8
 74
0
 42
0.0000001
 43
0.0000001
 44
0.0000000001
 40
0.0
 40
0.0
 40
0.0
 40
0.0
 40
0.2499679294
 40
0.4997267291
 40
0.7490775233
 40
0.8745963519
 40
1.0
 40
1.0
 40
1.0
 40
1.0
 10
62.7003476735
 20
68.3153498563
 30
0.0
 10
62.7003476735
 20
68.3904897685
 30
0.0
 10
62.6811583637
 20
68.5415860041
 30
0.0
 10
62.5895407313
 20
68.7510416479
 30
0.0
 10
62.4526659335
 20
68.8890269958
 30
0.0
 10
62.3138788263
 20
68.9508949934
 30
0.0
 10
62.2380437858
 20
68.9619799372
 30
0.0
 10
62.2003476735
 20
68.9619799372
 30
0.0
  0
SPLINE
  5
269
100
AcDbEntity
  8
0
100
AcDbSpline
 62
7
  6
BYLAYER
 70
0
 71
3
 72
12
 73
8
 74
0
 42
0.0000001
 43
0.0000001
 44
0.0000000001
 40
0.0
 40
0.0
 40
0.0
 40
0.0
 40
0.1254010221
 40
0.2509219689
 40
0.5002451301
 40
0.7500130523
 40
1.0
 40
1.0
 40
1.0
 40
1.0
 10
62.2003476735
 20
59.0800607631
 30
0.0
 10
62.2380412463
 20
59.0800607631
 30
0.0
 10
62.3138654457
 20
59.0911826013
 30
0.0
 10
62.4526567752
 20
59.1529894181
 30
0.0
 10
62.5895304535
 20
59.290972535
 30
0.0
 10
62.6811417111
 20
59.5004137617
 30
0.0
 10
62.7003476735
 20
59.651510481
 30
0.0
 10
62.7003476735
 20
59.7266526213
 30
0.0
  0
SPLINE
  5
26A
100
AcDbEntity
  8
0
100
AcDbSpline
 62
7
  6
BYLAYER
 70
0
 71
3
 72
16
 73
12
 74
0
 42
0.0000001
 43
0.0000001
 44
0.0000000001
 40
0.0
 40
0.0
 40
0.0
 40
0.0
 40
0.1240567789
 40
0.1869247315
 40
0.2496946599
 40
0.312387909
 40
0.3750444837
 40
0.4376752263
 40
0.5002686846
 40
0.7502981212
 40
1.0
 40
1.0
 40
1.0
 40
1.0
 10
69.9264712588
 20
50.8064283057
 30
0.0
 10
70.0084433737
 20
50.7954630612
 30
0.0
 10
70.1120408129
 20
50.6981444556
 30
0.0
 10
70.2003862522
 20
50.560467143
 30
0.0
 10
70.2594471802
 20
50.4488405383
 30
0.0
 10
70.3109731444
 20
50.3346217417
 30
0.0
 10
70.356942324
 20
50.2179495863
 30
0.0
 10
70.3982745548
 20
50.0997052093
 30
0.0
 10
70.4746801979
 20
49.8614699578
 30
0.0
 10
70.5695550784
 20
49.4984227622
 30
0.0
 10
70.6364160402
 20
49.1719699855
 30
0.0
 10
70.6668729035
 20
49.0083165858
 30
0.0
  0
SPLINE
  5
26B
100
AcDbEntity
  8
0
100
AcDbSpline
 62
7
  6
BYLAYER
 70
0
 71
3
 72
16
 73
12
 74
0
 42
0.0000001
 43
0.0000001
 44
0.0000000001
 40
0.0
 40
0.0
 40
0.0
 40
0.0
 40
0.2497016396
 40
0.4997308347
 40
0.5623242352
 40
0.6249549229
 40
0.6876114424
 40
0.7503046093
 40
0.8130745529
 40
0.8759423809
 40
1.0
 40
1.0
 40
1.0
 40
1.0
 10
70.6668729035
 20
79.0337241142
 30
0.0
 10
70.6364160687
 20
78.8700708675
 30
0.0
 10
70.5695551285
 20
78.5436184145
 30
0.0
 10
70.4746805333
 20
78.1805714872
 30
0.0
 10
70.3982747028
 20
77.9423365468
 30
0.0
 10
70.3569430341
 20
77.8240920836
 30
0.0
 10
70.3109734461
 20
77.7074202196
 30
0.0
 10
70.259447706
 20
77.5932014195
 30
0.0
 10
70.2003871212
 20
77.4815747791
 30
0.0
 10
70.1120418571
 20
77.3438967579
 30
0.0
 10
70.0084439308
 20
77.2465777151
 30
0.0
 10
69.9264712588
 20
77.235612396
 30
0.0
  0
SPLINE
  5
26C
100
AcDbEntity
  8
0
100
AcDbSpline
 62
7
  6
BYLAYER
 70
0
 71
3
 72
11
 73
7
 74
0
 42
0.0000001
 43
0.0000001
 44
0.0000000001
 40
0.0
 40
0.0
 40
0.0
 40
0.0
 40
0.2499986489
 40
0.4999987922
 40
0.7499992597
 40
1.0
 40
1.0
 40
1.0
 40
1.0
 10
54.9375406974
 20
60.559070288
 30
0.0
 10
52.9603199539
 20
60.3255834364
 30
0.0
 10
49.0005315429
 20
59.903683505
 30
0.0
 10
43.0529583043
 20
59.3532017766
 30
0.0
 10
37.1003520213
 20
58.8601105186
 30
0.0
 10
33.129712964
 20
58.5598342621
 30
0.0
 10
31.1439951035
 20
58.41523524
 30
0.0
  0
LINE
  5
26D
100
AcDbEntity
  8
0
100
AcDbLine
 62
7
  6
BYLAYER
 10
70.6869482931
 20
79.2722682767
 11
70.6668729035
 21
79.0337538069
  0
LINE
  5
26E
100
AcDbEntity
  8
0
100
AcDbLine
 62
7
  6
BYLAYER
 10
70.6668729035
 20
49.0082868935
 11
70.6869482931
 21
48.7697724237
  0
SPLINE
  5
26F
100
AcDbEntity
  8
0
100
AcDbSpline
 62
7
  6
BYLAYER
 70
0
 71
3
 72
11
 73
7
 74
0
 42
0.0000001
 43
0.0000001
 44
0.0000000001
 40
0.0
 40
0.0
 40
0.0
 40
0.0
 40
0.2500259185
 40
0.5000661555
 40
0.7500386042
 40
1.0
 40
1.0
 40
1.0
 40
1.0
 10
54.9373170435
 20
60.5590452126
 30
0.0
 10
55.0712925822
 20
60.3451393431
 30
0.0
 10
55.3833879661
 20
59.9425117092
 30
0.0
 10
55.9795505046
 20
59.463446148
 30
0.0
 10
56.6793443108
 20
59.1521405259
 30
0.0
 10
57.1868218734
 20
59.0800607631
 30
0.0
 10
57.4391555616
 20
59.0800607631
 30
0.0
  0
SPLINE
  5
270
100
AcDbEntity
  8
0
100
AcDbSpline
 62
7
  6
BYLAYER
 70
0
 71
3
 72
12
 73
8
 74
0
 42
0.0000001
 43
0.0000001
 44
0.0000000001
 40
0.0
 40
0.0
 40
0.0
 40
0.0
 40
0.1250697335
 40
0.2501435654
 40
0.6247185368
 40
0.8123531216
 40
1.0
 40
1.0
 40
1.0
 40
1.0
 10
53.6390573914
 20
64.0210203502
 30
0.0
 10
53.6390573914
 20
63.8673784579
 30
0.0
 10
53.6578544477
 20
63.5597818415
 30
0.0
 10
53.7935371525
 20
62.802962857
 30
0.0
 10
54.1080643493
 20
62.0094943118
 30
0.0
 10
54.5425992878
 20
61.1978091004
 30
0.0
 10
54.7820950807
 20
60.8034680844
 30
0.0
 10
54.9054206253
 20
60.6087172909
 30
0.0
  0
SPLINE
  5
271
100
AcDbEntity
  8
0
100
AcDbSpline
 62
7
  6
BYLAYER
 70
0
 71
3
 72
12
 73
8
 74
0
 42
0.0000001
 43
0.0000001
 44
0.0000000001
 40
0.0
 40
0.0
 40
0.0
 40
0.0
 40
0.2500747114
 40
0.4376283737
 40
0.6251471612
 40
0.8126051858
 40
1.0
 40
1.0
 40
1.0
 40
1.0
 10
54.9054206253
 20
67.4333234094
 30
0.0
 10
54.7410005884
 20
67.1736778286
 30
0.0
 10
54.4643782964
 20
66.7119082264
 30
0.0
 10
54.1168325183
 20
66.0260569086
 30
0.0
 10
53.8586948683
 20
65.3833821721
 30
0.0
 10
53.6818876791
 20
64.7129099067
 30
0.0
 10
53.6390573914
 20
64.2513173385
 30
0.0
 10
53.6390573914
 20
64.0210203502
 30
0.0
  0
SPLINE
  5
272
100
AcDbEntity
  8
0
100
AcDbSpline
 62
7
  6
BYLAYER
 70
0
 71
3
 72
11
 73
7
 74
0
 42
0.0000001
 43
0.0000001
 44
0.0000000001
 40
0.0
 40
0.0
 40
0.0
 40
0.0
 40
0.2499986489
 40
0.4999987922
 40
0.7499992597
 40
1.0
 40
1.0
 40
1.0
 40
1.0
 10
54.9375264481
 20
67.4829720099
 30
0.0
 10
52.9603068911
 20
67.7164587209
 30
0.0
 10
49.0005208245
 20
68.1383581023
 30
0.0
 10
43.0529511682
 20
68.6888396196
 30
0.0
 10
37.1003484532
 20
69.1819305404
 30
0.0
 10
33.1297117722
 20
69.4822065255
 30
0.0
 10
31.1439951035
 20
69.6268054603
 30
0.0
  0
SPLINE
  5
273
100
AcDbEntity
  8
0
100
AcDbSpline
 62
7
  6
BYLAYER
 70
0
 71
3
 72
11
 73
7
 74
0
 42
0.0000001
 43
0.0000001
 44
0.0000000001
 40
0.0
 40
0.0
 40
0.0
 40
0.0
 40
0.2500050791
 40
0.5000366209
 40
0.7500279598
 40
1.0
 40
1.0
 40
1.0
 40
1.0
 10
77.8294540311
 20
61.6440049167
 30
0.0
 10
78.0164519195
 20
61.419061855
 30
0.0
 10
78.4217848448
 20
60.9948433498
 30
0.0
 10
79.0884039241
 20
60.4227394216
 30
0.0
 10
79.7951690391
 20
59.9015445469
 30
0.0
 10
80.2851328599
 20
59.5814509953
 30
0.0
 10
80.5335296029
 20
59.4270358575
 30
0.0
  0
SPLINE
  5
274
100
AcDbEntity
  8
0
100
AcDbSpline
 62
7
  6
BYLAYER
 70
0
 71
3
 72
22
 73
18
 74
0
 42
0.0000001
 43
0.0000001
 44
0.0000000001
 40
0.0
 40
0.0
 40
0.0
 40
0.0
 40
0.0156647919
 40
0.0315046718
 40
0.0470718356
 40
0.0627376925
 40
0.0939985982
 40
0.1252682009
 40
0.1877844005
 40
0.2502955249
 40
0.3128048383
 40
0.3753054817
 40
0.5002837067
 40
0.6252473437
 40
0.7501915974
 40
0.8751094805
 40
1.0
 40
1.0
 40
1.0
 40
1.0
 10
11.5897490308
 20
69.8493294727
 30
0.0
 10
11.5825078193
 20
69.8493294727
 30
0.0
 10
11.5686259519
 20
69.8574893804
 30
0.0
 10
11.5554017039
 20
69.8746254849
 30
0.0
 10
11.5452521347
 20
69.8940083137
 30
0.0
 10
11.5335550881
 20
69.9204030627
 30
0.0
 10
11.5214045513
 20
69.9545153812
 30
0.0
 10
11.5056801761
 20
70.010148604
 30
0.0
 10
11.4890341504
 20
70.0804876427
 30
0.0
 10
11.4723869782
 20
70.1655785726
 30
0.0
 10
11.4580833927
 20
70.2510804696
 30
0.0
 10
11.4407323129
 20
70.3653327124
 30
0.0
 10
11.4218898809
 20
70.5085435356
 30
0.0
 10
11.4027113332
 20
70.6807809541
 30
0.0
 10
11.3858949633
 20
70.8532341143
 30
0.0
 10
11.3708819741
 20
71.0258180364
 30
0.0
 10
11.3618953064
 20
71.1409460464
 30
0.0
 10
11.357652966
 20
71.1985218944
 30
0.0
  0
SPLINE
  5
275
100
AcDbEntity
  8
0
100
AcDbSpline
 62
7
  6
BYLAYER
 70
0
 71
3
 72
22
 73
18
 74
0
 42
0.0000001
 43
0.0000001
 44
0.0000000001
 40
0.0
 40
0.0
 40
0.0
 40
0.0
 40
0.1248900695
 40
0.2498075573
 40
0.3747517762
 40
0.499715712
 40
0.6246943106
 40
0.6871949724
 40
0.7497045355
 40
0.8122159803
 40
0.8747323703
 40
0.9060020947
 40
0.9372630675
 40
0.9529291105
 40
0.9684959073
 40
0.9843353113
 40
1.0
 40
1.0
 40
1.0
 40
1.0
 10
11.3569941033
 20
56.8345619478
 30
0.0
 10
11.3612391692
 20
56.8925119984
 30
0.0
 10
11.3702347372
 20
57.0083884988
 30
0.0
 10
11.3852762673
 20
57.1820948174
 30
0.0
 10
11.4021271123
 20
57.3556711547
 30
0.0
 10
11.4213485035
 20
57.5290323946
 30
0.0
 10
11.4402309571
 20
57.6731811229
 30
0.0
 10
11.4576418932
 20
57.7881809964
 30
0.0
 10
11.4719852493
 20
57.8742451851
 30
0.0
 10
11.4886736543
 20
57.9598999752
 30
0.0
 10
11.5053742839
 20
58.0307073381
 30
0.0
 10
11.5211503049
 20
58.086714065
 30
0.0
 10
11.5333223463
 20
58.1210678779
 30
0.0
 10
11.5450678447
 20
58.1476452727
 30
0.0
 10
11.5552461978
 20
58.1671723999
 30
0.0
 10
11.5685007228
 20
58.1844549582
 30
0.0
 10
11.5824610066
 20
58.1927112276
 30
0.0
 10
11.5897490308
 20
58.1927112276
 30
0.0
  0
SPLINE
  5
276
100
AcDbEntity
  8
0
100
AcDbSpline
 62
7
  6
BYLAYER
 70
0
 71
3
 72
11
 73
7
 74
0
 42
0.0000001
 43
0.0000001
 44
0.0000000001
 40
0.0
 40
0.0
 40
0.0
 40
0.0
 40
0.2499715353
 40
0.4999618974
 40
0.7499944742
 40
1.0
 40
1.0
 40
1.0
 40
1.0
 10
80.5335296029
 20
68.6150048428
 30
0.0
 10
80.2851333584
 20
68.4605900138
 30
0.0
 10
79.7951716607
 20
68.1404963752
 30
0.0
 10
79.0884060678
 20
67.6193031411
 30
0.0
 10
78.4217854077
 20
67.0471999602
 30
0.0
 10
78.0164522564
 20
66.6229792505
 30
0.0
 10
77.8294540311
 20
66.3980357836
 30
0.0
  0
SPLINE
  5
277
100
AcDbEntity
  8
0
100
AcDbSpline
 62
7
  6
BYLAYER
 70
0
 71
3
 72
8
 73
4
 74
0
 42
0.0000001
 43
0.0000001
 44
0.0000000001
 40
0.0
 40
0.0
 40
0.0
 40
0.0
 40
1.0
 40
1.0
 40
1.0
 40
1.0
 10
54.9054206253
 20
60.6087172909
 30
0.0
 10
54.9159655521
 20
60.5920647483
 30
0.0
 10
54.926723192
 20
60.5755470667
 30
0.0
 10
54.9375406974
 20
60.559070288
 30
0.0
  0
SPLINE
  5
278
100
AcDbEntity
  8
0
100
AcDbSpline
 62
7
  6
BYLAYER
 70
0
 71
3
 72
26
 73
22
 74
0
 42
0.0000001
 43
0.0000001
 44
0.0000000001
 40
0.0
 40
0.0
 40
0.0
 40
0.0
 40
0.124833857
 40
0.2497367765
 40
0.3747043053
 40
0.4997351921
 40
0.5622740024
 40
0.6248276763
 40
0.6873970252
 40
0.7499803637
 40
0.7812764933
 40
0.8125748309
 40
0.8438758176
 40
0.8751816427
 40
0.9064908439
 40
0.9378012382
 40
0.9534598106
 40
0.9691184698
 40
0.9769496983
 40
0.9847829618
 40
1.0
 40
1.0
 40
1.0
 40
1.0
 10
30.8461409714
 20
55.1174215321
 30
0.0
 10
30.8461409714
 20
55.2560696671
 30
0.0
 10
30.8485286939
 20
55.5334468938
 30
0.0
 10
30.8585058276
 20
55.9495113057
 30
0.0
 10
30.8745994282
 20
56.3656030102
 30
0.0
 10
30.8931388056
 20
56.712245784
 30
0.0
 10
30.9113799409
 20
56.9894516183
 30
0.0
 10
30.9269677723
 20
57.1973000012
 30
0.0
 10
30.9446454974
 20
57.4050309676
 30
0.0
 10
30.9615015682
 20
57.5779801099
 30
0.0
 10
30.9767619615
 20
57.7161721497
 30
0.0
 10
30.9893113623
 20
57.8197028963
 30
0.0
 10
31.0032483811
 20
57.9230680762
 30
0.0
 10
31.0186609777
 20
58.0262346361
 30
0.0
 10
31.0361770128
 20
58.1290909838
 30
0.0
 10
31.053875012
 20
58.2142232845
 30
0.0
 10
31.0709094966
 20
58.2817246981
 30
0.0
 10
31.0832701562
 20
58.3233047438
 30
0.0
 10
31.0960254373
 20
58.3560313189
 30
0.0
 10
31.1094403073
 20
58.3862195472
 30
0.0
 10
31.1271812952
 20
58.4125285693
 30
0.0
 10
31.1439951035
 20
58.414242869
 30
0.0
  0
SPLINE
  5
279
100
AcDbEntity
  8
0
100
AcDbSpline
 62
7
  6
BYLAYER
 70
0
 71
3
 72
13
 73
9
 74
0
 42
0.0000001
 43
0.0000001
 44
0.0000000001
 40
0.0
 40
0.0
 40
0.0
 40
0.0
 40
0.2499162412
 40
0.499834639
 40
0.6249142807
 40
0.7497439764
 40
0.8749958259
 40
1.0
 40
1.0
 40
1.0
 40
1.0
 10
80.6689741426
 20
69.2783741687
 30
0.0
 10
80.6623131794
 20
69.2221079499
 30
0.0
 10
80.6480816784
 20
69.1096879711
 30
0.0
 10
80.6274233828
 20
68.9694816875
 30
0.0
 10
80.6075856846
 20
68.8579459827
 30
0.0
 10
80.5901124498
 20
68.7745562072
 30
0.0
 10
80.5693021118
 20
68.6925722733
 30
0.0
 10
80.5501173121
 20
68.6377227774
 30
0.0
 10
80.5335296029
 20
68.6147444498
 30
0.0
  0
SPLINE
  5
27A
100
AcDbEntity
  8
0
100
AcDbSpline
 62
7
  6
BYLAYER
 70
0
 71
3
 72
26
 73
22
 74
0
 42
0.0000001
 43
0.0000001
 44
0.0000000001
 40
0.0
 40
0.0
 40
0.0
 40
0.0
 40
0.0152176878
 40
0.0230509999
 40
0.030882217
 40
0.0465408778
 40
0.0621994389
 40
0.0935098147
 40
0.1248189951
 40
0.1561247975
 40
0.187425762
 40
0.2187240774
 40
0.2500201847
 40
0.3126034776
 40
0.375172781
 40
0.4377264104
 40
0.5002651758
 40
0.6252959718
 40
0.7502634098
 40
0.8751662376
 40
1.0
 40
1.0
 40
1.0
 40
1.0
 10
31.1439951035
 20
69.6277997624
 30
0.0
 10
31.127180585
 20
69.6295141344
 30
0.0
 10
31.1094390138
 20
69.6558238293
 30
0.0
 10
31.0960233991
 20
69.6860125847
 30
0.0
 10
31.0832694386
 20
69.7187396936
 30
0.0
 10
31.0709086346
 20
69.7603196023
 30
0.0
 10
31.0538741917
 20
69.827820984
 30
0.0
 10
31.036176357
 20
69.9129532126
 30
0.0
 10
31.0186605289
 20
70.0158094793
 30
0.0
 10
31.0032478766
 20
70.1189759082
 30
0.0
 10
30.9893109627
 20
70.2223409802
 30
0.0
 10
30.9767616141
 20
70.3258716106
 30
0.0
 10
30.9615013013
 20
70.4640634953
 30
0.0
 10
30.9446452379
 20
70.6370124324
 30
0.0
 10
30.926967542
 20
70.8447431558
 30
0.0
 10
30.9113797914
 20
71.0525913
 30
0.0
 10
30.8931386955
 20
71.3297968101
 30
0.0
 10
30.8745993585
 20
71.6764391768
 30
0.0
 10
30.8585057985
 20
72.0925303905
 30
0.0
 10
30.8485286928
 20
72.5085943068
 30
0.0
 10
30.8461409714
 20
72.7859712011
 30
0.0
 10
30.8461409714
 20
72.9246191682
 30
0.0
  0
SPLINE
  5
27B
100
AcDbEntity
  8
0
100
AcDbSpline
 62
7
  6
BYLAYER
 70
0
 71
3
 72
13
 73
9
 74
0
 42
0.0000001
 43
0.0000001
 44
0.0000000001
 40
0.0
 40
0.0
 40
0.0
 40
0.0
 40
0.1250040479
 40
0.2502563536
 40
0.3750858153
 40
0.5001654644
 40
0.7500838118
 40
1.0
 40
1.0
 40
1.0
 40
1.0
 10
80.5335296029
 20
59.4272962613
 30
0.0
 10
80.5501172969
 20
59.4043179549
 30
0.0
 10
80.5693028549
 20
59.3494686719
 30
0.0
 10
80.5901121113
 20
59.2674843879
 30
0.0
 10
80.6075857829
 20
59.1840946688
 30
0.0
 10
80.6274233629
 20
59.0725589834
 30
0.0
 10
80.6480816947
 20
58.9323527224
 30
0.0
 10
80.6623131804
 20
58.8199327528
 30
0.0
 10
80.6689741428
 20
58.7636665408
 30
0.0
  0
SPLINE
  5
27C
100
AcDbEntity
  8
0
100
AcDbSpline
 62
7
  6
BYLAYER
 70
0
 71
3
 72
8
 73
4
 74
0
 42
0.0000001
 43
0.0000001
 44
0.0000000001
 40
0.0
 40
0.0
 40
0.0
 40
0.0
 40
1.0
 40
1.0
 40
1.0
 40
1.0
 10
54.9375264481
 20
67.4829720099
 30
0.0
 10
54.9267155915
 20
67.4664934184
 30
0.0
 10
54.9159644113
 20
67.4499741504
 30
0.0
 10
54.9054206253
 20
67.4333234094
 30
0.0
  0
ELLIPSE
  5
27D
100
AcDbEntity
  8
0
100
AcDbEllipse
 62
7
  6
BYLAYER
 10
74.0288597193
 20
48.5311885471
 30
0.0
 11
0.4604765147
 21
0.0
 31
0.0
 40
0.4285714286
 41
2.1175851677
 42
2.3310137947
  0
ELLIPSE
  5
27E
100
AcDbEntity
  8
0
100
AcDbEllipse
 62
7
  6
BYLAYER
 10
74.0288597193
 20
79.5108521532
 30
0.0
 11
0.4604765147
 21
-0.0
 31
0.0
 40
0.4285714286
 41
-2.3310137947
 42
-2.1175851677
  0
ELLIPSE
  5
27F
100
AcDbEntity
  8
0
100
AcDbEllipse
 62
7
  6
BYLAYER
 10
-15608.649302349
 20
64.0210203502
 30
0.0
 11
15678.2381706381
 21
-0.0
 31
0.0
 40
0.0051088129
 41
-0.0296445767
 42
-0.0257404531
  0
ELLIPSE
  5
280
100
AcDbEntity
  8
0
100
AcDbEllipse
 62
7
  6
BYLAYER
 10
-15608.649302349
 20
64.0210203502
 30
0.0
 11
15678.2381706381
 21
-0.0
 31
0.0
 40
0.0051088129
 41
0.0257404531
 42
0.0296445767
  0
ELLIPSE
  5
281
100
AcDbEntity
  8
0
100
AcDbEllipse
 62
7
  6
BYLAYER
 10
160.237327299
 20
64.0210203502
 30
0.0
 11
95.8739045173
 21
-0.0
 31
0.0
 40
0.835443038
 41
-3.1158522005
 42
-2.9758537593
  0
ELLIPSE
  5
282
100
AcDbEntity
  8
0
100
AcDbEllipse
 62
7
  6
BYLAYER
 10
160.237327299
 20
64.0210203502
 30
0.0
 11
95.8739045173
 21
-0.0
 31
0.0
 40
0.835443038
 41
2.9758537593
 42
3.1158522005
  0
ELLIPSE
  5
283
100
AcDbEntity
  8
0
100
AcDbEllipse
 62
7
  6
BYLAYER
 10
-27.7077775204
 20
64.0210203502
 30
0.0
 11
103.6039689156
 21
-0.0
 31
0.0
 40
0.7731092437
 41
-0.1915790422
 42
-0.0607894936
  0
ELLIPSE
  5
284
100
AcDbEntity
  8
0
100
AcDbEllipse
 62
7
  6
BYLAYER
 10
-27.7077775204
 20
64.0210203502
 30
0.0
 11
103.6039689156
 21
-0.0
 31
0.0
 40
0.7731092437
 41
0.0607894936
 42
0.1915790422
  0
ELLIPSE
  5
285
100
AcDbEntity
  8
0
100
AcDbEllipse
 62
7
  6
BYLAYER
 10
-141.3002501276
 20
64.0210203502
 30
0.0
 11
217.4066478564
 21
-0.0
 31
0.0
 40
0.3684210526
 41
-0.0607894936
 42
-0.0296809988
  0
ELLIPSE
  5
286
100
AcDbEntity
  8
0
100
AcDbEllipse
 62
7
  6
BYLAYER
 10
-141.3002501276
 20
64.0210203502
 30
0.0
 11
217.4066478564
 21
-0.0
 31
0.0
 40
0.3684210526
 41
0.0296809988
 42
0.0607894936
  0
ELLIPSE
  5
287
100
AcDbEntity
  8
0
100
AcDbEllipse
 62
7
  6
BYLAYER
 10
-111.5568956814
 20
64.0210203502
 30
0.0
 11
123.7865602628
 21
-0.0
 31
0.0
 40
0.6470588235
 41
0.0296809988
 42
0.0728298334
  0
ELLIPSE
  5
288
100
AcDbEntity
  8
0
100
AcDbEllipse
 62
7
  6
BYLAYER
 10
-111.5568956814
 20
64.0210203502
 30
0.0
 11
123.7865602628
 21
-0.0
 31
0.0
 40
0.6470588235
 41
-0.0728298334
 42
-0.0296809988
  0
ELLIPSE
  5
289
100
AcDbEntity
  8
0
100
AcDbEllipse
 62
7
  6
BYLAYER
 10
225.2975619864
 20
64.0210203502
 30
0.0
 11
195.7931214614
 21
-0.0
 31
0.0
 40
0.4090909091
 41
3.0745127039
 42
3.1119116548
  0
ELLIPSE
  5
28A
100
AcDbEntity
  8
0
100
AcDbEllipse
 62
7
  6
BYLAYER
 10
225.2975619864
 20
64.0210203502
 30
0.0
 11
195.7931214614
 21
-0.0
 31
0.0
 40
0.4090909091
 41
-3.1119116548
 42
-3.0745127039
  0
ELLIPSE
  5
28B
100
AcDbEntity
  8
0
100
AcDbEllipse
 62
7
  6
BYLAYER
 10
108.4597751808
 20
64.0210203502
 30
0.0
 11
0.0
 21
80.0971860524
 31
0.0
 40
0.9824561404
 41
1.4050574325
 42
1.5037163771
  0
ELLIPSE
  5
28C
100
AcDbEntity
  8
0
100
AcDbEllipse
 62
7
  6
BYLAYER
 10
108.4597751808
 20
64.0210203502
 30
0.0
 11
0.0
 21
80.0971860524
 31
0.0
 40
0.9824561404
 41
-4.6453090307
 42
-4.5466500861
  0
ELLIPSE
  5
28D
100
AcDbEntity
  8
0
100
AcDbEllipse
 62
7
  6
BYLAYER
 10
11.2300279035
 20
64.0210203502
 30
0.0
 11
0.0
 21
2.8006496993
 31
0.0
 40
0.0169491525
 41
-3.1415926536
 42
-0.0
  0
ENDSEC
  0
SECTION
  2
OBJECTS
  0
DICTIONARY
  5
C
100
AcDbDictionary
280
0
281
1
  3
ACAD_GROUP
350
D
  3
ACAD_MLINESTYLE
350
17
  3
ACAD_LAYOUT
350
1A
  3
ACAD_PLOTSETTINGS
350
19
  3
ACAD_PLOTSTYLENAME
350
E
  0
DICTIONARY
  5
D
102
{ACAD_REACTORS
330
C
102
}
100
AcDbDictionary
280
0
281
1
  0
ACDBDICTIONARYWDFLT
  5
E
102
{ACAD_REACTORS
330
C
102
}
100
AcDbDictionary
281
1
  3
Normal
350
F
100
AcDbDictionaryWithDefault
340
F
  0
DICTIONARY
  5
17
102
{ACAD_REACTORS
330
C
102
}
100
AcDbDictionary
280
0
281
1
  3
Standard
350
18
  0
DICTIONARY
  5
19
102
{ACAD_REACTORS
330
C
102
}
100
AcDbDictionary
281
1
  0
DICTIONARY
  5
1A
102
{ACAD_REACTORS
330
C
102
}
100
AcDbDictionary
281
1
  3
Model
350
28E
  3
Layout1
350
28F
  0
ACDBPLACEHOLDER
  5
F
102
{ACAD_REACTORS
330
E
102
}
  0
MLINESTYLE
  5
18
102
{ACAD_REACTORS
330
17
102
}
100
AcDbMlineStyle
  2
STANDARD
 70
0
  3

 62
256
 51
90.0
 52
90.0
 71
2
 49
0.5
 62
256
  6
BYLAYER
 49
-0.5
 62
256
  6
BYLAYER
  0
LAYOUT
  5
28E
102
{ACAD_REACTORS
330
1A
102
}
100
AcDbPlotSettings
  1

  2
none_device
  4

  6

 40
0.0
 41
0.0
 42
0.0
 43
0.0
 44
210.0
 45
297.0
 46
0.0
 47
0.0
 48
0.0
 49
0.0
140
0.0
141
0.0
142
1.0
143
1.0
 70
1024
 72
1
 73
0
 74
0
  7

 75
0
147
1.0
148
0.0
149
0.0
100
AcDbLayout
  1
Model
 70
0
 71
0
 10
0.0
 20
0.0
 11
210.0
 21
297.0
 12
0.0
 22
0.0
 32
0.0
 14
0.0
 24
0.0
 34
0.0
 15
0.0
 25
0.0
 35
0.0
146
0.0
 13
0.0
 23
0.0
 33
0.0
 16
1.0
 26
0.0
 36
0.0
 17
0.0
 27
1.0
 37
0.0
 76
0
330
210
345
0
346
0
  0
LAYOUT
  5
28F
102
{ACAD_REACTORS
330
1A
102
}
100
AcDbPlotSettings
  1

  2
none_device
  4

  6

 40
0.0
 41
0.0
 42
0.0
 43
0.0
 44
210.0
 45
297.0
 46
0.0
 47
0.0
 48
0.0
 49
0.0
140
0.0
141
0.0
142
1.0
143
1.0
 70
0
 72
1
 73
0
 74
0
  7

 75
0
147
1.0
148
0.0
149
0.0
100
AcDbLayout
  1
Layout1
 70
0
 71
1
 10
0.0
 20
0.0
 11
210.0
 21
297.0
 12
0.0
 22
0.0
 32
0.0
 14
0.0
 24
0.0
 34
0.0
 15
0.0
 25
0.0
 35
0.0
146
0.0
 13
0.0
 23
0.0
 33
0.0
 16
1.0
 26
0.0
 36
0.0
 17
0.0
 27
1.0
 37
0.0
 76
0
330
211
345
0
346
0
  0
ENDSEC
  0
EOF
