999
DXF file: C:\Users\sesa63760\Dev\_Creo\CAD\MCADID0004416_3D-CAD\drw0001_1.dxf
999
Pro/ENGINEER 2019471 by Parametric Technology Corporation
  0
SECTION
  2
HEADER
  9
$ACADVER
  1
AC1024
  9
$DWGCODEPAGE
  3
ANSI_1252
  9
$EXTMAX
 10
65.0269361421
 20
91.9666668295
 30
0.0
  9
$EXTMIN
 10
0.0
 20
0.0
 30
0.0
  9
$LIMMIN
 10
0.0
 20
0.0
  9
$LIMMAX
 10
65.0269361421
 20
91.9666668295
  9
$VIEWCTR
 10
32.5134680711
 20
45.9833334148
  9
$VIEWSIZE
 40
91.9666668295
  9
$CLAYER
  8
0
  9
$LTSCALE
 40
5.9948642081
  9
$CELTYPE
  6
BYLAYER
  9
$DIMSCALE
 40
1.0
  9
$DIMASZ
 40
0.7741301922
  9
$DIMEXO
 40
1.0
  9
$DIMDLI
 40
4.1419061802
  9
$DIMEXE
 40
1.0
  9
$DIMCEN
 40
0.9809777795
  9
$DIMLFAC
 40
1.0
  9
$DIMBLK
  1
_FILLED
  9
$DIMALT
 70
0
  9
$DIMALTF
 40
0.0393700787
  9
$DIMTXT
 40
1.083782269
  9
$DIMTOL
 70
1
  9
$DIMLIM
 70
0
  9
$DIMTFAC
 40
1.0
  9
$DIMTP
 40
0.01
  9
$DIMTM
 40
0.01
  9
$DIMGAP
 40
0.625
  9
$DIMDSEP
 70
46
  9
$AUNITS
 70
0
  9
$PDMODE
 70
3
  9
$PDSIZE
 40
0.3125
  9
$HANDSEED
  5
260
  9
$TILEMODE
 70
1
  9
$MEASUREMENT
 70
1
  9
$INSUNITS
 70
4
  0
ENDSEC
  0
SECTION
  2
CLASSES
  0
CLASS
  1
ACDBDICTIONARYWDFLT
  2
AcDbDictionaryWithDefault
  3
AutoCAD 2000
 90
0
 91
1
280
0
281
0
  0
CLASS
  1
ACDBPLACEHOLDER
  2
AcDbPlaceHolder
  3
AutoCAD 2000
 90
0
 91
1
280
0
281
0
  0
CLASS
  1
LAYOUT
  2
AcDbLayout
  3
AutoCAD 2000
 90
0
 91
0
280
0
281
0
  0
ENDSEC
  0
SECTION
  2
TABLES
  0
TABLE
  2
VPORT
  5
8
100
AcDbSymbolTable
 70
2
  0
VPORT
  5
1F4
100
AcDbSymbolTableRecord
100
AcDbViewportTableRecord
  2
*ACTIVE
 70
0
 10
0.0
 20
0.0
 11
1.0
 21
1.0
 12
32.5134680711
 22
45.9833334148
 13
0.0
 23
0.0
 14
1.0
 24
1.0
 15
0.0
 25
0.0
 16
0.0
 26
0.0
 36
1.0
 17
0.0
 27
0.0
 37
0.0
 40
91.9666668295
 41
0.7070707071
 42
50.0
 43
0.0
 44
0.0
 50
0.0
 51
0.0
 71
0
 72
100
 73
1
 74
1
 75
0
 76
0
 77
0
 78
0
  0
ENDTAB
  0
TABLE
  2
LTYPE
  5
5
100
AcDbSymbolTable
 70
6
  0
LTYPE
  5
14
100
AcDbSymbolTableRecord
100
AcDbLinetypeTableRecord
  2
BYBLOCK
 70
0
  3

 72
65
 73
0
 40
0.0
  0
LTYPE
  5
15
100
AcDbSymbolTableRecord
100
AcDbLinetypeTableRecord
  2
BYLAYER
 70
0
  3

 72
65
 73
0
 40
0.0
  0
LTYPE
  5
16
100
AcDbSymbolTableRecord
100
AcDbLinetypeTableRecord
  2
CONTINUOUS
 70
64
  3
Solid line
 72
65
 73
0
 40
0.0
  0
LTYPE
  5
1F5
100
AcDbSymbolTableRecord
100
AcDbLinetypeTableRecord
  2
CENTER
 70
64
  3
____ _ ____ _ ____ _ ____ _ ____ _ ____ _ ____
 72
65
 73
4
 40
0.6
 49
0.375
 74
0
 49
-0.075
 74
0
 49
0.075
 74
0
 49
-0.075
 74
0
  0
LTYPE
  5
1F6
100
AcDbSymbolTableRecord
100
AcDbLinetypeTableRecord
  2
HIDDEN
 70
64
  3
- - - - - - - - - - - - - - - - - - - -
 72
65
 73
2
 40
0.2
 49
0.1
 74
0
 49
-0.1
 74
0
  0
LTYPE
  5
1F7
100
AcDbSymbolTableRecord
100
AcDbLinetypeTableRecord
  2
PHANTOM
 70
64
  3
_____ _ _ _____ _ _ _____ _ _ _____
 72
65
 73
6
 40
0.8
 49
0.45
 74
0
 49
-0.05
 74
0
 49
0.1
 74
0
 49
-0.05
 74
0
 49
0.1
 74
0
 49
-0.05
 74
0
  0
LTYPE
  5
1F8
100
AcDbSymbolTableRecord
100
AcDbLinetypeTableRecord
  2
DOT
 70
64
  3
. . . . . . . . . . . . . . . . . . . .
 72
65
 73
2
 40
0.2
 49
0.1
 74
0
 49
-0.1
 74
0
  0
LTYPE
  5
1F9
100
AcDbSymbolTableRecord
100
AcDbLinetypeTableRecord
  2
DASHED
 70
64
  3
- - - - - - - - - - - - - - - - - - - -
 72
65
 73
2
 40
0.2
 49
0.1
 74
0
 49
-0.1
 74
0
  0
ENDTAB
  0
TABLE
  2
LAYER
  5
2
100
AcDbSymbolTable
 70
36
  0
LAYER
  5
10
100
AcDbSymbolTableRecord
100
AcDbLayerTableRecord
  2
0
 70
0
 62
7
  6
CONTINUOUS
370
-3
390
F
  0
LAYER
  5
1FA
100
AcDbSymbolTableRecord
100
AcDbLayerTableRecord
  2
DEFAULT_1
 70
0
 62
7
  6
CENTER
370
-3
390
F
  0
LAYER
  5
1FB
100
AcDbSymbolTableRecord
100
AcDbLayerTableRecord
  2
DEFAULT_2
 70
0
 62
7
  6
HIDDEN
370
-3
390
F
  0
LAYER
  5
1FC
100
AcDbSymbolTableRecord
100
AcDbLayerTableRecord
  2
DEFAULT_3
 70
0
 62
7
  6
PHANTOM
370
-3
390
F
  0
LAYER
  5
1FD
100
AcDbSymbolTableRecord
100
AcDbLayerTableRecord
  2
00_COMPONENTS
 70
0
 62
7
  6
CONTINUOUS
370
-3
390
F
  0
LAYER
  5
1FE
100
AcDbSymbolTableRecord
100
AcDbLayerTableRecord
  2
01_1_DEFAULT_DATUMS
 70
0
 62
7
  6
CONTINUOUS
370
-3
390
F
  0
LAYER
  5
1FF
100
AcDbSymbolTableRecord
100
AcDbLayerTableRecord
  2
01_PLANES
 70
0
 62
7
  6
CONTINUOUS
370
-3
390
F
  0
LAYER
  5
200
100
AcDbSymbolTableRecord
100
AcDbLayerTableRecord
  2
02_COORD_SYS
 70
0
 62
7
  6
CONTINUOUS
370
-3
390
F
  0
LAYER
  5
201
100
AcDbSymbolTableRecord
100
AcDbLayerTableRecord
  2
03_AXES
 70
0
 62
7
  6
CONTINUOUS
370
-3
390
F
  0
LAYER
  5
202
100
AcDbSymbolTableRecord
100
AcDbLayerTableRecord
  2
04_POINTS
 70
0
 62
7
  6
CONTINUOUS
370
-3
390
F
  0
LAYER
  5
203
100
AcDbSymbolTableRecord
100
AcDbLayerTableRecord
  2
05_CURVES
 70
0
 62
7
  6
CONTINUOUS
370
-3
390
F
  0
LAYER
  5
204
100
AcDbSymbolTableRecord
100
AcDbLayerTableRecord
  2
06_SURFS
 70
0
 62
7
  6
CONTINUOUS
370
-3
390
F
  0
LAYER
  5
205
100
AcDbSymbolTableRecord
100
AcDbLayerTableRecord
  2
07_COSMETICS
 70
0
 62
7
  6
CONTINUOUS
370
-3
390
F
  0
LAYER
  5
206
100
AcDbSymbolTableRecord
100
AcDbLayerTableRecord
  2
10_NOTES
 70
0
 62
7
  6
CONTINUOUS
370
-3
390
F
  0
LAYER
  5
207
100
AcDbSymbolTableRecord
100
AcDbLayerTableRecord
  2
11_NOTES_PUB
 70
0
 62
7
  6
CONTINUOUS
370
-3
390
F
  0
LAYER
  5
208
100
AcDbSymbolTableRecord
100
AcDbLayerTableRecord
  2
13_REF_GTOL
 70
0
 62
7
  6
CONTINUOUS
370
-3
390
F
  0
LAYER
  5
209
100
AcDbSymbolTableRecord
100
AcDbLayerTableRecord
  2
16_MISC
 70
0
 62
7
  6
CONTINUOUS
370
-3
390
F
  0
LAYER
  5
20A
100
AcDbSymbolTableRecord
100
AcDbLayerTableRecord
  2
17_NO_PRINT
 70
0
 62
7
  6
CONTINUOUS
370
-3
390
F
  0
LAYER
  5
20B
100
AcDbSymbolTableRecord
100
AcDbLayerTableRecord
  2
18_DATUM_CAMS_JOINTS
 70
0
 62
7
  6
CONTINUOUS
370
-3
390
F
  0
LAYER
  5
20C
100
AcDbSymbolTableRecord
100
AcDbLayerTableRecord
  2
19_DATUM_FUNCTIONAL
 70
0
 62
7
  6
CONTINUOUS
370
-3
390
F
  0
LAYER
  5
20D
100
AcDbSymbolTableRecord
100
AcDbLayerTableRecord
  2
20_DATUM_KINEMATIC_SCHEME
 70
0
 62
7
  6
CONTINUOUS
370
-3
390
F
  0
ENDTAB
  0
TABLE
  2
STYLE
  5
3
100
AcDbSymbolTable
 70
1
  0
STYLE
  5
11
100
AcDbSymbolTableRecord
100
AcDbTextStyleTableRecord
  2
STANDARD
 70
0
 40
0.0
 41
1.0
 50
0.0
 71
0
 42
0.2
  3
ARIAL.TTF
  4

  0
STYLE
  5
20E
100
AcDbSymbolTableRecord
100
AcDbTextStyleTableRecord
  2
TEXTSTYLE_1
 70
0
 40
0.0
 41
0.8
 50
0.0
 71
0
 42
0.2
  3
gdt
  4

  0
ENDTAB
  0
TABLE
  2
VIEW
  5
6
100
AcDbSymbolTable
 70
0
  0
ENDTAB
  0
TABLE
  2
UCS
  5
7
100
AcDbSymbolTable
 70
0
  0
ENDTAB
  0
TABLE
  2
APPID
  5
9
100
AcDbSymbolTable
 70
1
  0
APPID
  5
20F
100
AcDbSymbolTableRecord
100
AcDbRegAppTableRecord
  2
ACAD
 70
0
  0
ENDTAB
  0
TABLE
  2
BLOCK_RECORD
  5
1
100
AcDbSymbolTable
 70
0
  0
BLOCK_RECORD
  5
210
100
AcDbSymbolTableRecord
100
AcDbBlockTableRecord
  2
*Model_Space
  0
BLOCK_RECORD
  5
211
100
AcDbSymbolTableRecord
100
AcDbBlockTableRecord
  2
*Paper_Space
  0
BLOCK_RECORD
  5
212
100
AcDbSymbolTableRecord
100
AcDbBlockTableRecord
  2
_FILLED
  0
ENDTAB
  0
TABLE
  2
DIMSTYLE
  5
A
100
AcDbSymbolTable
 70
1
100
AcDbDimStyleTable
 71
0
  0
DIMSTYLE
105
213
100
AcDbSymbolTableRecord
100
AcDbDimStyleTableRecord
  2
STANDARD
 70
0
  3

  4

 40
1.0
 41
0.7741301922
 42
1.0
 43
0.38
 44
1.0
 45
0.0
 46
0.0
 47
0.01
 48
0.01
140
1.083782269
141
0.09
142
0.0
143
25.4
144
1.0
145
0.0
146
1.0
147
0.625
 71
1
 72
0
 73
0
 74
0
 75
0
 76
0
 77
1
 78
8
 79
2
170
0
171
1
172
0
173
0
174
0
175
0
176
0
177
0
178
0
270
2
179
2
271
2
272
2
273
2
274
2
275
0
280
0
281
0
282
0
283
1
284
8
285
0
286
0
287
3
288
0
340
11
278
46
341
212
342
212
343
212
344
212
  0
ENDTAB
  0
ENDSEC
  0
SECTION
  2
BLOCKS
  0
BLOCK
  5
20
100
AcDbEntity
  8
0
100
AcDbBlockBegin
  2
*Model_Space
 70
0
 10
0.0
 20
0.0
 30
0.0
  3
*Model_Space
  1

  0
ENDBLK
  5
21
100
AcDbEntity
  8
0
100
AcDbBlockEnd
  0
BLOCK
  5
1C
100
AcDbEntity
  8
0
100
AcDbBlockBegin
  2
*Paper_Space
 70
0
 10
0.0
 20
0.0
 30
0.0
  3
*Paper_Space
  1

  0
ENDBLK
  5
1D
100
AcDbEntity
  8
0
100
AcDbBlockEnd
  0
BLOCK
  5
214
100
AcDbEntity
  8
0
100
AcDbBlockBegin
  2
_FILLED
 70
64
 10
0.0
 20
0.0
  3
_FILLED
  1

  0
SOLID
  5
215
100
AcDbEntity
  8
0
  6
BYBLOCK
 62
0
100
AcDbTrace
 10
0.0
 20
0.0
 11
-1.0
 21
0.25
 12
-1.0
 22
-0.25
 13
-1.0
 23
-0.25
  0
ENDBLK
  5
216
100
AcDbEntity
  8
0
  6
BYBLOCK
 62
0
100
AcDbBlockEnd
  0
ENDSEC
  0
SECTION
  2
ENTITIES
  0
LINE
  5
217
100
AcDbEntity
  8
0
100
AcDbLine
 62
7
  6
BYLAYER
 10
11.1167767945
 20
80.1842695635
 11
18.1878151666
 21
84.2667111022
  0
LINE
  5
218
100
AcDbEntity
  8
0
100
AcDbLine
 62
7
  6
BYLAYER
 10
7.5371345378
 20
39.7164153012
 11
7.5440192068
 21
38.9392389086
  0
LINE
  5
219
100
AcDbEntity
  8
0
100
AcDbLine
 62
7
  6
BYLAYER
 10
10.4167381077
 20
34.1531368618
 11
10.4167381077
 21
38.8577876072
  0
LINE
  5
21A
100
AcDbEntity
  8
0
100
AcDbLine
 62
7
  6
BYLAYER
 10
11.1167767945
 20
80.1842695635
 11
11.1167767945
 21
71.202742975
  0
LINE
  5
21B
100
AcDbEntity
  8
0
100
AcDbLine
 62
7
  6
BYLAYER
 10
11.1167767945
 20
46.7076704612
 11
11.1167767945
 21
31.1941245357
  0
LINE
  5
21C
100
AcDbEntity
  8
0
100
AcDbLine
 62
7
  6
BYLAYER
 10
11.4703316571
 20
70.9986225978
 11
11.4703316571
 21
46.5035500839
  0
LINE
  5
21D
100
AcDbEntity
  8
0
100
AcDbLine
 62
7
  6
BYLAYER
 10
11.1167767945
 20
31.1941245357
 11
51.4220311279
 21
7.924401528
  0
LINE
  5
21E
100
AcDbEntity
  8
0
100
AcDbLine
 62
7
  6
BYLAYER
 10
11.1238478329
 20
33.7448961073
 11
10.4167381077
 21
34.1531368618
  0
LINE
  5
21F
100
AcDbEntity
  8
0
100
AcDbLine
 62
7
  6
BYLAYER
 10
21.7234226717
 20
62.6296244059
 11
23.8447701757
 21
63.8543776475
  0
LINE
  5
220
100
AcDbEntity
  8
0
100
AcDbLine
 62
7
  6
BYLAYER
 10
8.3723220281
 20
37.1412464049
 11
10.4167381077
 21
35.9609289333
  0
LINE
  5
221
100
AcDbEntity
  8
0
100
AcDbLine
 62
7
  6
BYLAYER
 10
11.1238478329
 20
38.4495468527
 11
10.4167381077
 21
38.8577876072
  0
LINE
  5
222
100
AcDbEntity
  8
0
100
AcDbLine
 62
7
  6
BYLAYER
 10
10.4167381077
 20
38.8577876072
 11
11.1167767945
 21
39.7286504557
  0
LINE
  5
223
100
AcDbEntity
  8
0
100
AcDbLine
 62
7
  6
BYLAYER
 10
21.7234226717
 20
43.0335663947
 11
21.7234226717
 21
62.6296244059
  0
LINE
  5
224
100
AcDbEntity
  8
0
100
AcDbLine
 62
7
  6
BYLAYER
 10
11.1167767945
 20
46.7076704612
 11
11.4703316571
 21
46.9117942378
  0
LINE
  5
225
100
AcDbEntity
  8
0
100
AcDbLine
 62
7
  6
BYLAYER
 10
10.372288094
 20
43.8713772801
 11
10.4009991248
 21
43.8877852313
  0
LINE
  5
226
100
AcDbEntity
  8
0
100
AcDbLine
 62
7
  6
BYLAYER
 10
9.7025279045
 20
43.4925837419
 11
10.3722159817
 21
43.8715047715
  0
LINE
  5
227
100
AcDbEntity
  8
0
100
AcDbLine
 62
7
  6
BYLAYER
 10
50.7149214027
 20
23.846188208
 11
23.8447518471
 21
39.3593368798
  0
LINE
  5
228
100
AcDbEntity
  8
0
100
AcDbLine
 62
7
  6
BYLAYER
 10
11.4703316571
 20
46.5035500839
 11
11.1167767945
 21
46.7076704612
  0
LINE
  5
229
100
AcDbEntity
  8
0
100
AcDbLine
 62
7
  6
BYLAYER
 10
28.7944610438
 20
60.9967581053
 11
28.7944610438
 21
47.1160079335
  0
LINE
  5
22A
100
AcDbEntity
  8
0
100
AcDbLine
 62
7
  6
BYLAYER
 10
28.7944610438
 20
47.1160079335
 11
21.7234226717
 21
43.0335663947
  0
LINE
  5
22B
100
AcDbEntity
  8
0
100
AcDbLine
 62
7
  6
BYLAYER
 10
57.7859597749
 20
27.9286297467
 11
30.9157902193
 21
43.4417784185
  0
LINE
  5
22C
100
AcDbEntity
  8
0
100
AcDbLine
 62
7
  6
BYLAYER
 10
51.4220311279
 20
56.9145465558
 11
58.4930695
 21
60.9969880945
  0
LINE
  5
22D
100
AcDbEntity
  8
0
100
AcDbLine
 62
7
  6
BYLAYER
 10
23.8447518471
 20
39.3593368798
 11
30.9157902193
 21
43.4417784185
  0
LINE
  5
22E
100
AcDbEntity
  8
0
100
AcDbLine
 62
7
  6
BYLAYER
 10
51.4220311279
 20
22.6214450364
 11
50.7149214027
 21
23.846188208
  0
LINE
  5
22F
100
AcDbEntity
  8
0
100
AcDbLine
 62
7
  6
BYLAYER
 10
50.7149214027
 20
48.3412607219
 11
58.4930695
 21
52.8319639232
  0
LINE
  5
230
100
AcDbEntity
  8
0
100
AcDbLine
 62
7
  6
BYLAYER
 10
11.1167767945
 20
71.202742975
 11
11.4703316571
 21
70.9986225978
  0
LINE
  5
231
100
AcDbEntity
  8
0
100
AcDbLine
 62
7
  6
BYLAYER
 10
23.8447518471
 20
63.8544093937
 11
50.7149214027
 21
48.3412607219
  0
LINE
  5
232
100
AcDbEntity
  8
0
100
AcDbLine
 62
7
  6
BYLAYER
 10
57.7859597749
 20
27.9286297467
 11
58.4930695
 21
26.7038865751
  0
LINE
  5
233
100
AcDbEntity
  8
0
100
AcDbLine
 62
7
  6
BYLAYER
 10
51.4220311279
 20
7.924401528
 11
51.4220311279
 21
22.6214450364
  0
LINE
  5
234
100
AcDbEntity
  8
0
100
AcDbLine
 62
7
  6
BYLAYER
 10
51.4220311279
 20
48.7495223845
 11
51.4220311279
 21
56.9145465558
  0
LINE
  5
235
100
AcDbEntity
  8
0
100
AcDbLine
 62
7
  6
BYLAYER
 10
51.4220311279
 20
56.9145465558
 11
11.1167767945
 21
80.1842695635
  0
LINE
  5
236
100
AcDbEntity
  8
0
100
AcDbLine
 62
7
  6
BYLAYER
 10
58.4930695
 20
12.0068430668
 11
58.4930695
 21
26.7038865751
  0
LINE
  5
237
100
AcDbEntity
  8
0
100
AcDbLine
 62
7
  6
BYLAYER
 10
58.4930695
 20
52.8319639232
 11
58.4930695
 21
60.9969880945
  0
LINE
  5
238
100
AcDbEntity
  8
0
100
AcDbLine
 62
7
  6
BYLAYER
 10
58.4930695
 20
60.9969880945
 11
18.1878151666
 21
84.2667111022
  0
LINE
  5
239
100
AcDbEntity
  8
0
100
AcDbLine
 62
7
  6
BYLAYER
 10
50.7149214027
 20
23.846188208
 11
57.7859597749
 21
27.9286297467
  0
LINE
  5
23A
100
AcDbEntity
  8
0
100
AcDbLine
 62
7
  6
BYLAYER
 10
51.4220311279
 20
22.6214450364
 11
58.4930695
 21
26.7038865751
  0
LINE
  5
23B
100
AcDbEntity
  8
0
100
AcDbLine
 62
7
  6
BYLAYER
 10
51.4220311279
 20
7.924401528
 11
58.4930695
 21
12.0068430668
  0
ARC
  5
23C
100
AcDbEntity
  8
0
100
AcDbCircle
 62
7
  6
BYLAYER
 10
53.7948827752
 20
26.4917466037
 40
0.5421791324
100
AcDbArc
 50
13.4078072304
 51
18.6356850098
  0
SPLINE
  5
23D
100
AcDbEntity
  8
0
100
AcDbSpline
 62
7
  6
BYLAYER
 70
0
 71
3
 72
19
 73
15
 74
0
 42
0.0000001
 43
0.0000001
 44
0.0000000001
 40
0.0
 40
0.0
 40
0.0
 40
0.0
 40
0.0428394104
 40
0.0874448899
 40
0.1352571039
 40
0.1871950253
 40
0.2436735499
 40
0.3046656819
 40
0.4382689093
 40
0.5825434307
 40
0.7296392143
 40
0.871166535
 40
0.9376088396
 40
1.0
 40
1.0
 40
1.0
 40
1.0
 10
13.6523333089
 20
41.4994996763
 30
0.0
 10
13.7016376982
 20
41.5279703765
 30
0.0
 10
13.8103375334
 20
41.5731058752
 30
0.0
 10
13.9897402331
 20
41.599441813
 30
0.0
 10
14.1824006704
 20
41.585232221
 30
0.0
 10
14.384029423
 20
41.5316762121
 30
0.0
 10
14.5906899997
 20
41.4403656538
 30
0.0
 10
14.8759563437
 20
41.2657416343
 30
0.0
 10
15.215799173
 20
40.9647866287
 30
0.0
 10
15.5650918151
 20
40.5175949494
 30
0.0
 10
15.8401332736
 20
40.0093468189
 30
0.0
 10
15.9923245058
 20
39.5595390518
 30
0.0
 10
16.0552468716
 20
39.2052290602
 30
0.0
 10
16.0665448705
 20
39.0338894426
 30
0.0
 10
16.0665448705
 20
38.9509706767
 30
0.0
  0
SPLINE
  5
23E
100
AcDbEntity
  8
0
100
AcDbSpline
 62
7
  6
BYLAYER
 70
0
 71
3
 72
19
 73
15
 74
0
 42
0.0000001
 43
0.0000001
 44
0.0000000001
 40
0.0
 40
0.0
 40
0.0
 40
0.0
 40
0.0428394104
 40
0.0874448899
 40
0.1352571039
 40
0.1871950253
 40
0.2436735499
 40
0.3046656819
 40
0.4382689093
 40
0.5825434307
 40
0.7296392143
 40
0.871166535
 40
0.9376088396
 40
1.0
 40
1.0
 40
1.0
 40
1.0
 10
13.6523333089
 20
69.2605818587
 30
0.0
 10
13.7016376982
 20
69.2890525589
 30
0.0
 10
13.8103375334
 20
69.3341880576
 30
0.0
 10
13.9897402331
 20
69.3605239954
 30
0.0
 10
14.1824006704
 20
69.3463144034
 30
0.0
 10
14.384029423
 20
69.2927583945
 30
0.0
 10
14.5906899997
 20
69.2014478362
 30
0.0
 10
14.8759563437
 20
69.0268238167
 30
0.0
 10
15.215799173
 20
68.7258688111
 30
0.0
 10
15.5650918151
 20
68.2786771318
 30
0.0
 10
15.8401332736
 20
67.7704290013
 30
0.0
 10
15.9923245058
 20
67.3206212342
 30
0.0
 10
16.0552468716
 20
66.9663112426
 30
0.0
 10
16.0665448705
 20
66.794971625
 30
0.0
 10
16.0665448705
 20
66.7120528591
 30
0.0
  0
SPLINE
  5
23F
100
AcDbEntity
  8
0
100
AcDbSpline
 62
7
  6
BYLAYER
 70
0
 71
3
 72
19
 73
15
 74
0
 42
0.0000001
 43
0.0000001
 44
0.0000000001
 40
0.0
 40
0.0
 40
0.0
 40
0.0
 40
0.0428394104
 40
0.0874448899
 40
0.1352571039
 40
0.1871950253
 40
0.2436735499
 40
0.3046656819
 40
0.4382689093
 40
0.5825434307
 40
0.7296392143
 40
0.871166535
 40
0.9376088396
 40
1.0
 40
1.0
 40
1.0
 40
1.0
 10
13.6523333089
 20
75.7926011957
 30
0.0
 10
13.7016376982
 20
75.8210718959
 30
0.0
 10
13.8103375334
 20
75.8662073947
 30
0.0
 10
13.9897402331
 20
75.8925433325
 30
0.0
 10
14.1824006704
 20
75.8783337404
 30
0.0
 10
14.384029423
 20
75.8247777315
 30
0.0
 10
14.5906899997
 20
75.7334671733
 30
0.0
 10
14.8759563437
 20
75.5588431538
 30
0.0
 10
15.215799173
 20
75.2578881482
 30
0.0
 10
15.5650918151
 20
74.8106964688
 30
0.0
 10
15.8401332736
 20
74.3024483383
 30
0.0
 10
15.9923245058
 20
73.8526405712
 30
0.0
 10
16.0552468716
 20
73.4983305796
 30
0.0
 10
16.0665448705
 20
73.326990962
 30
0.0
 10
16.0665448705
 20
73.2440721962
 30
0.0
  0
SPLINE
  5
240
100
AcDbEntity
  8
0
100
AcDbSpline
 62
7
  6
BYLAYER
 70
0
 71
3
 72
19
 73
15
 74
0
 42
0.0000001
 43
0.0000001
 44
0.0000000001
 40
0.0
 40
0.0
 40
0.0
 40
0.0
 40
0.0428394104
 40
0.0874448899
 40
0.1352571039
 40
0.1871950253
 40
0.2436735499
 40
0.3046656819
 40
0.4382689093
 40
0.5825434307
 40
0.7296392143
 40
0.871166535
 40
0.9376088396
 40
1.0
 40
1.0
 40
1.0
 40
1.0
 10
44.0580514902
 20
23.9451472319
 30
0.0
 10
44.1073558795
 20
23.9736179321
 30
0.0
 10
44.2160557147
 20
24.0187534308
 30
0.0
 10
44.3954584144
 20
24.0450893686
 30
0.0
 10
44.5881188517
 20
24.0308797766
 30
0.0
 10
44.7897476044
 20
23.9773237677
 30
0.0
 10
44.996408181
 20
23.8860132095
 30
0.0
 10
45.2816745251
 20
23.7113891899
 30
0.0
 10
45.6215173543
 20
23.4104341843
 30
0.0
 10
45.9708099964
 20
22.963242505
 30
0.0
 10
46.2458514549
 20
22.4549943745
 30
0.0
 10
46.3980426871
 20
22.0051866074
 30
0.0
 10
46.4609650529
 20
21.6508766158
 30
0.0
 10
46.4722630519
 20
21.4795369982
 30
0.0
 10
46.4722630519
 20
21.3966182324
 30
0.0
  0
SPLINE
  5
241
100
AcDbEntity
  8
0
100
AcDbSpline
 62
7
  6
BYLAYER
 70
0
 71
3
 72
12
 73
8
 74
0
 42
0.0000001
 43
0.0000001
 44
0.0000000001
 40
0.0
 40
0.0
 40
0.0
 40
0.0
 40
0.2894832083
 40
0.5486755374
 40
0.7816290778
 40
0.8918324007
 40
1.0
 40
1.0
 40
1.0
 40
1.0
 10
46.4722630519
 20
21.3966182324
 30
0.0
 10
46.4722630519
 20
21.2952823005
 30
0.0
 10
46.4568504419
 20
21.1025354901
 30
0.0
 10
46.3789986649
 20
20.8378505128
 30
0.0
 10
46.2669552012
 20
20.6552245375
 30
0.0
 10
46.1538477543
 20
20.5440245993
 30
0.0
 10
46.0908263316
 20
20.4999871142
 30
0.0
 10
46.0580357129
 20
20.4810522509
 30
0.0
  0
SPLINE
  5
242
100
AcDbEntity
  8
0
100
AcDbSpline
 62
7
  6
BYLAYER
 70
0
 71
3
 72
12
 73
8
 74
0
 42
0.0000001
 43
0.0000001
 44
0.0000000001
 40
0.0
 40
0.0
 40
0.0
 40
0.0
 40
0.2894832083
 40
0.5486755374
 40
0.7816290778
 40
0.8918324007
 40
1.0
 40
1.0
 40
1.0
 40
1.0
 10
16.0665448705
 20
73.2440721962
 30
0.0
 10
16.0665448705
 20
73.1427362643
 30
0.0
 10
16.0511322605
 20
72.9499894539
 30
0.0
 10
15.9732804836
 20
72.6853044766
 30
0.0
 10
15.8612370198
 20
72.5026785013
 30
0.0
 10
15.748129573
 20
72.3914785631
 30
0.0
 10
15.6851081503
 20
72.3474410781
 30
0.0
 10
15.6523175316
 20
72.3285062147
 30
0.0
  0
SPLINE
  5
243
100
AcDbEntity
  8
0
100
AcDbSpline
 62
7
  6
BYLAYER
 70
0
 71
3
 72
12
 73
8
 74
0
 42
0.0000001
 43
0.0000001
 44
0.0000000001
 40
0.0
 40
0.0
 40
0.0
 40
0.0
 40
0.2894832083
 40
0.5486755374
 40
0.7816290778
 40
0.8918324007
 40
1.0
 40
1.0
 40
1.0
 40
1.0
 10
16.0665448705
 20
66.7120528591
 30
0.0
 10
16.0665448705
 20
66.6107169273
 30
0.0
 10
16.0511322605
 20
66.4179701168
 30
0.0
 10
15.9732804836
 20
66.1532851396
 30
0.0
 10
15.8612370198
 20
65.9706591643
 30
0.0
 10
15.748129573
 20
65.8594592261
 30
0.0
 10
15.6851081503
 20
65.815421741
 30
0.0
 10
15.6523175316
 20
65.7964868777
 30
0.0
  0
SPLINE
  5
244
100
AcDbEntity
  8
0
100
AcDbSpline
 62
7
  6
BYLAYER
 70
0
 71
3
 72
12
 73
8
 74
0
 42
0.0000001
 43
0.0000001
 44
0.0000000001
 40
0.0
 40
0.0
 40
0.0
 40
0.0
 40
0.2894832083
 40
0.5486755374
 40
0.7816290778
 40
0.8918324007
 40
1.0
 40
1.0
 40
1.0
 40
1.0
 10
16.0665448705
 20
38.9509706767
 30
0.0
 10
16.0665448705
 20
38.8496347448
 30
0.0
 10
16.0511322605
 20
38.6568879344
 30
0.0
 10
15.9732804836
 20
38.3922029571
 30
0.0
 10
15.8612370198
 20
38.2095769819
 30
0.0
 10
15.748129573
 20
38.0983770437
 30
0.0
 10
15.6851081503
 20
38.0543395586
 30
0.0
 10
15.6523175316
 20
38.0354046953
 30
0.0
  0
SPLINE
  5
245
100
AcDbEntity
  8
0
100
AcDbSpline
 62
7
  6
BYLAYER
 70
0
 71
3
 72
9
 73
5
 74
0
 42
0.0000001
 43
0.0000001
 44
0.0000000001
 40
0.0
 40
0.0
 40
0.0
 40
0.0
 40
0.2473109588
 40
1.0
 40
1.0
 40
1.0
 40
1.0
 10
54.3361896958
 20
26.7038905877
 30
0.0
 10
54.336183815
 20
26.6890857635
 30
0.0
 10
54.3335235496
 20
26.6292396501
 30
0.0
 10
54.3200578406
 20
26.5699791833
 30
0.0
 10
54.3048001076
 20
26.5275827367
 30
0.0
  0
SPLINE
  5
246
100
AcDbEntity
  8
0
100
AcDbSpline
 62
7
  6
BYLAYER
 70
0
 71
3
 72
11
 73
7
 74
0
 42
0.0000001
 43
0.0000001
 44
0.0000000001
 40
0.0
 40
0.0
 40
0.0
 40
0.0
 40
0.2212052706
 40
0.459778159
 40
0.7193015264
 40
1.0
 40
1.0
 40
1.0
 40
1.0
 10
54.3048001076
 20
26.5275827367
 30
0.0
 10
54.2896069761
 20
26.4853657976
 30
0.0
 10
54.2473202684
 20
26.401247689
 30
0.0
 10
54.156280974
 20
26.286216279
 30
0.0
 10
54.0379053129
 20
26.1806407521
 30
0.0
 10
53.9461927357
 20
26.1199965999
 30
0.0
 10
53.8968857262
 20
26.0915293546
 30
0.0
  0
SPLINE
  5
247
100
AcDbEntity
  8
0
100
AcDbSpline
 62
7
  6
BYLAYER
 70
0
 71
3
 72
15
 73
11
 74
0
 42
0.0000001
 43
0.0000001
 44
0.0000000001
 40
0.0
 40
0.0
 40
0.0
 40
0.0
 40
0.1141474765
 40
0.2373368178
 40
0.3669776594
 40
0.5000010819
 40
0.633024354
 40
0.7626647561
 40
0.8858534048
 40
1.0
 40
1.0
 40
1.0
 40
1.0
 10
28.7944610438
 20
47.1160079335
 30
0.0
 10
28.7944610438
 20
46.9483318815
 30
0.0
 10
28.8251954195
 20
46.5993749552
 30
0.0
 10
28.9476070933
 20
46.0729432153
 30
0.0
 10
29.1437963501
 20
45.5397218188
 30
0.0
 10
29.4062839202
 20
45.0197472672
 30
0.0
 10
29.7253532655
 20
44.5324411378
 30
0.0
 10
30.0890430085
 20
44.0959289061
 30
0.0
 10
30.483740631
 20
43.7267059283
 30
0.0
 10
30.7705787986
 20
43.5256143747
 30
0.0
 10
30.9157902193
 20
43.4417784185
 30
0.0
  0
SPLINE
  5
248
100
AcDbEntity
  8
0
100
AcDbSpline
 62
7
  6
BYLAYER
 70
0
 71
3
 72
13
 73
9
 74
0
 42
0.0000001
 43
0.0000001
 44
0.0000000001
 40
0.0
 40
0.0
 40
0.0
 40
0.0
 40
0.1080947724
 40
0.2182340858
 40
0.3322580584
 40
0.4516863355
 40
0.7106233083
 40
1.0
 40
1.0
 40
1.0
 40
1.0
 10
22.3447695886
 20
64.0029631328
 30
0.0
 10
22.3939540507
 20
64.0313596275
 30
0.0
 10
22.4983734577
 20
64.080291642
 30
0.0
 10
22.6673599297
 20
64.126962258
 30
0.0
 10
22.8474765836
 20
64.1470833311
 30
0.0
 10
23.1068145798
 20
64.1380775933
 30
0.0
 10
23.4513834374
 20
64.0550494906
 30
0.0
 10
23.7130813131
 20
63.9304276922
 30
0.0
 10
23.8447518471
 20
63.8544093937
 30
0.0
  0
SPLINE
  5
249
100
AcDbEntity
  8
0
100
AcDbSpline
 62
7
  6
BYLAYER
 70
0
 71
3
 72
14
 73
10
 74
0
 42
0.0000001
 43
0.0000001
 44
0.0000000001
 40
0.0
 40
0.0
 40
0.0
 40
0.0
 40
0.1083456523
 40
0.2186846247
 40
0.3328291943
 40
0.4522890555
 40
0.578201262
 40
0.7113021513
 40
1.0
 40
1.0
 40
1.0
 40
1.0
 10
8.3723333862
 20
37.141266078
 30
0.0
 10
8.3076051378
 20
37.1786367328
 30
0.0
 10
8.1830786456
 20
37.265269423
 30
0.0
 10
8.0182681406
 20
37.4264961209
 30
0.0
 10
7.8760553078
 20
37.6175595839
 30
0.0
 10
7.7578305899
 20
37.8364588462
 30
0.0
 10
7.664468432
 20
38.0810160442
 30
0.0
 10
7.5715674074
 20
38.4479107915
 30
0.0
 10
7.5457904768
 20
38.7400905374
 30
0.0
 10
7.5440197729
 20
38.9392392421
 30
0.0
  0
SPLINE
  5
24A
100
AcDbEntity
  8
0
100
AcDbSpline
 62
7
  6
BYLAYER
 70
0
 71
3
 72
9
 73
5
 74
0
 42
0.0000001
 43
0.0000001
 44
0.0000000001
 40
0.0
 40
0.0
 40
0.0
 40
0.0
 40
0.518021097
 40
1.0
 40
1.0
 40
1.0
 40
1.0
 10
10.4009991133
 20
43.887783924
 30
0.0
 10
10.5205079137
 20
43.9553707148
 30
0.0
 10
10.7586854531
 20
44.0732183649
 30
0.0
 10
11.010531483
 20
44.1590967308
 30
0.0
 10
11.134335983
 20
44.1905759217
 30
0.0
  0
SPLINE
  5
24B
100
AcDbEntity
  8
0
100
AcDbSpline
 62
7
  6
BYLAYER
 70
0
 71
3
 72
17
 73
13
 74
0
 42
0.0000001
 43
0.0000001
 44
0.0000000001
 40
0.0
 40
0.0
 40
0.0
 40
0.0
 40
0.1246192356
 40
0.2612652608
 40
0.4040397335
 40
0.5461447263
 40
0.6808546098
 40
0.802625097
 40
0.857681239
 40
0.9086659221
 40
0.9558802134
 40
1.0
 40
1.0
 40
1.0
 40
1.0
 10
53.8968857262
 20
26.0915293546
 30
0.0
 10
53.7953531642
 20
26.0329098525
 30
0.0
 10
53.5672254914
 20
25.9358949215
 30
0.0
 10
53.1947643933
 20
25.8524006776
 30
0.0
 10
52.7973324776
 20
25.8278815936
 30
0.0
 10
52.4026169037
 20
25.8641267617
 30
0.0
 10
52.0379676271
 20
25.958571228
 30
0.0
 10
51.7706459422
 20
26.0849187251
 30
0.0
 10
51.5968766959
 20
26.2113692482
 30
0.0
 10
51.4931790973
 20
26.3123829301
 30
0.0
 10
51.4136390191
 20
26.4209285622
 30
0.0
 10
51.3769969832
 20
26.4994654836
 30
0.0
 10
51.3637581805
 20
26.5388046931
 30
0.0
  0
SPLINE
  5
24C
100
AcDbEntity
  8
0
100
AcDbSpline
 62
7
  6
BYLAYER
 70
0
 71
3
 72
9
 73
5
 74
0
 42
0.0000001
 43
0.0000001
 44
0.0000000001
 40
0.0
 40
0.0
 40
0.0
 40
0.0
 40
0.2543035794
 40
1.0
 40
1.0
 40
1.0
 40
1.0
 10
51.3637581805
 20
26.5388046931
 30
0.0
 10
51.3592220163
 20
26.552283942
 30
0.0
 10
51.343399209
 20
26.6059407184
 30
0.0
 10
51.3362360159
 20
26.6621869336
 30
0.0
 10
51.3362525813
 20
26.7038903852
 30
0.0
  0
SPLINE
  5
24D
100
AcDbEntity
  8
0
100
AcDbSpline
 62
7
  6
BYLAYER
 70
0
 71
3
 72
15
 73
11
 74
0
 42
0.0000001
 43
0.0000001
 44
0.0000000001
 40
0.0
 40
0.0
 40
0.0
 40
0.0
 40
0.1137551911
 40
0.2366908759
 40
0.366266282
 40
0.4993460857
 40
0.6325237268
 40
0.7623513327
 40
0.8857360616
 40
1.0
 40
1.0
 40
1.0
 40
1.0
 10
7.5371628603
 20
39.7164319589
 30
0.0
 10
7.535646038
 20
39.8879650813
 30
0.0
 10
7.5644630714
 20
40.245495656
 30
0.0
 10
7.6869565067
 20
40.7855729021
 30
0.0
 10
7.8858856366
 20
41.3334708666
 30
0.0
 10
8.15371933
 20
41.868348683
 30
0.0
 10
8.4803226326
 20
42.369952872
 30
0.0
 10
8.853311245
 20
42.8194443318
 30
0.0
 10
9.2585709034
 20
43.1995264378
 30
0.0
 10
9.5533054372
 20
43.4064306245
 30
0.0
 10
9.7025279045
 20
43.4925837419
 30
0.0
  0
SPLINE
  5
24E
100
AcDbEntity
  8
0
100
AcDbSpline
 62
7
  6
BYLAYER
 70
0
 71
3
 72
12
 73
8
 74
0
 42
0.0000001
 43
0.0000001
 44
0.0000000001
 40
0.0
 40
0.0
 40
0.0
 40
0.0
 40
0.2894832083
 40
0.5486755374
 40
0.7816290778
 40
0.8918324007
 40
1.0
 40
1.0
 40
1.0
 40
1.0
 10
13.2381059699
 20
68.3450158772
 30
0.0
 10
13.2381059699
 20
68.4463518091
 30
0.0
 10
13.2535185799
 20
68.6390986195
 30
0.0
 10
13.3313703569
 20
68.9037835968
 30
0.0
 10
13.4434138206
 20
69.0864095721
 30
0.0
 10
13.5565212675
 20
69.1976095103
 30
0.0
 10
13.6195426902
 20
69.2416469953
 30
0.0
 10
13.6523333089
 20
69.2605818587
 30
0.0
  0
SPLINE
  5
24F
100
AcDbEntity
  8
0
100
AcDbSpline
 62
7
  6
BYLAYER
 70
0
 71
3
 72
12
 73
8
 74
0
 42
0.0000001
 43
0.0000001
 44
0.0000000001
 40
0.0
 40
0.0
 40
0.0
 40
0.0
 40
0.2894832083
 40
0.5486755374
 40
0.7816290778
 40
0.8918324007
 40
1.0
 40
1.0
 40
1.0
 40
1.0
 10
13.2381059699
 20
40.5839336948
 30
0.0
 10
13.2381059699
 20
40.6852696267
 30
0.0
 10
13.2535185799
 20
40.8780164371
 30
0.0
 10
13.3313703569
 20
41.1427014144
 30
0.0
 10
13.4434138206
 20
41.3253273897
 30
0.0
 10
13.5565212675
 20
41.4365273279
 30
0.0
 10
13.6195426902
 20
41.4805648129
 30
0.0
 10
13.6523333089
 20
41.4994996763
 30
0.0
  0
SPLINE
  5
250
100
AcDbEntity
  8
0
100
AcDbSpline
 62
7
  6
BYLAYER
 70
0
 71
3
 72
19
 73
15
 74
0
 42
0.0000001
 43
0.0000001
 44
0.0000000001
 40
0.0
 40
0.0
 40
0.0
 40
0.0
 40
0.0428394104
 40
0.0874448899
 40
0.1352571039
 40
0.1871950253
 40
0.2436735499
 40
0.3046656819
 40
0.4382689093
 40
0.5825434307
 40
0.7296392143
 40
0.871166535
 40
0.9376088396
 40
1.0
 40
1.0
 40
1.0
 40
1.0
 10
46.0580357129
 20
20.4810522509
 30
0.0
 10
46.0087313236
 20
20.4525815507
 30
0.0
 10
45.9000314884
 20
20.407446052
 30
0.0
 10
45.7206287887
 20
20.3811101142
 30
0.0
 10
45.5279683514
 20
20.3953197062
 30
0.0
 10
45.3263395988
 20
20.4488757151
 30
0.0
 10
45.1196790221
 20
20.5401862734
 30
0.0
 10
44.8344126781
 20
20.7148102929
 30
0.0
 10
44.4945698488
 20
21.0157652985
 30
0.0
 10
44.1452772067
 20
21.4629569778
 30
0.0
 10
43.8702357482
 20
21.9712051083
 30
0.0
 10
43.718044516
 20
22.4210128754
 30
0.0
 10
43.6551221502
 20
22.775322867
 30
0.0
 10
43.6438241513
 20
22.9466624846
 30
0.0
 10
43.6438241513
 20
23.0295812504
 30
0.0
  0
SPLINE
  5
251
100
AcDbEntity
  8
0
100
AcDbSpline
 62
7
  6
BYLAYER
 70
0
 71
3
 72
11
 73
7
 74
0
 42
0.0000001
 43
0.0000001
 44
0.0000000001
 40
0.0
 40
0.0
 40
0.0
 40
0.0
 40
0.2177648073
 40
0.4508950352
 40
0.7103684932
 40
1.0
 40
1.0
 40
1.0
 40
1.0
 10
51.3362525813
 20
26.7038903852
 30
0.0
 10
51.3362752732
 20
26.7610176431
 30
0.0
 10
51.3572970731
 20
26.880103814
 30
0.0
 10
51.4476230569
 20
27.0460363331
 30
0.0
 10
51.5903579262
 20
27.1959918184
 30
0.0
 10
51.7097555042
 20
27.278261593
 30
0.0
 10
51.7755565508
 20
27.3162516182
 30
0.0
  0
SPLINE
  5
252
100
AcDbEntity
  8
0
100
AcDbSpline
 62
7
  6
BYLAYER
 70
0
 71
3
 72
17
 73
13
 74
0
 42
0.0000001
 43
0.0000001
 44
0.0000000001
 40
0.0
 40
0.0
 40
0.0
 40
0.0
 40
0.0441193168
 40
0.091335701
 40
0.1423216268
 40
0.1973797974
 40
0.3191493863
 40
0.4538551679
 40
0.5959596091
 40
0.7387357698
 40
0.8753845395
 40
1.0
 40
1.0
 40
1.0
 40
1.0
 10
54.3086352234
 20
26.6649996946
 30
0.0
 10
54.2953876837
 20
26.7043330706
 30
0.0
 10
54.2587286889
 20
26.7828586874
 30
0.0
 10
54.17916382
 20
26.8913794154
 30
0.0
 10
54.0754590495
 20
26.9923808043
 30
0.0
 10
53.9016766722
 20
27.1187973618
 30
0.0
 10
53.6343668882
 20
27.2451195512
 30
0.0
 10
53.269737742
 20
27.3395392934
 30
0.0
 10
52.8750464575
 20
27.3757704468
 30
0.0
 10
52.4776331827
 20
27.3512477226
 30
0.0
 10
52.1051936326
 20
27.2677509225
 30
0.0
 10
51.8770804137
 20
27.1707404936
 30
0.0
 10
51.7755565508
 20
27.1121260139
 30
0.0
  0
SPLINE
  5
253
100
AcDbEntity
  8
0
100
AcDbSpline
 62
7
  6
BYLAYER
 70
0
 71
3
 72
19
 73
15
 74
0
 42
0.0000001
 43
0.0000001
 44
0.0000000001
 40
0.0
 40
0.0
 40
0.0
 40
0.0
 40
0.0428394104
 40
0.0874448899
 40
0.1352571039
 40
0.1871950253
 40
0.2436735499
 40
0.3046656819
 40
0.4382689093
 40
0.5825434307
 40
0.7296392143
 40
0.871166535
 40
0.9376088396
 40
1.0
 40
1.0
 40
1.0
 40
1.0
 10
15.6523175316
 20
38.0354046953
 30
0.0
 10
15.6030131423
 20
38.0069339951
 30
0.0
 10
15.4943133071
 20
37.9617984963
 30
0.0
 10
15.3149106074
 20
37.9354625585
 30
0.0
 10
15.1222501701
 20
37.9496721506
 30
0.0
 10
14.9206214174
 20
38.0032281595
 30
0.0
 10
14.7139608408
 20
38.0945387177
 30
0.0
 10
14.4286944967
 20
38.2691627373
 30
0.0
 10
14.0888516675
 20
38.5701177429
 30
0.0
 10
13.7395590254
 20
39.0173094222
 30
0.0
 10
13.4645175669
 20
39.5255575527
 30
0.0
 10
13.3123263347
 20
39.9753653198
 30
0.0
 10
13.2494039689
 20
40.3296753114
 30
0.0
 10
13.2381059699
 20
40.501014929
 30
0.0
 10
13.2381059699
 20
40.5839336948
 30
0.0
  0
SPLINE
  5
254
100
AcDbEntity
  8
0
100
AcDbSpline
 62
7
  6
BYLAYER
 70
0
 71
3
 72
11
 73
7
 74
0
 42
0.0000001
 43
0.0000001
 44
0.0000000001
 40
0.0
 40
0.0
 40
0.0
 40
0.0
 40
0.2807162871
 40
0.5402414285
 40
0.7788048355
 40
1.0
 40
1.0
 40
1.0
 40
1.0
 10
51.7755565508
 20
27.1121260139
 30
0.0
 10
51.7262378833
 20
27.0836520379
 30
0.0
 10
51.634506374
 20
27.0229944085
 30
0.0
 10
51.5161142951
 20
26.9173924669
 30
0.0
 10
51.4250716703
 20
26.8023355304
 30
0.0
 10
51.382792427
 20
26.7181991066
 30
0.0
 10
51.3676063983
 20
26.6759735435
 30
0.0
  0
SPLINE
  5
255
100
AcDbEntity
  8
0
100
AcDbSpline
 62
7
  6
BYLAYER
 70
0
 71
3
 72
19
 73
15
 74
0
 42
0.0000001
 43
0.0000001
 44
0.0000000001
 40
0.0
 40
0.0
 40
0.0
 40
0.0
 40
0.0428394104
 40
0.0874448899
 40
0.1352571039
 40
0.1871950253
 40
0.2436735499
 40
0.3046656819
 40
0.4382689093
 40
0.5825434307
 40
0.7296392143
 40
0.871166535
 40
0.9376088396
 40
1.0
 40
1.0
 40
1.0
 40
1.0
 10
15.6523175316
 20
65.7964868777
 30
0.0
 10
15.6030131423
 20
65.7680161775
 30
0.0
 10
15.4943133071
 20
65.7228806787
 30
0.0
 10
15.3149106074
 20
65.696544741
 30
0.0
 10
15.1222501701
 20
65.710754333
 30
0.0
 10
14.9206214174
 20
65.7643103419
 30
0.0
 10
14.7139608408
 20
65.8556209001
 30
0.0
 10
14.4286944967
 20
66.0302449197
 30
0.0
 10
14.0888516675
 20
66.3311999253
 30
0.0
 10
13.7395590254
 20
66.7783916046
 30
0.0
 10
13.4645175669
 20
67.2866397351
 30
0.0
 10
13.3123263347
 20
67.7364475022
 30
0.0
 10
13.2494039689
 20
68.0907574938
 30
0.0
 10
13.2381059699
 20
68.2620971114
 30
0.0
 10
13.2381059699
 20
68.3450158772
 30
0.0
  0
SPLINE
  5
256
100
AcDbEntity
  8
0
100
AcDbSpline
 62
7
  6
BYLAYER
 70
0
 71
3
 72
13
 73
9
 74
0
 42
0.0000001
 43
0.0000001
 44
0.0000000001
 40
0.0
 40
0.0
 40
0.0
 40
0.0
 40
0.2893776722
 40
0.5483149914
 40
0.6677431632
 40
0.7817668512
 40
0.8919057346
 40
1.0
 40
1.0
 40
1.0
 40
1.0
 10
21.7234226717
 20
62.6296244059
 30
0.0
 10
21.7234226717
 20
62.7816681694
 30
0.0
 10
21.7463438851
 20
63.0706247442
 30
0.0
 10
21.8467239648
 20
63.4105548012
 30
0.0
 10
21.9685957378
 20
63.6396577848
 30
0.0
 10
22.0760815578
 20
63.7855867971
 30
0.0
 10
22.2009956039
 20
63.9086009683
 30
0.0
 10
22.29558404
 20
63.9745660108
 30
0.0
 10
22.3447695886
 20
64.0029631328
 30
0.0
  0
SPLINE
  5
257
100
AcDbEntity
  8
0
100
AcDbSpline
 62
7
  6
BYLAYER
 70
0
 71
3
 72
15
 73
11
 74
0
 42
0.0000001
 43
0.0000001
 44
0.0000000001
 40
0.0
 40
0.0
 40
0.0
 40
0.0
 40
0.1141465952
 40
0.2373352439
 40
0.366975646
 40
0.4999989181
 40
0.6330223406
 40
0.7626631822
 40
0.8858525235
 40
1.0
 40
1.0
 40
1.0
 40
1.0
 10
23.8447518471
 20
39.3593368798
 30
0.0
 10
23.6995404264
 20
39.443172836
 30
0.0
 10
23.4127022588
 20
39.6442643896
 30
0.0
 10
23.0180046363
 20
40.0134873673
 30
0.0
 10
22.6543148934
 20
40.4499995991
 30
0.0
 10
22.3352455481
 20
40.9373057285
 30
0.0
 10
22.072757978
 20
41.4572802801
 30
0.0
 10
21.8765687212
 20
41.9905016766
 30
0.0
 10
21.7541570473
 20
42.5169334165
 30
0.0
 10
21.7234226717
 20
42.8658903428
 30
0.0
 10
21.7234226717
 20
43.0335663947
 30
0.0
  0
SPLINE
  5
258
100
AcDbEntity
  8
0
100
AcDbSpline
 62
7
  6
BYLAYER
 70
0
 71
3
 72
19
 73
15
 74
0
 42
0.0000001
 43
0.0000001
 44
0.0000000001
 40
0.0
 40
0.0
 40
0.0
 40
0.0
 40
0.0428394104
 40
0.0874448899
 40
0.1352571039
 40
0.1871950253
 40
0.2436735499
 40
0.3046656819
 40
0.4382689093
 40
0.5825434307
 40
0.7296392143
 40
0.871166535
 40
0.9376088396
 40
1.0
 40
1.0
 40
1.0
 40
1.0
 10
15.6523175316
 20
72.3285062147
 30
0.0
 10
15.6030131423
 20
72.3000355145
 30
0.0
 10
15.4943133071
 20
72.2549000158
 30
0.0
 10
15.3149106074
 20
72.228564078
 30
0.0
 10
15.1222501701
 20
72.24277367
 30
0.0
 10
14.9206214174
 20
72.2963296789
 30
0.0
 10
14.7139608408
 20
72.3876402372
 30
0.0
 10
14.4286944967
 20
72.5622642567
 30
0.0
 10
14.0888516675
 20
72.8632192623
 30
0.0
 10
13.7395590254
 20
73.3104109416
 30
0.0
 10
13.4645175669
 20
73.8186590721
 30
0.0
 10
13.3123263347
 20
74.2684668392
 30
0.0
 10
13.2494039689
 20
74.6227768308
 30
0.0
 10
13.2381059699
 20
74.7941164484
 30
0.0
 10
13.2381059699
 20
74.8770352143
 30
0.0
  0
SPLINE
  5
259
100
AcDbEntity
  8
0
100
AcDbSpline
 62
7
  6
BYLAYER
 70
0
 71
3
 72
12
 73
8
 74
0
 42
0.0000001
 43
0.0000001
 44
0.0000000001
 40
0.0
 40
0.0
 40
0.0
 40
0.0
 40
0.2894832083
 40
0.5486755374
 40
0.7816290778
 40
0.8918324007
 40
1.0
 40
1.0
 40
1.0
 40
1.0
 10
43.6438241513
 20
23.0295812504
 30
0.0
 10
43.6438241513
 20
23.1309171823
 30
0.0
 10
43.6592367612
 20
23.3236639928
 30
0.0
 10
43.7370885382
 20
23.58834897
 30
0.0
 10
43.849132002
 20
23.7709749453
 30
0.0
 10
43.9622394488
 20
23.8821748835
 30
0.0
 10
44.0252608715
 20
23.9262123686
 30
0.0
 10
44.0580514902
 20
23.9451472319
 30
0.0
  0
SPLINE
  5
25A
100
AcDbEntity
  8
0
100
AcDbSpline
 62
7
  6
BYLAYER
 70
0
 71
3
 72
19
 73
15
 74
0
 42
0.0000001
 43
0.0000001
 44
0.0000000001
 40
0.0
 40
0.0
 40
0.0
 40
0.0
 40
0.0623754049
 40
0.1288275739
 40
0.2703532574
 40
0.4174379969
 40
0.5617136194
 40
0.6953245612
 40
0.7563183156
 40
0.8127986636
 40
0.8647396266
 40
0.9125506279
 40
0.9571596582
 40
1.0
 40
1.0
 40
1.0
 40
1.0
 10
51.7755565508
 20
27.3162516182
 30
0.0
 10
51.8294002087
 20
27.347338083
 30
0.0
 10
51.9449277142
 20
27.4042322739
 30
0.0
 10
52.1986346
 20
27.4962572853
 30
0.0
 10
52.5478640453
 20
27.5660835919
 30
0.0
 10
52.9811077698
 20
27.5780391156
 30
0.0
 10
53.4025476222
 20
27.5188733426
 30
0.0
 10
53.7254864516
 20
27.4110194657
 30
0.0
 10
53.9458782488
 20
27.2911887649
 30
0.0
 10
54.0827036223
 20
27.1912185378
 30
0.0
 10
54.1931041765
 20
27.0803369132
 30
0.0
 10
54.2745799446
 20
26.9605251141
 30
0.0
 10
54.3247802015
 20
26.834131024
 30
0.0
 10
54.3362066575
 20
26.7465920542
 30
0.0
 10
54.3361896958
 20
26.7038905877
 30
0.0
  0
SPLINE
  5
25B
100
AcDbEntity
  8
0
100
AcDbSpline
 62
7
  6
BYLAYER
 70
0
 71
3
 72
12
 73
8
 74
0
 42
0.0000001
 43
0.0000001
 44
0.0000000001
 40
0.0
 40
0.0
 40
0.0
 40
0.0
 40
0.2894832083
 40
0.5486755374
 40
0.7816290778
 40
0.8918324007
 40
1.0
 40
1.0
 40
1.0
 40
1.0
 10
13.2381059699
 20
74.8770352143
 30
0.0
 10
13.2381059699
 20
74.9783711462
 30
0.0
 10
13.2535185799
 20
75.1711179566
 30
0.0
 10
13.3313703569
 20
75.4358029339
 30
0.0
 10
13.4434138206
 20
75.6184289092
 30
0.0
 10
13.5565212675
 20
75.7296288473
 30
0.0
 10
13.6195426902
 20
75.7736663324
 30
0.0
 10
13.6523333089
 20
75.7926011957
 30
0.0
  0
SPLINE
  5
25C
100
AcDbEntity
  8
0
100
AcDbSpline
 62
7
  6
BYLAYER
 70
0
 71
3
 72
15
 73
11
 74
0
 42
0.0000001
 43
0.0000001
 44
0.0000000001
 40
0.0
 40
0.0
 40
0.0
 40
0.0
 40
0.1117256342
 40
0.2315840067
 40
0.3577815632
 40
0.4880864531
 40
0.6200048845
 40
0.7509497753
 40
0.8783711469
 40
1.0
 40
1.0
 40
1.0
 40
1.0
 10
7.5440197729
 20
38.9392392421
 30
0.0
 10
7.5422945773
 20
39.13326969
 30
0.0
 10
7.5700439867
 20
39.5360606162
 30
0.0
 10
7.6912400046
 20
40.1468660493
 30
0.0
 10
7.8900532543
 20
40.7708965536
 30
0.0
 10
8.1607349885
 20
41.3900384775
 30
0.0
 10
8.4954739897
 20
41.9864593037
 30
0.0
 10
8.8846066392
 20
42.5428644241
 30
0.0
 10
9.3167239946
 20
43.0431733383
 30
0.0
 10
9.6345381743
 20
43.3383070634
 30
0.0
 10
9.7981625485
 20
43.4719046225
 30
0.0
  0
SPLINE
  5
25D
100
AcDbEntity
  8
0
100
AcDbSpline
 62
7
  6
BYLAYER
 70
0
 71
3
 72
9
 73
5
 74
0
 42
0.0000001
 43
0.0000001
 44
0.0000000001
 40
0.0
 40
0.0
 40
0.0
 40
0.0
 40
0.258663766
 40
1.0
 40
1.0
 40
1.0
 40
1.0
 10
9.7981625485
 20
43.4719046225
 30
0.0
 10
9.8449027241
 20
43.5100674782
 30
0.0
 10
10.0282771807
 20
43.6542637779
 30
0.0
 10
10.2225183499
 20
43.7849081942
 30
0.0
 10
10.372288094
 20
43.8713772801
 30
0.0
  0
ENDSEC
  0
SECTION
  2
OBJECTS
  0
DICTIONARY
  5
C
100
AcDbDictionary
280
0
281
1
  3
ACAD_GROUP
350
D
  3
ACAD_MLINESTYLE
350
17
  3
ACAD_LAYOUT
350
1A
  3
ACAD_PLOTSETTINGS
350
19
  3
ACAD_PLOTSTYLENAME
350
E
  0
DICTIONARY
  5
D
102
{ACAD_REACTORS
330
C
102
}
100
AcDbDictionary
280
0
281
1
  0
ACDBDICTIONARYWDFLT
  5
E
102
{ACAD_REACTORS
330
C
102
}
100
AcDbDictionary
281
1
  3
Normal
350
F
100
AcDbDictionaryWithDefault
340
F
  0
DICTIONARY
  5
17
102
{ACAD_REACTORS
330
C
102
}
100
AcDbDictionary
280
0
281
1
  3
Standard
350
18
  0
DICTIONARY
  5
19
102
{ACAD_REACTORS
330
C
102
}
100
AcDbDictionary
281
1
  0
DICTIONARY
  5
1A
102
{ACAD_REACTORS
330
C
102
}
100
AcDbDictionary
281
1
  3
Model
350
25E
  3
Layout1
350
25F
  0
ACDBPLACEHOLDER
  5
F
102
{ACAD_REACTORS
330
E
102
}
  0
MLINESTYLE
  5
18
102
{ACAD_REACTORS
330
17
102
}
100
AcDbMlineStyle
  2
STANDARD
 70
0
  3

 62
256
 51
90.0
 52
90.0
 71
2
 49
0.5
 62
256
  6
BYLAYER
 49
-0.5
 62
256
  6
BYLAYER
  0
LAYOUT
  5
25E
102
{ACAD_REACTORS
330
1A
102
}
100
AcDbPlotSettings
  1

  2
none_device
  4

  6

 40
0.0
 41
0.0
 42
0.0
 43
0.0
 44
210.0
 45
297.0
 46
0.0
 47
0.0
 48
0.0
 49
0.0
140
0.0
141
0.0
142
1.0
143
1.0
 70
1024
 72
1
 73
0
 74
0
  7

 75
0
147
1.0
148
0.0
149
0.0
100
AcDbLayout
  1
Model
 70
0
 71
0
 10
0.0
 20
0.0
 11
210.0
 21
297.0
 12
0.0
 22
0.0
 32
0.0
 14
0.0
 24
0.0
 34
0.0
 15
0.0
 25
0.0
 35
0.0
146
0.0
 13
0.0
 23
0.0
 33
0.0
 16
1.0
 26
0.0
 36
0.0
 17
0.0
 27
1.0
 37
0.0
 76
0
330
210
345
0
346
0
  0
LAYOUT
  5
25F
102
{ACAD_REACTORS
330
1A
102
}
100
AcDbPlotSettings
  1

  2
none_device
  4

  6

 40
0.0
 41
0.0
 42
0.0
 43
0.0
 44
210.0
 45
297.0
 46
0.0
 47
0.0
 48
0.0
 49
0.0
140
0.0
141
0.0
142
1.0
143
1.0
 70
0
 72
1
 73
0
 74
0
  7

 75
0
147
1.0
148
0.0
149
0.0
100
AcDbLayout
  1
Layout1
 70
0
 71
1
 10
0.0
 20
0.0
 11
210.0
 21
297.0
 12
0.0
 22
0.0
 32
0.0
 14
0.0
 24
0.0
 34
0.0
 15
0.0
 25
0.0
 35
0.0
146
0.0
 13
0.0
 23
0.0
 33
0.0
 16
1.0
 26
0.0
 36
0.0
 17
0.0
 27
1.0
 37
0.0
 76
0
330
211
345
0
346
0
  0
ENDSEC
  0
EOF
