999
DXF file: C:\Users\sesa63760\Dev\_Creo\CAD\MCADID0004517_3D-CAD\drw0001_1.dxf
999
Pro/ENGINEER 2019471 by Parametric Technology Corporation
  0
SECTION
  2
HEADER
  9
$ACADVER
  1
AC1024
  9
$DWGCODEPAGE
  3
ANSI_1252
  9
$EXTMAX
 10
46.4302274288
 20
65.6656073636
 30
0.0
  9
$EXTMIN
 10
-0.0
 20
0.0
 30
0.0
  9
$LIMMIN
 10
-0.0
 20
0.0
  9
$LIMMAX
 10
46.4302274288
 20
65.6656073636
  9
$VIEWCTR
 10
23.2151137144
 20
32.8328036818
  9
$VIEWSIZE
 40
65.6656073636
  9
$CLAYER
  8
0
  9
$LTSCALE
 40
4.2804247763
  9
$CELTYPE
  6
BYLAYER
  9
$DIMSCALE
 40
1.0
  9
$DIMASZ
 40
0.5527408027
  9
$DIMEXO
 40
1.0
  9
$DIMDLI
 40
2.9573843909
  9
$DIMEXE
 40
1.0
  9
$DIMCEN
 40
0.7004331452
  9
$DIMLFAC
 40
1.0
  9
$DIMBLK
  1
_FILLED
  9
$DIMALT
 70
0
  9
$DIMALTF
 40
0.0393700787
  9
$DIMTXT
 40
0.7738371238
  9
$DIMTOL
 70
1
  9
$DIMLIM
 70
0
  9
$DIMTFAC
 40
1.0
  9
$DIMTP
 40
0.01
  9
$DIMTM
 40
0.01
  9
$DIMGAP
 40
0.625
  9
$DIMDSEP
 70
46
  9
$AUNITS
 70
0
  9
$PDMODE
 70
3
  9
$PDSIZE
 40
0.3125
  9
$HANDSEED
  5
26B
  9
$TILEMODE
 70
1
  9
$MEASUREMENT
 70
1
  9
$INSUNITS
 70
4
  0
ENDSEC
  0
SECTION
  2
CLASSES
  0
CLASS
  1
ACDBDICTIONARYWDFLT
  2
AcDbDictionaryWithDefault
  3
AutoCAD 2000
 90
0
 91
1
280
0
281
0
  0
CLASS
  1
ACDBPLACEHOLDER
  2
AcDbPlaceHolder
  3
AutoCAD 2000
 90
0
 91
1
280
0
281
0
  0
CLASS
  1
LAYOUT
  2
AcDbLayout
  3
AutoCAD 2000
 90
0
 91
0
280
0
281
0
  0
ENDSEC
  0
SECTION
  2
TABLES
  0
TABLE
  2
VPORT
  5
8
100
AcDbSymbolTable
 70
2
  0
VPORT
  5
1F4
100
AcDbSymbolTableRecord
100
AcDbViewportTableRecord
  2
*ACTIVE
 70
0
 10
0.0
 20
0.0
 11
1.0
 21
1.0
 12
23.2151137144
 22
32.8328036818
 13
0.0
 23
0.0
 14
1.0
 24
1.0
 15
0.0
 25
0.0
 16
0.0
 26
0.0
 36
1.0
 17
0.0
 27
0.0
 37
0.0
 40
65.6656073636
 41
0.7070707071
 42
50.0
 43
0.0
 44
0.0
 50
0.0
 51
0.0
 71
0
 72
100
 73
1
 74
1
 75
0
 76
0
 77
0
 78
0
  0
ENDTAB
  0
TABLE
  2
LTYPE
  5
5
100
AcDbSymbolTable
 70
6
  0
LTYPE
  5
14
100
AcDbSymbolTableRecord
100
AcDbLinetypeTableRecord
  2
BYBLOCK
 70
0
  3

 72
65
 73
0
 40
0.0
  0
LTYPE
  5
15
100
AcDbSymbolTableRecord
100
AcDbLinetypeTableRecord
  2
BYLAYER
 70
0
  3

 72
65
 73
0
 40
0.0
  0
LTYPE
  5
16
100
AcDbSymbolTableRecord
100
AcDbLinetypeTableRecord
  2
CONTINUOUS
 70
64
  3
Solid line
 72
65
 73
0
 40
0.0
  0
LTYPE
  5
1F5
100
AcDbSymbolTableRecord
100
AcDbLinetypeTableRecord
  2
CENTER
 70
64
  3
____ _ ____ _ ____ _ ____ _ ____ _ ____ _ ____
 72
65
 73
4
 40
0.6
 49
0.375
 74
0
 49
-0.075
 74
0
 49
0.075
 74
0
 49
-0.075
 74
0
  0
LTYPE
  5
1F6
100
AcDbSymbolTableRecord
100
AcDbLinetypeTableRecord
  2
HIDDEN
 70
64
  3
- - - - - - - - - - - - - - - - - - - -
 72
65
 73
2
 40
0.2
 49
0.1
 74
0
 49
-0.1
 74
0
  0
LTYPE
  5
1F7
100
AcDbSymbolTableRecord
100
AcDbLinetypeTableRecord
  2
PHANTOM
 70
64
  3
_____ _ _ _____ _ _ _____ _ _ _____
 72
65
 73
6
 40
0.8
 49
0.45
 74
0
 49
-0.05
 74
0
 49
0.1
 74
0
 49
-0.05
 74
0
 49
0.1
 74
0
 49
-0.05
 74
0
  0
LTYPE
  5
1F8
100
AcDbSymbolTableRecord
100
AcDbLinetypeTableRecord
  2
DOT
 70
64
  3
. . . . . . . . . . . . . . . . . . . .
 72
65
 73
2
 40
0.2
 49
0.1
 74
0
 49
-0.1
 74
0
  0
LTYPE
  5
1F9
100
AcDbSymbolTableRecord
100
AcDbLinetypeTableRecord
  2
DASHED
 70
64
  3
- - - - - - - - - - - - - - - - - - - -
 72
65
 73
2
 40
0.2
 49
0.1
 74
0
 49
-0.1
 74
0
  0
ENDTAB
  0
TABLE
  2
LAYER
  5
2
100
AcDbSymbolTable
 70
36
  0
LAYER
  5
10
100
AcDbSymbolTableRecord
100
AcDbLayerTableRecord
  2
0
 70
0
 62
7
  6
CONTINUOUS
370
-3
390
F
  0
LAYER
  5
1FA
100
AcDbSymbolTableRecord
100
AcDbLayerTableRecord
  2
DEFAULT_1
 70
0
 62
7
  6
CENTER
370
-3
390
F
  0
LAYER
  5
1FB
100
AcDbSymbolTableRecord
100
AcDbLayerTableRecord
  2
DEFAULT_2
 70
0
 62
7
  6
HIDDEN
370
-3
390
F
  0
LAYER
  5
1FC
100
AcDbSymbolTableRecord
100
AcDbLayerTableRecord
  2
DEFAULT_3
 70
0
 62
7
  6
PHANTOM
370
-3
390
F
  0
LAYER
  5
1FD
100
AcDbSymbolTableRecord
100
AcDbLayerTableRecord
  2
00_COMPONENTS
 70
0
 62
7
  6
CONTINUOUS
370
-3
390
F
  0
LAYER
  5
1FE
100
AcDbSymbolTableRecord
100
AcDbLayerTableRecord
  2
01_1_DEFAULT_DATUMS
 70
0
 62
7
  6
CONTINUOUS
370
-3
390
F
  0
LAYER
  5
1FF
100
AcDbSymbolTableRecord
100
AcDbLayerTableRecord
  2
01_PLANES
 70
0
 62
7
  6
CONTINUOUS
370
-3
390
F
  0
LAYER
  5
200
100
AcDbSymbolTableRecord
100
AcDbLayerTableRecord
  2
02_COORD_SYS
 70
0
 62
7
  6
CONTINUOUS
370
-3
390
F
  0
LAYER
  5
201
100
AcDbSymbolTableRecord
100
AcDbLayerTableRecord
  2
03_AXES
 70
0
 62
7
  6
CONTINUOUS
370
-3
390
F
  0
LAYER
  5
202
100
AcDbSymbolTableRecord
100
AcDbLayerTableRecord
  2
04_POINTS
 70
0
 62
7
  6
CONTINUOUS
370
-3
390
F
  0
LAYER
  5
203
100
AcDbSymbolTableRecord
100
AcDbLayerTableRecord
  2
05_CURVES
 70
0
 62
7
  6
CONTINUOUS
370
-3
390
F
  0
LAYER
  5
204
100
AcDbSymbolTableRecord
100
AcDbLayerTableRecord
  2
06_SURFS
 70
0
 62
7
  6
CONTINUOUS
370
-3
390
F
  0
LAYER
  5
205
100
AcDbSymbolTableRecord
100
AcDbLayerTableRecord
  2
07_COSMETICS
 70
0
 62
7
  6
CONTINUOUS
370
-3
390
F
  0
LAYER
  5
206
100
AcDbSymbolTableRecord
100
AcDbLayerTableRecord
  2
10_NOTES
 70
0
 62
7
  6
CONTINUOUS
370
-3
390
F
  0
LAYER
  5
207
100
AcDbSymbolTableRecord
100
AcDbLayerTableRecord
  2
11_NOTES_PUB
 70
0
 62
7
  6
CONTINUOUS
370
-3
390
F
  0
LAYER
  5
208
100
AcDbSymbolTableRecord
100
AcDbLayerTableRecord
  2
13_REF_GTOL
 70
0
 62
7
  6
CONTINUOUS
370
-3
390
F
  0
LAYER
  5
209
100
AcDbSymbolTableRecord
100
AcDbLayerTableRecord
  2
16_MISC
 70
0
 62
7
  6
CONTINUOUS
370
-3
390
F
  0
LAYER
  5
20A
100
AcDbSymbolTableRecord
100
AcDbLayerTableRecord
  2
17_NO_PRINT
 70
0
 62
7
  6
CONTINUOUS
370
-3
390
F
  0
LAYER
  5
20B
100
AcDbSymbolTableRecord
100
AcDbLayerTableRecord
  2
18_DATUM_CAMS_JOINTS
 70
0
 62
7
  6
CONTINUOUS
370
-3
390
F
  0
LAYER
  5
20C
100
AcDbSymbolTableRecord
100
AcDbLayerTableRecord
  2
19_DATUM_FUNCTIONAL
 70
0
 62
7
  6
CONTINUOUS
370
-3
390
F
  0
LAYER
  5
20D
100
AcDbSymbolTableRecord
100
AcDbLayerTableRecord
  2
20_DATUM_KINEMATIC_SCHEME
 70
0
 62
7
  6
CONTINUOUS
370
-3
390
F
  0
ENDTAB
  0
TABLE
  2
STYLE
  5
3
100
AcDbSymbolTable
 70
1
  0
STYLE
  5
11
100
AcDbSymbolTableRecord
100
AcDbTextStyleTableRecord
  2
STANDARD
 70
0
 40
0.0
 41
1.0
 50
0.0
 71
0
 42
0.2
  3
ARIAL.TTF
  4

  0
STYLE
  5
20E
100
AcDbSymbolTableRecord
100
AcDbTextStyleTableRecord
  2
TEXTSTYLE_1
 70
0
 40
0.0
 41
0.8
 50
0.0
 71
0
 42
0.2
  3
gdt
  4

  0
ENDTAB
  0
TABLE
  2
VIEW
  5
6
100
AcDbSymbolTable
 70
0
  0
ENDTAB
  0
TABLE
  2
UCS
  5
7
100
AcDbSymbolTable
 70
0
  0
ENDTAB
  0
TABLE
  2
APPID
  5
9
100
AcDbSymbolTable
 70
1
  0
APPID
  5
20F
100
AcDbSymbolTableRecord
100
AcDbRegAppTableRecord
  2
ACAD
 70
0
  0
ENDTAB
  0
TABLE
  2
BLOCK_RECORD
  5
1
100
AcDbSymbolTable
 70
0
  0
BLOCK_RECORD
  5
210
100
AcDbSymbolTableRecord
100
AcDbBlockTableRecord
  2
*Model_Space
  0
BLOCK_RECORD
  5
211
100
AcDbSymbolTableRecord
100
AcDbBlockTableRecord
  2
*Paper_Space
  0
BLOCK_RECORD
  5
212
100
AcDbSymbolTableRecord
100
AcDbBlockTableRecord
  2
_FILLED
  0
ENDTAB
  0
TABLE
  2
DIMSTYLE
  5
A
100
AcDbSymbolTable
 70
1
100
AcDbDimStyleTable
 71
0
  0
DIMSTYLE
105
213
100
AcDbSymbolTableRecord
100
AcDbDimStyleTableRecord
  2
STANDARD
 70
0
  3

  4

 40
1.0
 41
0.5527408027
 42
1.0
 43
0.38
 44
1.0
 45
0.0
 46
0.0
 47
0.01
 48
0.01
140
0.7738371238
141
0.09
142
0.0
143
25.4
144
1.0
145
0.0
146
1.0
147
0.625
 71
1
 72
0
 73
0
 74
0
 75
0
 76
0
 77
1
 78
8
 79
2
170
0
171
1
172
0
173
0
174
0
175
0
176
0
177
0
178
0
270
2
179
2
271
2
272
2
273
2
274
2
275
0
280
0
281
0
282
0
283
1
284
8
285
0
286
0
287
3
288
0
340
11
278
46
341
212
342
212
343
212
344
212
  0
ENDTAB
  0
ENDSEC
  0
SECTION
  2
BLOCKS
  0
BLOCK
  5
20
100
AcDbEntity
  8
0
100
AcDbBlockBegin
  2
*Model_Space
 70
0
 10
0.0
 20
0.0
 30
0.0
  3
*Model_Space
  1

  0
ENDBLK
  5
21
100
AcDbEntity
  8
0
100
AcDbBlockEnd
  0
BLOCK
  5
1C
100
AcDbEntity
  8
0
100
AcDbBlockBegin
  2
*Paper_Space
 70
0
 10
0.0
 20
0.0
 30
0.0
  3
*Paper_Space
  1

  0
ENDBLK
  5
1D
100
AcDbEntity
  8
0
100
AcDbBlockEnd
  0
BLOCK
  5
214
100
AcDbEntity
  8
0
100
AcDbBlockBegin
  2
_FILLED
 70
64
 10
0.0
 20
0.0
  3
_FILLED
  1

  0
SOLID
  5
215
100
AcDbEntity
  8
0
  6
BYBLOCK
 62
0
100
AcDbTrace
 10
0.0
 20
0.0
 11
-1.0
 21
0.25
 12
-1.0
 22
-0.25
 13
-1.0
 23
-0.25
  0
ENDBLK
  5
216
100
AcDbEntity
  8
0
  6
BYBLOCK
 62
0
100
AcDbBlockEnd
  0
ENDSEC
  0
SECTION
  2
ENTITIES
  0
LWPOLYLINE
  5
217
100
AcDbEntity
  8
0
100
AcDbPolyline
 62
7
  6
BYLAYER
 90
3
 70
0
 10
11.210734865
 20
52.0656826667
 10
9.42443603
 20
50.6486125305
 10
8.1075978028
 20
48.4749532545
  0
LINE
  5
218
100
AcDbEntity
  8
0
100
AcDbLine
 62
7
  6
BYLAYER
 10
11.210666569
 20
52.0658009908
 11
14.0390819179
 21
53.6987776063
  0
LINE
  5
219
100
AcDbEntity
  8
0
100
AcDbLine
 62
7
  6
BYLAYER
 10
9.9429047376
 20
50.17916391
 11
11.7106643306
 21
51.1997742947
  0
LINE
  5
21A
100
AcDbEntity
  8
0
100
AcDbLine
 62
7
  6
BYLAYER
 10
13.158525569
 20
51.1731361608
 11
13.2292359527
 21
51.2139605762
  0
LINE
  5
21B
100
AcDbEntity
  8
0
100
AcDbLine
 62
7
  6
BYLAYER
 10
13.2414834524
 20
51.2150546631
 11
13.1707730687
 21
51.1742302477
  0
LINE
  5
21C
100
AcDbEntity
  8
0
100
AcDbLine
 62
7
  6
BYLAYER
 10
28.7970087654
 20
11.0865837066
 11
28.8094182141
 21
11.087809661
  0
LINE
  5
21D
100
AcDbEntity
  8
0
100
AcDbLine
 62
7
  6
BYLAYER
 10
5.392394819
 20
40.1647705313
 11
5.3864431457
 21
40.1160372906
  0
LINE
  5
21E
100
AcDbEntity
  8
0
100
AcDbLine
 62
7
  6
BYLAYER
 10
13.158525569
 20
51.1731361608
 11
9.9429047376
 21
50.17916391
  0
LINE
  5
21F
100
AcDbEntity
  8
0
100
AcDbLine
 62
7
  6
BYLAYER
 10
5.3865295171
 20
40.1681795776
 11
5.3864431457
 21
40.1160372906
  0
LINE
  5
220
100
AcDbEntity
  8
0
100
AcDbLine
 62
7
  6
BYLAYER
 10
5.3864431457
 20
40.0997072423
 11
5.393514243
 21
40.1037897178
  0
LINE
  5
221
100
AcDbEntity
  8
0
100
AcDbLine
 62
7
  6
BYLAYER
 10
13.1707730687
 20
20.0531476763
 11
13.1838507951
 21
20.0393493249
  0
LINE
  5
222
100
AcDbEntity
  8
0
100
AcDbLine
 62
7
  6
BYLAYER
 10
13.1707730687
 20
20.0531476763
 11
13.1829329204
 21
20.0380377177
  0
LINE
  5
223
100
AcDbEntity
  8
0
100
AcDbLine
 62
7
  6
BYLAYER
 10
28.7149379151
 20
42.2000055133
 11
28.7856482988
 21
42.2408299287
  0
LINE
  5
224
100
AcDbEntity
  8
0
100
AcDbLine
 62
7
  6
BYLAYER
 10
28.7978957986
 20
42.2255939673
 11
28.7271854148
 21
42.1847695519
  0
LINE
  5
225
100
AcDbEntity
  8
0
100
AcDbLine
 62
7
  6
BYLAYER
 10
28.7271854148
 20
11.0800170288
 11
28.7228814218
 21
11.0881902354
  0
LINE
  5
226
100
AcDbEntity
  8
0
100
AcDbLine
 62
7
  6
BYLAYER
 10
36.4929665483
 20
22.139877308
 11
36.4992678381
 21
22.137115899
  0
LINE
  5
227
100
AcDbEntity
  8
0
100
AcDbLine
 62
7
  6
BYLAYER
 10
36.4930749043
 20
22.1399597211
 11
36.4992678381
 21
22.137115899
  0
LINE
  5
228
100
AcDbEntity
  8
0
100
AcDbLine
 62
7
  6
BYLAYER
 10
19.9036185606
 20
30.5102464059
 11
19.8944481083
 21
30.5153049546
  0
LINE
  5
229
100
AcDbEntity
  8
0
100
AcDbLine
 62
7
  6
BYLAYER
 10
19.9034156144
 20
30.5101291922
 11
19.8944481083
 21
30.5153049546
  0
LINE
  5
22A
100
AcDbEntity
  8
0
100
AcDbLine
 62
7
  6
BYLAYER
 10
19.8625572544
 20
30.5173878721
 11
19.8699531089
 21
30.5131167809
  0
LINE
  5
22B
100
AcDbEntity
  8
0
100
AcDbLine
 62
7
  6
BYLAYER
 10
19.8627247903
 20
30.5174845653
 11
19.8699531089
 21
30.5131167809
  0
LINE
  5
22C
100
AcDbEntity
  8
0
100
AcDbLine
 62
7
  6
BYLAYER
 10
5.3864431457
 20
40.0997072423
 11
5.4133462175
 21
40.0801793763
  0
LINE
  5
22D
100
AcDbEntity
  8
0
100
AcDbLine
 62
7
  6
BYLAYER
 10
5.4211093592
 20
40.0908744701
 11
5.3864431457
 21
40.1160372906
  0
LINE
  5
22E
100
AcDbEntity
  8
0
100
AcDbLine
 62
7
  6
BYLAYER
 10
5.3864431457
 20
40.0997072423
 11
5.4125704649
 21
40.079839242
  0
LINE
  5
22F
100
AcDbEntity
  8
0
100
AcDbLine
 62
7
  6
BYLAYER
 10
5.4201115199
 20
40.0904368903
 11
5.3864431457
 21
40.1160372906
  0
LINE
  5
230
100
AcDbEntity
  8
0
100
AcDbLine
 62
7
  6
BYLAYER
 10
28.7271854148
 20
11.0800170288
 11
28.7230239781
 21
11.0883055958
  0
LINE
  5
231
100
AcDbEntity
  8
0
100
AcDbLine
 62
7
  6
BYLAYER
 10
13.1928857949
 20
20.1281821438
 11
13.158525569
 21
20.0683836377
  0
LINE
  5
232
100
AcDbEntity
  8
0
100
AcDbLine
 62
7
  6
BYLAYER
 10
13.1707730687
 20
20.0531476763
 11
13.208408793
 21
20.1186418029
  0
LINE
  5
233
100
AcDbEntity
  8
0
100
AcDbLine
 62
7
  6
BYLAYER
 10
13.1951339012
 20
20.129601206
 11
13.158525569
 21
20.0683836377
  0
LINE
  5
234
100
AcDbEntity
  8
0
100
AcDbLine
 62
7
  6
BYLAYER
 10
13.1707730687
 20
20.0531476763
 11
13.2108664649
 21
20.1201930748
  0
LINE
  5
235
100
AcDbEntity
  8
0
100
AcDbLine
 62
7
  6
BYLAYER
 10
19.8699531089
 20
30.5131167809
 11
19.866755114
 21
30.5084380209
  0
LINE
  5
236
100
AcDbEntity
  8
0
100
AcDbLine
 62
7
  6
BYLAYER
 10
19.8699531089
 20
30.5131167809
 11
19.8666033245
 21
30.508350375
  0
LINE
  5
237
100
AcDbEntity
  8
0
100
AcDbLine
 62
7
  6
BYLAYER
 10
19.8892736706
 20
30.5406015252
 11
19.8822006086
 21
30.5305409161
  0
LINE
  5
238
100
AcDbEntity
  8
0
100
AcDbLine
 62
7
  6
BYLAYER
 10
36.5629071834
 20
22.1820226879
 11
36.5699782218
 21
22.1779403144
  0
LINE
  5
239
100
AcDbEntity
  8
0
100
AcDbLine
 62
7
  6
BYLAYER
 10
28.7856482988
 20
42.2408299287
 11
28.7592595167
 21
42.2032874327
  0
LINE
  5
23A
100
AcDbEntity
  8
0
100
AcDbLine
 62
7
  6
BYLAYER
 10
19.8944481083
 20
30.5153049546
 11
19.927934758
 21
30.5629227877
  0
LINE
  5
23B
100
AcDbEntity
  8
0
100
AcDbLine
 62
7
  6
BYLAYER
 10
19.8895934585
 20
30.5407861226
 11
19.8822006086
 21
30.5305409161
  0
LINE
  5
23C
100
AcDbEntity
  8
0
100
AcDbLine
 62
7
  6
BYLAYER
 10
19.8944481083
 20
30.5153049546
 11
19.9294322754
 21
30.563786937
  0
LINE
  5
23D
100
AcDbEntity
  8
0
100
AcDbLine
 62
7
  6
BYLAYER
 10
19.8796125132
 20
30.5350236556
 11
19.8699531089
 21
30.5294468292
  0
LINE
  5
23E
100
AcDbEntity
  8
0
100
AcDbLine
 62
7
  6
BYLAYER
 10
19.9220394255
 20
30.5535417305
 11
19.8822006086
 21
30.5305409161
  0
LINE
  5
23F
100
AcDbEntity
  8
0
100
AcDbLine
 62
7
  6
BYLAYER
 10
19.9092338081
 20
30.5357953677
 11
19.8699531089
 21
30.5131167809
  0
LINE
  5
240
100
AcDbEntity
  8
0
100
AcDbLine
 62
7
  6
BYLAYER
 10
19.8963428031
 20
30.5060457705
 11
19.8822006086
 21
30.4978808194
  0
LINE
  5
241
100
AcDbEntity
  8
0
100
AcDbLine
 62
7
  6
BYLAYER
 10
19.8944481083
 20
30.4989749063
 11
19.9015192055
 21
30.5030573818
  0
LINE
  5
242
100
AcDbEntity
  8
0
100
AcDbLine
 62
7
  6
BYLAYER
 10
13.1911469383
 20
20.0872174817
 11
13.158525569
 21
20.0683836377
  0
LINE
  5
243
100
AcDbEntity
  8
0
100
AcDbLine
 62
7
  6
BYLAYER
 10
28.7978957986
 20
42.2255939673
 11
28.7856482988
 21
42.2408299287
  0
LINE
  5
244
100
AcDbEntity
  8
0
100
AcDbLine
 62
7
  6
BYLAYER
 10
36.5699782218
 20
22.1942703627
 11
36.5699782218
 21
22.1779403144
  0
LINE
  5
245
100
AcDbEntity
  8
0
100
AcDbLine
 62
7
  6
BYLAYER
 10
36.4992678381
 20
22.1534459474
 11
36.5699782218
 21
22.1942703627
  0
LINE
  5
246
100
AcDbEntity
  8
0
100
AcDbLine
 62
7
  6
BYLAYER
 10
36.5699782218
 20
22.1779403144
 11
36.4992678381
 21
22.137115899
  0
LINE
  5
247
100
AcDbEntity
  8
0
100
AcDbLine
 62
7
  6
BYLAYER
 10
13.2414834524
 20
51.2150546631
 11
13.2292359527
 21
51.2139605762
  0
LINE
  5
248
100
AcDbEntity
  8
0
100
AcDbLine
 62
7
  6
BYLAYER
 10
28.7245973194
 20
11.0844997683
 11
28.7149379151
 21
11.0789229419
  0
LINE
  5
249
100
AcDbEntity
  8
0
100
AcDbLine
 62
7
  6
BYLAYER
 10
31.9428062462
 20
12.0739892796
 11
33.7105658393
 21
13.0945996643
  0
LINE
  5
24A
100
AcDbEntity
  8
0
100
AcDbLine
 62
7
  6
BYLAYER
 10
28.7917593653
 20
11.0999773159
 11
28.8032474033
 21
11.1035283536
  0
LINE
  5
24B
100
AcDbEntity
  8
0
100
AcDbLine
 62
7
  6
BYLAYER
 10
34.2105636008
 20
12.2285729682
 11
37.0389789497
 21
13.8615495837
  0
ARC
  5
24C
100
AcDbEntity
  8
0
100
AcDbCircle
 62
7
  6
BYLAYER
 10
27.9383718235
 20
19.8419543337
 40
8.7973730293
100
AcDbArc
 50
275.1443163748
 51
275.6010717311
  0
SPLINE
  5
24D
100
AcDbEntity
  8
0
100
AcDbSpline
 62
7
  6
BYLAYER
 70
0
 71
3
 72
14
 73
10
 74
0
 42
0.0000001
 43
0.0000001
 44
0.0000000001
 40
0.0
 40
0.0
 40
0.0
 40
0.0
 40
0.263512806
 40
0.3909020408
 40
0.5158235827
 40
0.6387096276
 40
0.7600287822
 40
0.8802832095
 40
1.0
 40
1.0
 40
1.0
 40
1.0
 10
29.1212690641
 20
11.1869943453
 30
0.0
 10
29.583000579
 20
11.149084553
 30
0.0
 10
30.2729456704
 20
11.1360436769
 30
0.0
 10
31.1768404308
 20
11.2166254276
 30
0.0
 10
31.8283778596
 20
11.3238699753
 30
0.0
 10
32.459369833
 20
11.4782924308
 30
0.0
 10
33.068425335
 20
11.6795967524
 30
0.0
 10
33.654013804
 20
11.9273950443
 30
0.0
 10
34.0282738521
 20
12.1233569257
 30
0.0
 10
34.2105548391
 20
12.2285881726
 30
0.0
  0
SPLINE
  5
24E
100
AcDbEntity
  8
0
100
AcDbSpline
 62
7
  6
BYLAYER
 70
0
 71
3
 72
18
 73
14
 74
0
 42
0.0000001
 43
0.0000001
 44
0.0000000001
 40
0.0
 40
0.0
 40
0.0
 40
0.0
 40
0.0539598818
 40
0.1081779313
 40
0.1629027747
 40
0.2183729322
 40
0.2748100807
 40
0.3324173797
 40
0.4517642926
 40
0.5776351036
 40
0.7107614633
 40
0.8515499403
 40
1.0
 40
1.0
 40
1.0
 40
1.0
 10
9.9429046329
 20
50.1791640912
 30
0.0
 10
9.7636004864
 20
50.0756383553
 30
0.0
 10
9.4127706628
 20
49.8527097908
 30
0.0
 10
8.9147712521
 20
49.4738072977
 30
0.0
 10
8.4456588657
 20
49.0509272031
 30
0.0
 10
8.0066790529
 20
48.5851415532
 30
0.0
 10
7.5987683297
 20
48.0776609363
 30
0.0
 10
7.0918426513
 20
47.338543602
 30
0.0
 10
6.5419923085
 20
46.3102542417
 30
0.0
 10
6.0296828733
 20
44.9481294309
 30
0.0
 10
5.6604100324
 20
43.4559710722
 30
0.0
 10
5.4372953051
 20
41.8482229726
 30
0.0
 10
5.3881934532
 20
40.7377820831
 30
0.0
 10
5.3865295171
 20
40.1681795776
 30
0.0
  0
SPLINE
  5
24F
100
AcDbEntity
  8
0
100
AcDbSpline
 62
7
  6
BYLAYER
 70
0
 71
3
 72
9
 73
5
 74
0
 42
0.0000001
 43
0.0000001
 44
0.0000000001
 40
0.0
 40
0.0
 40
0.0
 40
0.0
 40
0.4982263433
 40
1.0
 40
1.0
 40
1.0
 40
1.0
 10
19.8822006086
 20
30.5305409161
 30
0.0
 10
18.5779703284
 20
33.8928694636
 30
0.0
 10
16.1499513189
 20
40.7165120731
 30
0.0
 10
14.1024650993
 20
47.6636625706
 30
0.0
 10
13.1707730687
 20
51.1742302477
 30
0.0
  0
SPLINE
  5
250
100
AcDbEntity
  8
0
100
AcDbSpline
 62
7
  6
BYLAYER
 70
0
 71
3
 72
18
 73
14
 74
0
 42
0.0000001
 43
0.0000001
 44
0.0000000001
 40
0.0
 40
0.0
 40
0.0
 40
0.0
 40
0.0539111289
 40
0.108080445
 40
0.1627607091
 40
0.2181918079
 40
0.2745970279
 40
0.3321807616
 40
0.4515067988
 40
0.5773936749
 40
0.7105725916
 40
0.8514514876
 40
1.0
 40
1.0
 40
1.0
 40
1.0
 10
14.0390909722
 20
53.6987619015
 30
0.0
 10
14.2273570684
 20
53.8074484612
 30
0.0
 10
14.6142713108
 20
54.0093691533
 30
0.0
 10
15.2203951182
 20
54.2629770125
 30
0.0
 10
15.8514521867
 20
54.4669352624
 30
0.0
 10
16.5057551758
 20
54.6208461283
 30
0.0
 10
17.1817371085
 20
54.7243622185
 30
0.0
 10
18.1206008617
 20
54.7956575203
 30
0.0
 10
19.3451922227
 20
54.7532002209
 30
0.0
 10
20.8536624421
 20
54.5000638813
 30
0.0
 10
22.4051601798
 20
54.0478183217
 30
0.0
 10
23.9847280483
 20
53.4013133449
 30
0.0
 10
25.0202834998
 20
52.8592110955
 30
0.0
 10
25.5390304338
 20
52.559719189
 30
0.0
  0
SPLINE
  5
251
100
AcDbEntity
  8
0
100
AcDbSpline
 62
7
  6
BYLAYER
 70
0
 71
3
 72
11
 73
7
 74
0
 42
0.0000001
 43
0.0000001
 44
0.0000000001
 40
0.0
 40
0.0
 40
0.0
 40
0.0
 40
0.2327245989
 40
0.4770686194
 40
0.7328871034
 40
1.0
 40
1.0
 40
1.0
 40
1.0
 10
13.208408793
 20
20.1186418029
 30
0.0
 10
13.6858047972
 20
20.9487032554
 30
0.0
 10
14.6882133012
 20
22.6366746248
 30
0.0
 10
16.2913978417
 20
25.190993132
 30
0.0
 10
18.0292578934
 20
27.8268751756
 30
0.0
 10
19.2502417039
 20
29.5986984312
 30
0.0
 10
19.8822006086
 20
30.4978808194
 30
0.0
  0
SPLINE
  5
252
100
AcDbEntity
  8
0
100
AcDbSpline
 62
7
  6
BYLAYER
 70
0
 71
3
 72
15
 73
11
 74
0
 42
0.0000001
 43
0.0000001
 44
0.0000000001
 40
0.0
 40
0.0
 40
0.0
 40
0.0
 40
0.1413613365
 40
0.2779724708
 40
0.4096968227
 40
0.5365772518
 40
0.6587608138
 40
0.7764950228
 40
0.8901126657
 40
1.0
 40
1.0
 40
1.0
 40
1.0
 10
20.9428554919
 20
13.163523418
 30
0.0
 10
21.2762248272
 20
12.9710568967
 30
0.0
 10
21.9424928535
 20
12.6107582077
 30
0.0
 10
22.9546932128
 20
12.1399420157
 30
0.0
 10
23.9587015919
 20
11.7501232663
 30
0.0
 10
24.9500320077
 20
11.4429493762
 30
0.0
 10
25.9246585101
 20
11.2198379392
 30
0.0
 10
26.878587403
 20
11.0817357603
 30
0.0
 10
27.8075461129
 20
11.0295677562
 30
0.0
 10
28.4168733146
 20
11.0525049366
 30
0.0
 10
28.7149379151
 20
11.0789229419
 30
0.0
  0
SPLINE
  5
253
100
AcDbEntity
  8
0
100
AcDbSpline
 62
7
  6
BYLAYER
 70
0
 71
3
 72
13
 73
9
 74
0
 42
0.0000001
 43
0.0000001
 44
0.0000000001
 40
0.0
 40
0.0
 40
0.0
 40
0.0
 40
0.2656704617
 40
0.5224110621
 40
0.6466799568
 40
0.7678592205
 40
0.8857174292
 40
1.0
 40
1.0
 40
1.0
 40
1.0
 10
13.1829329204
 20
20.0380377177
 30
0.0
 10
13.7617992927
 20
19.3191348731
 30
0.0
 10
14.9555190337
 20
17.9490360147
 30
0.0
 10
16.5690662606
 20
16.3813756495
 30
0.0
 10
17.9009284216
 20
15.2535298042
 30
0.0
 10
18.9021220292
 20
14.4840766733
 30
0.0
 10
19.9120161383
 20
13.7854299375
 30
0.0
 10
20.5990078429
 20
13.3620394596
 30
0.0
 10
20.9428554919
 20
13.163523418
 30
0.0
  0
SPLINE
  5
254
100
AcDbEntity
  8
0
100
AcDbSpline
 62
7
  6
BYLAYER
 70
0
 71
3
 72
17
 73
13
 74
0
 42
0.0000001
 43
0.0000001
 44
0.0000000001
 40
0.0
 40
0.0
 40
0.0
 40
0.0
 40
0.054588915
 40
0.1108870105
 40
0.16877187
 40
0.2281353436
 40
0.35077837
 40
0.4776811879
 40
0.6075125299
 40
0.7388353518
 40
0.8701609239
 40
1.0
 40
1.0
 40
1.0
 40
1.0
 10
5.3864431457
 20
40.0997072423
 30
0.0
 10
5.3865995764
 20
39.7018797163
 30
0.0
 10
5.4101741334
 20
38.8936298434
 30
0.0
 10
5.5110888482
 20
37.6673106949
 30
0.0
 10
5.677886273
 20
36.4130734947
 30
0.0
 10
5.9903883067
 20
34.6924255078
 30
0.0
 10
6.5438981428
 20
32.5070638137
 30
0.0
 10
7.4440232967
 20
29.8898512131
 30
0.0
 10
8.5721292544
 20
27.2934711287
 30
0.0
 10
9.9091615557
 20
24.7618296896
 30
0.0
 10
11.4324154897
 20
22.3378109859
 30
0.0
 10
12.5658923851
 20
20.8060376397
 30
0.0
 10
13.158525569
 20
20.0683836377
 30
0.0
  0
SPLINE
  5
255
100
AcDbEntity
  8
0
100
AcDbSpline
 62
7
  6
BYLAYER
 70
0
 71
3
 72
9
 73
5
 74
0
 42
0.0000001
 43
0.0000001
 44
0.0000000001
 40
0.0
 40
0.0
 40
0.0
 40
0.0
 40
0.5090084862
 40
1.0
 40
1.0
 40
1.0
 40
1.0
 10
19.8699531089
 20
30.5294468292
 30
0.0
 10
17.3228745814
 20
32.000284656
 30
0.0
 10
12.4009000302
 20
35.0349344833
 30
0.0
 10
7.6788317979
 20
38.3735877323
 30
0.0
 10
5.4201115199
 20
40.0904368903
 30
0.0
  0
SPLINE
  5
256
100
AcDbEntity
  8
0
100
AcDbSpline
 62
7
  6
BYLAYER
 70
0
 71
3
 72
34
 73
30
 74
0
 42
0.0000001
 43
0.0000001
 44
0.0000000001
 40
0.0
 40
0.0
 40
0.0
 40
0.0
 40
0.0306609862
 40
0.0623934039
 40
0.0951105419
 40
0.1287341723
 40
0.1631750273
 40
0.1983265254
 40
0.2702815538
 40
0.343637295
 40
0.417347312
 40
0.4903502798
 40
0.561616072
 40
0.5963059194
 40
0.6302143844
 40
0.6632436452
 40
0.6953076913
 40
0.7263341987
 40
0.7562675307
 40
0.7850699078
 40
0.8127260756
 40
0.8392438489
 40
0.8646598575
 40
0.8890395952
 40
0.9124824915
 40
0.9351206454
 40
0.9571197297
 40
0.9786740466
 40
1.0
 40
1.0
 40
1.0
 40
1.0
 10
25.5390304338
 20
52.559719189
 30
0.0
 10
25.9452979983
 20
52.3251658075
 30
0.0
 10
26.7567159809
 20
51.8209100502
 30
0.0
 10
27.945718768
 20
50.9806467843
 30
0.0
 10
29.1216541236
 20
50.0473812237
 30
0.0
 10
30.2780831972
 20
49.0264211016
 30
0.0
 10
31.4088949033
 20
47.9231473773
 30
0.0
 10
32.8856863614
 20
46.3381595966
 30
0.0
 10
34.6261849422
 20
44.1895464761
 30
0.0
 10
36.5043835996
 20
41.4095966757
 30
0.0
 10
38.1487145867
 20
38.466659773
 30
0.0
 10
39.523895008
 20
35.423922323
 30
0.0
 10
40.429484085
 20
32.8355263772
 30
0.0
 10
40.9913672794
 20
30.7699496062
 30
0.0
 10
41.3255582224
 20
29.250688376
 30
0.0
 10
41.5745261313
 20
27.7558467004
 30
0.0
 10
41.7368969401
 20
26.2934205057
 30
0.0
 10
41.8117609058
 20
24.8712682142
 30
0.0
 10
41.7987313209
 20
23.4970135987
 30
0.0
 10
41.6977311117
 20
22.1780103206
 30
0.0
 10
41.5093435894
 20
20.9213052781
 30
0.0
 10
41.2342981216
 20
19.7336412172
 30
0.0
 10
40.874081004
 20
18.6213595037
 30
0.0
 10
40.4302207406
 20
17.5905400314
 30
0.0
 10
39.9050340895
 20
16.6467809532
 30
0.0
 10
39.3009505981
 20
15.7954978694
 30
0.0
 10
38.6211341613
 20
15.0415306532
 30
0.0
 10
37.8693091881
 20
14.3895999691
 30
0.0
 10
37.321549584
 20
14.0246993567
 30
0.0
 10
37.0389698954
 20
13.8615652884
 30
0.0
  0
SPLINE
  5
257
100
AcDbEntity
  8
0
100
AcDbSpline
 62
7
  6
BYLAYER
 70
0
 71
3
 72
11
 73
7
 74
0
 42
0.0000001
 43
0.0000001
 44
0.0000000001
 40
0.0
 40
0.0
 40
0.0
 40
0.0
 40
0.2363477407
 40
0.4819434344
 40
0.7365726412
 40
1.0
 40
1.0
 40
1.0
 40
1.0
 10
19.927934758
 20
30.5629227877
 30
0.0
 10
20.588816565
 20
31.5023675151
 30
0.0
 10
21.9548984777
 20
33.405085475
 30
0.0
 10
24.0930380108
 20
36.2762036986
 30
0.0
 10
26.3576495959
 20
39.2166048475
 30
0.0
 10
27.9238638157
 20
41.1879555022
 30
0.0
 10
28.7271854148
 20
42.1847695519
 30
0.0
  0
SPLINE
  5
258
100
AcDbEntity
  8
0
100
AcDbSpline
 62
7
  6
BYLAYER
 70
0
 71
3
 72
9
 73
5
 74
0
 42
0.0000001
 43
0.0000001
 44
0.0000000001
 40
0.0
 40
0.0
 40
0.0
 40
0.0
 40
0.5078805579
 40
1.0
 40
1.0
 40
1.0
 40
1.0
 10
36.4992678381
 20
22.1534459474
 30
0.0
 10
33.6170049276
 20
23.4164736117
 30
0.0
 10
28.0042975364
 20
26.0487080837
 30
0.0
 10
22.54435582
 20
28.9859808735
 30
0.0
 10
19.9034156144
 20
30.5101291922
 30
0.0
  0
SPLINE
  5
259
100
AcDbEntity
  8
0
100
AcDbSpline
 62
7
  6
BYLAYER
 70
0
 71
3
 72
9
 73
5
 74
0
 42
0.0000001
 43
0.0000001
 44
0.0000000001
 40
0.0
 40
0.0
 40
0.0
 40
0.0
 40
0.4974539421
 40
1.0
 40
1.0
 40
1.0
 40
1.0
 10
28.7228814218
 20
11.0881902354
 30
0.0
 10
27.0747498686
 20
14.2181572151
 30
0.0
 10
23.9458743316
 20
20.6087534076
 30
0.0
 10
21.1873924516
 20
27.1674868495
 30
0.0
 10
19.8944481083
 20
30.4989749063
 30
0.0
  0
SPLINE
  5
25A
100
AcDbEntity
  8
0
100
AcDbSpline
 62
7
  6
BYLAYER
 70
0
 71
3
 72
11
 73
7
 74
0
 42
0.0000001
 43
0.0000001
 44
0.0000000001
 40
0.0
 40
0.0
 40
0.0
 40
0.0
 40
0.2566071536
 40
0.5076888096
 40
0.754846963
 40
1.0
 40
1.0
 40
1.0
 40
1.0
 10
28.8094182141
 20
11.087809661
 30
0.0
 10
29.091014133
 20
11.1158314016
 30
0.0
 10
29.6458955699
 20
11.1983564655
 30
0.0
 10
30.4537647069
 20
11.4052729728
 30
0.0
 10
31.2230069358
 20
11.6932324854
 30
0.0
 10
31.7086744783
 20
11.9388072028
 30
0.0
 10
31.9428063509
 20
12.0739890984
 30
0.0
  0
SPLINE
  5
25B
100
AcDbEntity
  8
0
100
AcDbSpline
 62
7
  6
BYLAYER
 70
0
 71
3
 72
18
 73
14
 74
0
 42
0.0000001
 43
0.0000001
 44
0.0000000001
 40
0.0
 40
0.0
 40
0.0
 40
0.0
 40
0.0539111015
 40
0.1080803896
 40
0.1627606256
 40
0.2181916991
 40
0.2745969055
 40
0.3321806397
 40
0.4515067244
 40
0.5773936914
 40
0.7105726804
 40
0.8514515383
 40
1.0
 40
1.0
 40
1.0
 40
1.0
 10
11.7106729941
 20
51.1997592694
 30
0.0
 10
11.8907535141
 20
51.3037202765
 30
0.0
 10
12.2608451936
 20
51.4968617361
 30
0.0
 10
12.8406154949
 20
51.7394430413
 30
0.0
 10
13.4442349801
 20
51.9345334889
 30
0.0
 10
14.0700897186
 20
52.0817527045
 30
0.0
 10
14.7166809912
 20
52.1807680413
 30
0.0
 10
15.6147246961
 20
52.2489637292
 30
0.0
 10
16.7860734991
 20
52.2083524826
 30
0.0
 10
18.2289588839
 20
51.9662220514
 30
0.0
 10
19.7130006188
 20
51.5336390663
 30
0.0
 10
21.2238916042
 20
50.9152431343
 30
0.0
 10
22.2144225354
 20
50.3967105776
 30
0.0
 10
22.7106150849
 20
50.1102401563
 30
0.0
  0
SPLINE
  5
25C
100
AcDbEntity
  8
0
100
AcDbSpline
 62
7
  6
BYLAYER
 70
0
 71
3
 72
34
 73
30
 74
0
 42
0.0000001
 43
0.0000001
 44
0.0000000001
 40
0.0
 40
0.0
 40
0.0
 40
0.0
 40
0.0213259983
 40
0.0428803589
 40
0.0648794929
 40
0.0875177005
 40
0.1109606681
 40
0.1353404881
 40
0.160756593
 40
0.1872744601
 40
0.2149307157
 40
0.2437331465
 40
0.2736665002
 40
0.3046929751
 40
0.3367569523
 40
0.3697861049
 40
0.4036944461
 40
0.438384162
 40
0.5096497106
 40
0.5826524566
 40
0.6563622519
 40
0.7297178487
 40
0.8016729093
 40
0.836824485
 40
0.8712654287
 40
0.9048891499
 40
0.937606435
 40
0.9693389809
 40
1.0
 40
1.0
 40
1.0
 40
1.0
 10
34.2105548391
 20
12.2285881726
 30
0.0
 10
34.4931351846
 20
12.3917224776
 30
0.0
 10
35.0408951039
 20
12.7566250427
 30
0.0
 10
35.7927223906
 20
13.4085562653
 30
0.0
 10
36.4725389766
 20
14.1625264518
 30
0.0
 10
37.0766239774
 20
15.0138117159
 30
0.0
 10
37.6018105428
 20
15.9575745152
 30
0.0
 10
38.0456715576
 20
16.9883978255
 30
0.0
 10
38.4058878281
 20
18.1006842098
 30
0.0
 10
38.68093317
 20
19.2883526739
 30
0.0
 10
38.8693183906
 20
20.545061703
 30
0.0
 10
38.970317817
 20
21.8640675447
 30
0.0
 10
38.9833443099
 20
23.2383228489
 30
0.0
 10
38.9084796699
 20
24.6604738678
 30
0.0
 10
38.746106678
 20
26.1228965996
 30
0.0
 10
38.4971389684
 20
27.617733619
 30
0.0
 10
38.1629477545
 20
29.1369890996
 30
0.0
 10
37.6010660236
 20
31.2025583361
 30
0.0
 10
36.6954793409
 20
33.79094542
 30
0.0
 10
35.3203037582
 20
36.8336734599
 30
0.0
 10
33.6759783889
 20
39.7766031828
 30
0.0
 10
31.7977841528
 20
42.556549724
 30
0.0
 10
30.0572879555
 20
44.7051641756
 30
0.0
 10
28.5804944563
 20
46.2901541777
 30
0.0
 10
27.4496816046
 20
47.3934323642
 30
0.0
 10
26.2932488341
 20
48.4143958754
 30
0.0
 10
25.1173097055
 20
49.3476657022
 30
0.0
 10
23.9283028876
 20
50.1879314463
 30
0.0
 10
23.1168830856
 20
50.6921889402
 30
0.0
 10
22.7106150849
 20
50.9267425735
 30
0.0
  0
SPLINE
  5
25D
100
AcDbEntity
  8
0
100
AcDbSpline
 62
7
  6
BYLAYER
 70
0
 71
3
 72
9
 73
5
 74
0
 42
0.0000001
 43
0.0000001
 44
0.0000000001
 40
0.0
 40
0.0
 40
0.0
 40
0.0
 40
0.5025473468
 40
1.0
 40
1.0
 40
1.0
 40
1.0
 10
19.8822006086
 20
30.4978808194
 30
0.0
 10
21.1757073177
 20
27.1649420574
 30
0.0
 10
23.9354652143
 20
20.6034003044
 30
0.0
 10
27.0659370104
 20
14.2101521222
 30
0.0
 10
28.7149379151
 20
11.0789229419
 30
0.0
  0
SPLINE
  5
25E
100
AcDbEntity
  8
0
100
AcDbSpline
 62
7
  6
BYLAYER
 70
0
 71
3
 72
18
 73
14
 74
0
 42
0.0000001
 43
0.0000001
 44
0.0000000001
 40
0.0
 40
0.0
 40
0.0
 40
0.0
 40
0.0539166763
 40
0.1080932099
 40
0.1627798335
 40
0.2182165149
 40
0.2746261643
 40
0.332212951
 40
0.4515418745
 40
0.5774273864
 40
0.7105997397
 40
0.8514618764
 40
1.0
 40
1.0
 40
1.0
 40
1.0
 10
31.9428063509
 20
12.0739890984
 30
0.0
 10
32.1227778054
 20
12.1779001213
 30
0.0
 10
32.4748877156
 20
12.4017203934
 30
0.0
 10
32.9745889365
 20
12.7822883651
 30
0.0
 10
33.4451766769
 20
13.2071559779
 30
0.0
 10
33.8853940457
 20
13.6752356586
 30
0.0
 10
34.2942942858
 20
14.1853028884
 30
0.0
 10
34.8022399677
 20
14.9283347786
 30
0.0
 10
35.3526600303
 20
15.9622204729
 30
0.0
 10
35.8644777822
 20
17.3317535775
 30
0.0
 10
36.2321234961
 20
18.8320214292
 30
0.0
 10
36.4524631551
 20
20.448381091
 30
0.0
 10
36.4990422177
 20
21.5645935591
 30
0.0
 10
36.4992678381
 20
22.137115899
 30
0.0
  0
SPLINE
  5
25F
100
AcDbEntity
  8
0
100
AcDbSpline
 62
7
  6
BYLAYER
 70
0
 71
3
 72
15
 73
11
 74
0
 42
0.0000001
 43
0.0000001
 44
0.0000000001
 40
0.0
 40
0.0
 40
0.0
 40
0.0
 40
0.1413613365
 40
0.2779724708
 40
0.4096968227
 40
0.5365772518
 40
0.6587608138
 40
0.7764950228
 40
0.8901126657
 40
1.0
 40
1.0
 40
1.0
 40
1.0
 10
20.9428554919
 20
49.0896297717
 30
0.0
 10
20.6094861566
 20
49.2820962929
 30
0.0
 10
19.9432181303
 20
49.642394982
 30
0.0
 10
18.931017771
 20
50.1132111739
 30
0.0
 10
17.9270093919
 20
50.5030299233
 30
0.0
 10
16.9356789761
 20
50.8102038134
 30
0.0
 10
15.9610524737
 20
51.0333152504
 30
0.0
 10
15.0071235808
 20
51.1714174293
 30
0.0
 10
14.0781648709
 20
51.2235854334
 30
0.0
 10
13.4688376692
 20
51.2006482531
 30
0.0
 10
13.1707730687
 20
51.1742302477
 30
0.0
  0
SPLINE
  5
260
100
AcDbEntity
  8
0
100
AcDbSpline
 62
7
  6
BYLAYER
 70
0
 71
3
 72
11
 73
7
 74
0
 42
0.0000001
 43
0.0000001
 44
0.0000000001
 40
0.0
 40
0.0
 40
0.0
 40
0.0
 40
0.2671176777
 40
0.522937735
 40
0.767280189
 40
1.0
 40
1.0
 40
1.0
 40
1.0
 10
19.8666033245
 20
30.508350375
 30
0.0
 10
19.23462452
 20
29.6090769232
 30
0.0
 10
18.0136147615
 20
27.8370820988
 30
0.0
 10
16.275749182
 20
25.200951874
 30
0.0
 10
14.6726046996
 20
22.6464165415
 30
0.0
 10
13.6702475837
 20
20.9583071559
 30
0.0
 10
13.1928857949
 20
20.1281821438
 30
0.0
  0
SPLINE
  5
261
100
AcDbEntity
  8
0
100
AcDbSpline
 62
7
  6
BYLAYER
 70
0
 71
3
 72
13
 73
9
 74
0
 42
0.0000001
 43
0.0000001
 44
0.0000000001
 40
0.0
 40
0.0
 40
0.0
 40
0.0
 40
0.2656792423
 40
0.5224300266
 40
0.6467005356
 40
0.7678776828
 40
0.8857292947
 40
1.0
 40
1.0
 40
1.0
 40
1.0
 10
28.7149379151
 20
42.2000055133
 30
0.0
 10
28.135369686
 20
42.9205863018
 30
0.0
 10
26.9400541157
 20
44.2938729909
 30
0.0
 10
25.3240431245
 20
45.8651166366
 30
0.0
 10
23.9899949665
 20
46.995458571
 30
0.0
 10
22.9871214137
 20
47.7665418192
 30
0.0
 10
21.9755017213
 20
48.4665855787
 30
0.0
 10
21.2873069029
 20
48.8907651557
 30
0.0
 10
20.9428554919
 20
49.0896297717
 30
0.0
  0
SPLINE
  5
262
100
AcDbEntity
  8
0
100
AcDbSpline
 62
7
  6
BYLAYER
 70
0
 71
3
 72
9
 73
5
 74
0
 42
0.0000001
 43
0.0000001
 44
0.0000000001
 40
0.0
 40
0.0
 40
0.0
 40
0.0
 40
0.4909901516
 40
1.0
 40
1.0
 40
1.0
 40
1.0
 10
5.4125704649
 20
40.079839242
 30
0.0
 10
7.6712736002
 20
38.3627288031
 30
0.0
 10
12.3933604993
 20
35.023561246
 30
0.0
 10
17.3154174014
 20
31.988451053
 30
0.0
 10
19.8625572544
 20
30.5173878721
 30
0.0
  0
SPLINE
  5
263
100
AcDbEntity
  8
0
100
AcDbSpline
 62
7
  6
BYLAYER
 70
0
 71
3
 72
9
 73
5
 74
0
 42
0.0000001
 43
0.0000001
 44
0.0000000001
 40
0.0
 40
0.0
 40
0.0
 40
0.0
 40
0.5017736572
 40
1.0
 40
1.0
 40
1.0
 40
1.0
 10
13.158525569
 20
51.1731361608
 30
0.0
 10
14.0902176006
 20
47.6625684798
 30
0.0
 10
16.1377034378
 20
40.7154178404
 30
0.0
 10
18.5657233998
 20
33.8917755949
 30
0.0
 10
19.8699531089
 20
30.5294468292
 30
0.0
  0
SPLINE
  5
264
100
AcDbEntity
  8
0
100
AcDbSpline
 62
7
  6
BYLAYER
 70
0
 71
3
 72
11
 73
7
 74
0
 42
0.0000001
 43
0.0000001
 44
0.0000000001
 40
0.0
 40
0.0
 40
0.0
 40
0.0
 40
0.2634783554
 40
0.5181255288
 40
0.7637048565
 40
1.0
 40
1.0
 40
1.0
 40
1.0
 10
28.7149379151
 20
42.2000055133
 30
0.0
 10
27.908930515
 20
41.1998587458
 30
0.0
 10
26.3376201941
 20
39.2219997798
 30
0.0
 10
24.0659492278
 20
36.2719580764
 30
0.0
 10
21.9216287744
 20
33.3916952682
 30
0.0
 10
20.5518466535
 20
31.4829655605
 30
0.0
 10
19.8892736706
 20
30.5406015252
 30
0.0
  0
SPLINE
  5
265
100
AcDbEntity
  8
0
100
AcDbSpline
 62
7
  6
BYLAYER
 70
0
 71
3
 72
18
 73
14
 74
0
 42
0.0000001
 43
0.0000001
 44
0.0000000001
 40
0.0
 40
0.0
 40
0.0
 40
0.0
 40
0.1485484546
 40
0.2894268499
 40
0.4226055486
 40
0.54849235
 40
0.6678183534
 40
0.7254021427
 40
0.7818074642
 40
0.8372387205
 40
0.8919191493
 40
0.9460886607
 40
1.0
 40
1.0
 40
1.0
 40
1.0
 10
22.7106150849
 20
50.9267425735
 30
0.0
 10
22.1918683365
 20
51.2262343729
 30
0.0
 10
21.1563151273
 20
51.7683361158
 30
0.0
 10
19.5767500318
 20
52.4148398258
 30
0.0
 10
18.0252555046
 20
52.8670847413
 30
0.0
 10
16.5167869883
 20
53.1202237201
 30
0.0
 10
15.2921958323
 20
53.1626814604
 30
0.0
 10
14.3533314095
 20
53.0913875807
 30
0.0
 10
13.677348322
 20
52.9878706948
 30
0.0
 10
13.0230431333
 20
52.8339616666
 30
0.0
 10
12.3919841296
 20
52.6300023355
 30
0.0
 10
11.7858582856
 20
52.3763934588
 30
0.0
 10
11.3989422088
 20
52.1744727024
 30
0.0
 10
11.2106753308
 20
52.0657857864
 30
0.0
  0
SPLINE
  5
266
100
AcDbEntity
  8
0
100
AcDbSpline
 62
7
  6
BYLAYER
 70
0
 71
3
 72
33
 73
29
 74
0
 42
0.0000001
 43
0.0000001
 44
0.0000000001
 40
0.0
 40
0.0
 40
0.0
 40
0.0
 40
0.0306616116
 40
0.06239467
 40
0.095112485
 40
0.1287368293
 40
0.1631784218
 40
0.1983306666
 40
0.2702871861
 40
0.3436444137
 40
0.417355919
 40
0.4903603746
 40
0.5616276085
 40
0.6302066087
 40
0.6632365637
 40
0.6953012907
 40
0.7263284592
 40
0.7562624336
 40
0.7850654275
 40
0.8127221874
 40
0.8392405252
 40
0.8646570686
 40
0.8890373095
 40
0.9124806893
 40
0.9351193162
 40
0.9571188577
 40
0.9786736144
 40
1.0
 40
1.0
 40
1.0
 40
1.0
 10
22.7106150849
 20
50.1102401563
 30
0.0
 10
23.099218718
 20
49.8858848198
 30
0.0
 10
23.8753573822
 20
49.4035535217
 30
0.0
 10
25.0126640321
 20
48.5998236173
 30
0.0
 10
26.1374718054
 20
47.7071348912
 30
0.0
 10
27.2436218298
 20
46.730563954
 30
0.0
 10
28.3252683722
 20
45.675258082
 30
0.0
 10
29.7378520898
 20
44.1591819915
 30
0.0
 10
31.4026754079
 20
42.1039898832
 30
0.0
 10
33.1992176248
 20
39.4448958009
 30
0.0
 10
34.7720366157
 20
36.6299606021
 30
0.0
 10
36.087495027
 20
33.7193464088
 30
0.0
 10
37.1174902633
 20
30.775274873
 30
0.0
 10
37.7273620457
 20
28.3152728768
 30
0.0
 10
38.0489171986
 20
26.3848176423
 30
0.0
 10
38.204225689
 20
24.985954125
 30
0.0
 10
38.2758355286
 20
23.6256389271
 30
0.0
 10
38.2633725924
 20
22.3111322956
 30
0.0
 10
38.166763649
 20
21.0494764247
 30
0.0
 10
37.9865669302
 20
19.8474098355
 30
0.0
 10
37.7234797209
 20
18.7113827795
 30
0.0
 10
37.3789241543
 20
17.6474608294
 30
0.0
 10
36.954362136
 20
16.6614595378
 30
0.0
 10
36.4520095722
 20
15.7587335234
 30
0.0
 10
35.8741904407
 20
14.944462798
 30
0.0
 10
35.223931308
 20
14.2232767323
 30
0.0
 10
34.5047944634
 20
13.5996910879
 30
0.0
 10
33.9808506659
 20
13.2506559061
 30
0.0
 10
33.7105571758
 20
13.0946146896
 30
0.0
  0
SPLINE
  5
267
100
AcDbEntity
  8
0
100
AcDbSpline
 62
7
  6
BYLAYER
 70
0
 71
3
 72
17
 73
13
 74
0
 42
0.0000001
 43
0.0000001
 44
0.0000000001
 40
0.0
 40
0.0
 40
0.0
 40
0.0
 40
0.0545889086
 40
0.11088701
 40
0.1687718708
 40
0.2281353433
 40
0.3507783697
 40
0.4776811876
 40
0.6075125297
 40
0.7388353517
 40
0.8701609239
 40
1.0
 40
1.0
 40
1.0
 40
1.0
 10
36.4992678381
 20
22.1534459474
 30
0.0
 10
36.4991111329
 20
22.5512734264
 30
0.0
 10
36.4755365039
 20
23.359523277
 30
0.0
 10
36.3746222098
 20
24.585842468
 30
0.0
 10
36.2078248051
 20
25.8400797211
 30
0.0
 10
35.8953226163
 20
27.5607276791
 30
0.0
 10
35.3418128622
 20
29.74608938
 30
0.0
 10
34.4416876811
 20
32.3633019753
 30
0.0
 10
33.313581731
 20
34.9596820612
 30
0.0
 10
31.9765494277
 20
37.4913234999
 30
0.0
 10
30.4532954942
 20
39.9153422038
 30
0.0
 10
29.3198185986
 20
41.44711555
 30
0.0
 10
28.7271854148
 20
42.1847695519
 30
0.0
  0
SPLINE
  5
268
100
AcDbEntity
  8
0
100
AcDbSpline
 62
7
  6
BYLAYER
 70
0
 71
3
 72
9
 73
5
 74
0
 42
0.0000001
 43
0.0000001
 44
0.0000000001
 40
0.0
 40
0.0
 40
0.0
 40
0.0
 40
0.4921171009
 40
1.0
 40
1.0
 40
1.0
 40
1.0
 10
19.8944481083
 20
30.4989749063
 30
0.0
 10
22.5357657893
 20
28.9743701225
 30
0.0
 10
27.9965566443
 20
26.0362264488
 30
0.0
 10
33.6101990053
 20
23.4032541905
 30
0.0
 10
36.4929665483
 20
22.139877308
 30
0.0
  0
ENDSEC
  0
SECTION
  2
OBJECTS
  0
DICTIONARY
  5
C
100
AcDbDictionary
280
0
281
1
  3
ACAD_GROUP
350
D
  3
ACAD_MLINESTYLE
350
17
  3
ACAD_LAYOUT
350
1A
  3
ACAD_PLOTSETTINGS
350
19
  3
ACAD_PLOTSTYLENAME
350
E
  0
DICTIONARY
  5
D
102
{ACAD_REACTORS
330
C
102
}
100
AcDbDictionary
280
0
281
1
  0
ACDBDICTIONARYWDFLT
  5
E
102
{ACAD_REACTORS
330
C
102
}
100
AcDbDictionary
281
1
  3
Normal
350
F
100
AcDbDictionaryWithDefault
340
F
  0
DICTIONARY
  5
17
102
{ACAD_REACTORS
330
C
102
}
100
AcDbDictionary
280
0
281
1
  3
Standard
350
18
  0
DICTIONARY
  5
19
102
{ACAD_REACTORS
330
C
102
}
100
AcDbDictionary
281
1
  0
DICTIONARY
  5
1A
102
{ACAD_REACTORS
330
C
102
}
100
AcDbDictionary
281
1
  3
Model
350
269
  3
Layout1
350
26A
  0
ACDBPLACEHOLDER
  5
F
102
{ACAD_REACTORS
330
E
102
}
  0
MLINESTYLE
  5
18
102
{ACAD_REACTORS
330
17
102
}
100
AcDbMlineStyle
  2
STANDARD
 70
0
  3

 62
256
 51
90.0
 52
90.0
 71
2
 49
0.5
 62
256
  6
BYLAYER
 49
-0.5
 62
256
  6
BYLAYER
  0
LAYOUT
  5
269
102
{ACAD_REACTORS
330
1A
102
}
100
AcDbPlotSettings
  1

  2
none_device
  4

  6

 40
0.0
 41
0.0
 42
0.0
 43
0.0
 44
210.0
 45
297.0
 46
0.0
 47
0.0
 48
0.0
 49
0.0
140
0.0
141
0.0
142
1.0
143
1.0
 70
1024
 72
1
 73
0
 74
0
  7

 75
0
147
1.0
148
0.0
149
0.0
100
AcDbLayout
  1
Model
 70
0
 71
0
 10
0.0
 20
0.0
 11
210.0
 21
297.0
 12
0.0
 22
0.0
 32
0.0
 14
0.0
 24
0.0
 34
0.0
 15
0.0
 25
0.0
 35
0.0
146
0.0
 13
0.0
 23
0.0
 33
0.0
 16
1.0
 26
0.0
 36
0.0
 17
0.0
 27
1.0
 37
0.0
 76
0
330
210
345
0
346
0
  0
LAYOUT
  5
26A
102
{ACAD_REACTORS
330
1A
102
}
100
AcDbPlotSettings
  1

  2
none_device
  4

  6

 40
0.0
 41
0.0
 42
0.0
 43
0.0
 44
210.0
 45
297.0
 46
0.0
 47
0.0
 48
0.0
 49
0.0
140
0.0
141
0.0
142
1.0
143
1.0
 70
0
 72
1
 73
0
 74
0
  7

 75
0
147
1.0
148
0.0
149
0.0
100
AcDbLayout
  1
Layout1
 70
0
 71
1
 10
0.0
 20
0.0
 11
210.0
 21
297.0
 12
0.0
 22
0.0
 32
0.0
 14
0.0
 24
0.0
 34
0.0
 15
0.0
 25
0.0
 35
0.0
146
0.0
 13
0.0
 23
0.0
 33
0.0
 16
1.0
 26
0.0
 36
0.0
 17
0.0
 27
1.0
 37
0.0
 76
0
330
211
345
0
346
0
  0
ENDSEC
  0
EOF
