999
DXF file: C:\Users\sesa63760\Dev\_Creo\CAD\MCADID0004432_3D-CAD\drw0001_1.dxf
999
Pro/ENGINEER 2019471 by Parametric Technology Corporation
  0
SECTION
  2
HEADER
  9
$ACADVER
  1
AC1024
  9
$DWGCODEPAGE
  3
ANSI_1252
  9
$EXTMAX
 10
80.3692789426
 20
113.665123076
 30
0.0
  9
$EXTMIN
 10
0.0
 20
0.0
 30
0.0
  9
$LIMMIN
 10
0.0
 20
0.0
  9
$LIMMAX
 10
80.3692789426
 20
113.665123076
  9
$VIEWCTR
 10
40.1846394713
 20
56.832561538
  9
$VIEWSIZE
 40
113.665123076
  9
$CLAYER
  8
0
  9
$LTSCALE
 40
7.4092820968
  9
$CELTYPE
  6
BYLAYER
  9
$DIMSCALE
 40
1.0
  9
$DIMASZ
 40
0.9567771303
  9
$DIMEXO
 40
1.0
  9
$DIMDLI
 40
5.1191403578
  9
$DIMEXE
 40
1.0
  9
$DIMCEN
 40
1.2124279795
  9
$DIMLFAC
 40
1.0
  9
$DIMBLK
  1
_FILLED
  9
$DIMALT
 70
0
  9
$DIMALTF
 40
0.0393700787
  9
$DIMTXT
 40
1.3394879824
  9
$DIMTOL
 70
1
  9
$DIMLIM
 70
0
  9
$DIMTFAC
 40
1.0
  9
$DIMTP
 40
0.01
  9
$DIMTM
 40
0.01
  9
$DIMGAP
 40
0.625
  9
$DIMDSEP
 70
46
  9
$AUNITS
 70
0
  9
$PDMODE
 70
3
  9
$PDSIZE
 40
0.3125
  9
$HANDSEED
  5
263
  9
$TILEMODE
 70
1
  9
$MEASUREMENT
 70
1
  9
$INSUNITS
 70
4
  0
ENDSEC
  0
SECTION
  2
CLASSES
  0
CLASS
  1
ACDBDICTIONARYWDFLT
  2
AcDbDictionaryWithDefault
  3
AutoCAD 2000
 90
0
 91
1
280
0
281
0
  0
CLASS
  1
ACDBPLACEHOLDER
  2
AcDbPlaceHolder
  3
AutoCAD 2000
 90
0
 91
1
280
0
281
0
  0
CLASS
  1
LAYOUT
  2
AcDbLayout
  3
AutoCAD 2000
 90
0
 91
0
280
0
281
0
  0
ENDSEC
  0
SECTION
  2
TABLES
  0
TABLE
  2
VPORT
  5
8
100
AcDbSymbolTable
 70
2
  0
VPORT
  5
1F4
100
AcDbSymbolTableRecord
100
AcDbViewportTableRecord
  2
*ACTIVE
 70
0
 10
0.0
 20
0.0
 11
1.0
 21
1.0
 12
40.1846394713
 22
56.832561538
 13
0.0
 23
0.0
 14
1.0
 24
1.0
 15
0.0
 25
0.0
 16
0.0
 26
0.0
 36
1.0
 17
0.0
 27
0.0
 37
0.0
 40
113.665123076
 41
0.7070707071
 42
50.0
 43
0.0
 44
0.0
 50
0.0
 51
0.0
 71
0
 72
100
 73
1
 74
1
 75
0
 76
0
 77
0
 78
0
  0
ENDTAB
  0
TABLE
  2
LTYPE
  5
5
100
AcDbSymbolTable
 70
6
  0
LTYPE
  5
14
100
AcDbSymbolTableRecord
100
AcDbLinetypeTableRecord
  2
BYBLOCK
 70
0
  3

 72
65
 73
0
 40
0.0
  0
LTYPE
  5
15
100
AcDbSymbolTableRecord
100
AcDbLinetypeTableRecord
  2
BYLAYER
 70
0
  3

 72
65
 73
0
 40
0.0
  0
LTYPE
  5
16
100
AcDbSymbolTableRecord
100
AcDbLinetypeTableRecord
  2
CONTINUOUS
 70
64
  3
Solid line
 72
65
 73
0
 40
0.0
  0
LTYPE
  5
1F5
100
AcDbSymbolTableRecord
100
AcDbLinetypeTableRecord
  2
CENTER
 70
64
  3
____ _ ____ _ ____ _ ____ _ ____ _ ____ _ ____
 72
65
 73
4
 40
0.6
 49
0.375
 74
0
 49
-0.075
 74
0
 49
0.075
 74
0
 49
-0.075
 74
0
  0
LTYPE
  5
1F6
100
AcDbSymbolTableRecord
100
AcDbLinetypeTableRecord
  2
HIDDEN
 70
64
  3
- - - - - - - - - - - - - - - - - - - -
 72
65
 73
2
 40
0.2
 49
0.1
 74
0
 49
-0.1
 74
0
  0
LTYPE
  5
1F7
100
AcDbSymbolTableRecord
100
AcDbLinetypeTableRecord
  2
PHANTOM
 70
64
  3
_____ _ _ _____ _ _ _____ _ _ _____
 72
65
 73
6
 40
0.8
 49
0.45
 74
0
 49
-0.05
 74
0
 49
0.1
 74
0
 49
-0.05
 74
0
 49
0.1
 74
0
 49
-0.05
 74
0
  0
LTYPE
  5
1F8
100
AcDbSymbolTableRecord
100
AcDbLinetypeTableRecord
  2
DOT
 70
64
  3
. . . . . . . . . . . . . . . . . . . .
 72
65
 73
2
 40
0.2
 49
0.1
 74
0
 49
-0.1
 74
0
  0
LTYPE
  5
1F9
100
AcDbSymbolTableRecord
100
AcDbLinetypeTableRecord
  2
DASHED
 70
64
  3
- - - - - - - - - - - - - - - - - - - -
 72
65
 73
2
 40
0.2
 49
0.1
 74
0
 49
-0.1
 74
0
  0
ENDTAB
  0
TABLE
  2
LAYER
  5
2
100
AcDbSymbolTable
 70
36
  0
LAYER
  5
10
100
AcDbSymbolTableRecord
100
AcDbLayerTableRecord
  2
0
 70
0
 62
7
  6
CONTINUOUS
370
-3
390
F
  0
LAYER
  5
1FA
100
AcDbSymbolTableRecord
100
AcDbLayerTableRecord
  2
DEFAULT_1
 70
0
 62
7
  6
CENTER
370
-3
390
F
  0
LAYER
  5
1FB
100
AcDbSymbolTableRecord
100
AcDbLayerTableRecord
  2
DEFAULT_2
 70
0
 62
7
  6
HIDDEN
370
-3
390
F
  0
LAYER
  5
1FC
100
AcDbSymbolTableRecord
100
AcDbLayerTableRecord
  2
DEFAULT_3
 70
0
 62
7
  6
PHANTOM
370
-3
390
F
  0
LAYER
  5
1FD
100
AcDbSymbolTableRecord
100
AcDbLayerTableRecord
  2
00_COMPONENTS
 70
0
 62
7
  6
CONTINUOUS
370
-3
390
F
  0
LAYER
  5
1FE
100
AcDbSymbolTableRecord
100
AcDbLayerTableRecord
  2
01_1_DEFAULT_DATUMS
 70
0
 62
7
  6
CONTINUOUS
370
-3
390
F
  0
LAYER
  5
1FF
100
AcDbSymbolTableRecord
100
AcDbLayerTableRecord
  2
01_PLANES
 70
0
 62
7
  6
CONTINUOUS
370
-3
390
F
  0
LAYER
  5
200
100
AcDbSymbolTableRecord
100
AcDbLayerTableRecord
  2
02_COORD_SYS
 70
0
 62
7
  6
CONTINUOUS
370
-3
390
F
  0
LAYER
  5
201
100
AcDbSymbolTableRecord
100
AcDbLayerTableRecord
  2
03_AXES
 70
0
 62
7
  6
CONTINUOUS
370
-3
390
F
  0
LAYER
  5
202
100
AcDbSymbolTableRecord
100
AcDbLayerTableRecord
  2
04_POINTS
 70
0
 62
7
  6
CONTINUOUS
370
-3
390
F
  0
LAYER
  5
203
100
AcDbSymbolTableRecord
100
AcDbLayerTableRecord
  2
05_CURVES
 70
0
 62
7
  6
CONTINUOUS
370
-3
390
F
  0
LAYER
  5
204
100
AcDbSymbolTableRecord
100
AcDbLayerTableRecord
  2
06_SURFS
 70
0
 62
7
  6
CONTINUOUS
370
-3
390
F
  0
LAYER
  5
205
100
AcDbSymbolTableRecord
100
AcDbLayerTableRecord
  2
07_COSMETICS
 70
0
 62
7
  6
CONTINUOUS
370
-3
390
F
  0
LAYER
  5
206
100
AcDbSymbolTableRecord
100
AcDbLayerTableRecord
  2
10_NOTES
 70
0
 62
7
  6
CONTINUOUS
370
-3
390
F
  0
LAYER
  5
207
100
AcDbSymbolTableRecord
100
AcDbLayerTableRecord
  2
11_NOTES_PUB
 70
0
 62
7
  6
CONTINUOUS
370
-3
390
F
  0
LAYER
  5
208
100
AcDbSymbolTableRecord
100
AcDbLayerTableRecord
  2
13_REF_GTOL
 70
0
 62
7
  6
CONTINUOUS
370
-3
390
F
  0
LAYER
  5
209
100
AcDbSymbolTableRecord
100
AcDbLayerTableRecord
  2
16_MISC
 70
0
 62
7
  6
CONTINUOUS
370
-3
390
F
  0
LAYER
  5
20A
100
AcDbSymbolTableRecord
100
AcDbLayerTableRecord
  2
17_NO_PRINT
 70
0
 62
7
  6
CONTINUOUS
370
-3
390
F
  0
LAYER
  5
20B
100
AcDbSymbolTableRecord
100
AcDbLayerTableRecord
  2
18_DATUM_CAMS_JOINTS
 70
0
 62
7
  6
CONTINUOUS
370
-3
390
F
  0
LAYER
  5
20C
100
AcDbSymbolTableRecord
100
AcDbLayerTableRecord
  2
19_DATUM_FUNCTIONAL
 70
0
 62
7
  6
CONTINUOUS
370
-3
390
F
  0
LAYER
  5
20D
100
AcDbSymbolTableRecord
100
AcDbLayerTableRecord
  2
20_DATUM_KINEMATIC_SCHEME
 70
0
 62
7
  6
CONTINUOUS
370
-3
390
F
  0
ENDTAB
  0
TABLE
  2
STYLE
  5
3
100
AcDbSymbolTable
 70
1
  0
STYLE
  5
11
100
AcDbSymbolTableRecord
100
AcDbTextStyleTableRecord
  2
STANDARD
 70
0
 40
0.0
 41
1.0
 50
0.0
 71
0
 42
0.2
  3
ARIAL.TTF
  4

  0
STYLE
  5
20E
100
AcDbSymbolTableRecord
100
AcDbTextStyleTableRecord
  2
TEXTSTYLE_1
 70
0
 40
0.0
 41
0.8
 50
0.0
 71
0
 42
0.2
  3
gdt
  4

  0
ENDTAB
  0
TABLE
  2
VIEW
  5
6
100
AcDbSymbolTable
 70
0
  0
ENDTAB
  0
TABLE
  2
UCS
  5
7
100
AcDbSymbolTable
 70
0
  0
ENDTAB
  0
TABLE
  2
APPID
  5
9
100
AcDbSymbolTable
 70
1
  0
APPID
  5
20F
100
AcDbSymbolTableRecord
100
AcDbRegAppTableRecord
  2
ACAD
 70
0
  0
ENDTAB
  0
TABLE
  2
BLOCK_RECORD
  5
1
100
AcDbSymbolTable
 70
0
  0
BLOCK_RECORD
  5
210
100
AcDbSymbolTableRecord
100
AcDbBlockTableRecord
  2
*Model_Space
  0
BLOCK_RECORD
  5
211
100
AcDbSymbolTableRecord
100
AcDbBlockTableRecord
  2
*Paper_Space
  0
BLOCK_RECORD
  5
212
100
AcDbSymbolTableRecord
100
AcDbBlockTableRecord
  2
_FILLED
  0
ENDTAB
  0
TABLE
  2
DIMSTYLE
  5
A
100
AcDbSymbolTable
 70
1
100
AcDbDimStyleTable
 71
0
  0
DIMSTYLE
105
213
100
AcDbSymbolTableRecord
100
AcDbDimStyleTableRecord
  2
STANDARD
 70
0
  3

  4

 40
1.0
 41
0.9567771303
 42
1.0
 43
0.38
 44
1.0
 45
0.0
 46
0.0
 47
0.01
 48
0.01
140
1.3394879824
141
0.09
142
0.0
143
25.4
144
1.0
145
0.0
146
1.0
147
0.625
 71
1
 72
0
 73
0
 74
0
 75
0
 76
0
 77
1
 78
8
 79
2
170
0
171
1
172
0
173
0
174
0
175
0
176
0
177
0
178
0
270
2
179
2
271
2
272
2
273
2
274
2
275
0
280
0
281
0
282
0
283
1
284
8
285
0
286
0
287
3
288
0
340
11
278
46
341
212
342
212
343
212
344
212
  0
ENDTAB
  0
ENDSEC
  0
SECTION
  2
BLOCKS
  0
BLOCK
  5
20
100
AcDbEntity
  8
0
100
AcDbBlockBegin
  2
*Model_Space
 70
0
 10
0.0
 20
0.0
 30
0.0
  3
*Model_Space
  1

  0
ENDBLK
  5
21
100
AcDbEntity
  8
0
100
AcDbBlockEnd
  0
BLOCK
  5
1C
100
AcDbEntity
  8
0
100
AcDbBlockBegin
  2
*Paper_Space
 70
0
 10
0.0
 20
0.0
 30
0.0
  3
*Paper_Space
  1

  0
ENDBLK
  5
1D
100
AcDbEntity
  8
0
100
AcDbBlockEnd
  0
BLOCK
  5
214
100
AcDbEntity
  8
0
100
AcDbBlockBegin
  2
_FILLED
 70
64
 10
0.0
 20
0.0
  3
_FILLED
  1

  0
SOLID
  5
215
100
AcDbEntity
  8
0
  6
BYBLOCK
 62
0
100
AcDbTrace
 10
0.0
 20
0.0
 11
-1.0
 21
0.25
 12
-1.0
 22
-0.25
 13
-1.0
 23
-0.25
  0
ENDBLK
  5
216
100
AcDbEntity
  8
0
  6
BYBLOCK
 62
0
100
AcDbBlockEnd
  0
ENDSEC
  0
SECTION
  2
ENTITIES
  0
LINE
  5
217
100
AcDbEntity
  8
0
100
AcDbLine
 62
7
  6
BYLAYER
 10
12.8966650772
 20
84.3237415629
 11
19.9677034493
 21
88.4061831016
  0
LINE
  5
218
100
AcDbEntity
  8
0
100
AcDbLine
 62
7
  6
BYLAYER
 10
9.3170228205
 20
64.2684477289
 11
9.3239074895
 21
63.4912713363
  0
LINE
  5
219
100
AcDbEntity
  8
0
100
AcDbLine
 62
7
  6
BYLAYER
 10
12.1966263904
 20
58.7051692895
 11
12.1966263904
 21
63.4098200349
  0
LINE
  5
21A
100
AcDbEntity
  8
0
100
AcDbLine
 62
7
  6
BYLAYER
 10
12.8966650772
 20
84.3237415629
 11
12.8966650772
 21
75.3422149745
  0
LINE
  5
21B
100
AcDbEntity
  8
0
100
AcDbLine
 62
7
  6
BYLAYER
 10
12.8966650772
 20
71.2597028889
 11
12.8966650772
 21
55.7461569634
  0
LINE
  5
21C
100
AcDbEntity
  8
0
100
AcDbLine
 62
7
  6
BYLAYER
 10
13.2502199398
 20
75.1380945972
 11
13.2502199398
 21
71.0555825116
  0
LINE
  5
21D
100
AcDbEntity
  8
0
100
AcDbLine
 62
7
  6
BYLAYER
 10
12.1966263904
 20
63.4098200349
 11
12.8966650772
 21
64.2806828834
  0
LINE
  5
21E
100
AcDbEntity
  8
0
100
AcDbLine
 62
7
  6
BYLAYER
 10
12.8966650772
 20
71.2597028889
 11
13.2502199398
 21
71.4638266655
  0
LINE
  5
21F
100
AcDbEntity
  8
0
100
AcDbLine
 62
7
  6
BYLAYER
 10
12.1521763767
 20
68.4234097078
 11
12.1808874075
 21
68.439817659
  0
LINE
  5
220
100
AcDbEntity
  8
0
100
AcDbLine
 62
7
  6
BYLAYER
 10
11.4824161872
 20
68.0446161696
 11
12.1521042644
 21
68.4235371992
  0
LINE
  5
221
100
AcDbEntity
  8
0
100
AcDbLine
 62
7
  6
BYLAYER
 10
22.7962012293
 20
68.8103419941
 11
22.7962012293
 21
66.3608347427
  0
LINE
  5
222
100
AcDbEntity
  8
0
100
AcDbLine
 62
7
  6
BYLAYER
 10
24.2104206796
 20
63.9113483994
 11
24.9175245168
 21
65.1360949704
  0
LINE
  5
223
100
AcDbEntity
  8
0
100
AcDbLine
 62
7
  6
BYLAYER
 10
24.2104147916
 20
68.8103453934
 11
24.9175306263
 21
69.218596474
  0
LINE
  5
224
100
AcDbEntity
  8
0
100
AcDbLine
 62
7
  6
BYLAYER
 10
24.2104147916
 20
66.3608381421
 11
24.2104147916
 21
68.8103453934
  0
LINE
  5
225
100
AcDbEntity
  8
0
100
AcDbLine
 62
7
  6
BYLAYER
 10
27.0389206763
 20
67.9938670281
 11
24.2104147916
 21
66.3608381421
  0
LINE
  5
226
100
AcDbEntity
  8
0
100
AcDbLine
 62
7
  6
BYLAYER
 10
24.9175245168
 20
65.1360949704
 11
28.4531523459
 21
67.1773784645
  0
LINE
  5
227
100
AcDbEntity
  8
0
100
AcDbLine
 62
7
  6
BYLAYER
 10
12.8966650772
 20
55.7461569634
 11
65.2227847381
 21
25.5363411289
  0
LINE
  5
228
100
AcDbEntity
  8
0
100
AcDbLine
 62
7
  6
BYLAYER
 10
12.9037361156
 20
58.296928535
 11
12.1966263904
 21
58.7051692895
  0
LINE
  5
229
100
AcDbEntity
  8
0
100
AcDbLine
 62
7
  6
BYLAYER
 10
10.1522103108
 20
61.6932788326
 11
12.1966263904
 21
60.512961361
  0
LINE
  5
22A
100
AcDbEntity
  8
0
100
AcDbLine
 62
7
  6
BYLAYER
 10
12.9037361156
 20
63.0015792804
 11
12.1966263904
 21
63.4098200349
  0
LINE
  5
22B
100
AcDbEntity
  8
0
100
AcDbLine
 62
7
  6
BYLAYER
 10
24.2104206796
 20
63.9113483994
 11
65.2227847381
 21
40.2333846372
  0
LINE
  5
22C
100
AcDbEntity
  8
0
100
AcDbLine
 62
7
  6
BYLAYER
 10
13.2502199398
 20
71.0555825116
 11
12.8966650772
 21
71.2597028889
  0
LINE
  5
22D
100
AcDbEntity
  8
0
100
AcDbLine
 62
7
  6
BYLAYER
 10
65.2227788502
 20
41.8663719627
 11
24.9175245168
 21
65.1360949704
  0
LINE
  5
22E
100
AcDbEntity
  8
0
100
AcDbLine
 62
7
  6
BYLAYER
 10
12.8966650772
 20
75.3422149745
 11
13.2502199398
 21
75.1380945972
  0
LINE
  5
22F
100
AcDbEntity
  8
0
100
AcDbLine
 62
7
  6
BYLAYER
 10
65.2227847381
 20
45.9489015571
 11
24.2104206796
 21
69.6268653193
  0
LINE
  5
230
100
AcDbEntity
  8
0
100
AcDbLine
 62
7
  6
BYLAYER
 10
67.3439876067
 20
47.173571294
 11
72.2938231102
 21
44.3158261759
  0
LINE
  5
231
100
AcDbEntity
  8
0
100
AcDbLine
 62
7
  6
BYLAYER
 10
24.2104147916
 20
66.3608381421
 11
22.7962012293
 21
66.3608347427
  0
LINE
  5
232
100
AcDbEntity
  8
0
100
AcDbLine
 62
7
  6
BYLAYER
 10
22.7962012293
 20
68.8103419941
 11
24.2104147916
 21
68.8103453934
  0
LINE
  5
233
100
AcDbEntity
  8
0
100
AcDbLine
 62
7
  6
BYLAYER
 10
65.2227847381
 20
54.1139257284
 11
12.8966650772
 21
84.3237415629
  0
LINE
  5
234
100
AcDbEntity
  8
0
100
AcDbLine
 62
7
  6
BYLAYER
 10
65.2227847381
 20
54.1139257284
 11
72.2938231102
 21
58.1963672671
  0
LINE
  5
235
100
AcDbEntity
  8
0
100
AcDbLine
 62
7
  6
BYLAYER
 10
72.2938231102
 20
58.1963672671
 11
19.9677034493
 21
88.4061831016
  0
LINE
  5
236
100
AcDbEntity
  8
0
100
AcDbLine
 62
7
  6
BYLAYER
 10
65.2227847381
 20
45.9489015571
 11
72.2938231102
 21
50.0313430958
  0
LINE
  5
237
100
AcDbEntity
  8
0
100
AcDbLine
 62
7
  6
BYLAYER
 10
65.2227847381
 20
25.5363411289
 11
65.2227788502
 21
41.8663719627
  0
LINE
  5
238
100
AcDbEntity
  8
0
100
AcDbLine
 62
7
  6
BYLAYER
 10
65.2227847381
 20
45.9489015571
 11
65.2227847381
 21
54.1139257284
  0
LINE
  5
239
100
AcDbEntity
  8
0
100
AcDbLine
 62
7
  6
BYLAYER
 10
65.2227788502
 20
41.8663719627
 11
70.8796095479
 21
45.1323251937
  0
LINE
  5
23A
100
AcDbEntity
  8
0
100
AcDbLine
 62
7
  6
BYLAYER
 10
65.2227847381
 20
40.2333846372
 11
72.2938231102
 21
44.3158261759
  0
LINE
  5
23B
100
AcDbEntity
  8
0
100
AcDbLine
 62
7
  6
BYLAYER
 10
72.2938231102
 20
29.6187826676
 11
72.2938231102
 21
44.3158261759
  0
LINE
  5
23C
100
AcDbEntity
  8
0
100
AcDbLine
 62
7
  6
BYLAYER
 10
72.2938231102
 20
50.0313430958
 11
72.2938231102
 21
58.1963672671
  0
LINE
  5
23D
100
AcDbEntity
  8
0
100
AcDbLine
 62
7
  6
BYLAYER
 10
65.2227847381
 20
25.5363411289
 11
72.2938231102
 21
29.6187826676
  0
ARC
  5
23E
100
AcDbEntity
  8
0
100
AcDbCircle
 62
7
  6
BYLAYER
 10
67.5956363854
 20
44.1036862045
 40
0.5421791324
100
AcDbArc
 50
13.4078072305
 51
18.6356850097
  0
SPLINE
  5
23F
100
AcDbEntity
  8
0
100
AcDbSpline
 62
7
  6
BYLAYER
 70
0
 71
3
 72
18
 73
14
 74
0
 42
0.0000001
 43
0.0000001
 44
0.0000000001
 40
0.0
 40
0.0
 40
0.0
 40
0.0
 40
0.0428479429
 40
0.0874623066
 40
0.1352840435
 40
0.1872323096
 40
0.2437220832
 40
0.3047263631
 40
0.4383562007
 40
0.5826594577
 40
0.729784539
 40
0.8713400481
 40
1.0
 40
1.0
 40
1.0
 40
1.0
 10
15.4322215916
 20
67.2762857297
 30
0.0
 10
15.4815259809
 20
67.3047564299
 30
0.0
 10
15.5902258165
 20
67.3498919278
 30
0.0
 10
15.7696285146
 20
67.3762278694
 30
0.0
 10
15.9622889582
 20
67.362018262
 30
0.0
 10
16.1639176841
 20
67.308462318
 30
0.0
 10
16.3705783737
 20
67.2171514853
 30
0.0
 10
16.6558440684
 20
67.0425290431
 30
0.0
 10
16.9956925837
 20
66.741560226
 30
0.0
 10
17.3449596155
 20
66.2944307551
 30
0.0
 10
17.6200980724
 20
65.7859470111
 30
0.0
 10
17.7986072625
 20
65.258176725
 30
0.0
 10
17.8464331532
 20
64.8987136404
 30
0.0
 10
17.8464331532
 20
64.7277567301
 30
0.0
  0
SPLINE
  5
240
100
AcDbEntity
  8
0
100
AcDbSpline
 62
7
  6
BYLAYER
 70
0
 71
3
 72
18
 73
14
 74
0
 42
0.0000001
 43
0.0000001
 44
0.0000000001
 40
0.0
 40
0.0
 40
0.0
 40
0.0
 40
0.0428479429
 40
0.0874623066
 40
0.1352840435
 40
0.1872323096
 40
0.2437220832
 40
0.3047263631
 40
0.4383562007
 40
0.5826594577
 40
0.729784539
 40
0.8713400481
 40
1.0
 40
1.0
 40
1.0
 40
1.0
 10
15.4322215916
 20
72.1753002325
 30
0.0
 10
15.4815259809
 20
72.2037709326
 30
0.0
 10
15.5902258165
 20
72.2489064306
 30
0.0
 10
15.7696285146
 20
72.2752423722
 30
0.0
 10
15.9622889582
 20
72.2610327647
 30
0.0
 10
16.1639176841
 20
72.2074768208
 30
0.0
 10
16.3705783737
 20
72.1161659881
 30
0.0
 10
16.6558440684
 20
71.9415435459
 30
0.0
 10
16.9956925837
 20
71.6405747288
 30
0.0
 10
17.3449596155
 20
71.1934452579
 30
0.0
 10
17.6200980724
 20
70.6849615139
 30
0.0
 10
17.7986072625
 20
70.1571912277
 30
0.0
 10
17.8464331532
 20
69.7977281432
 30
0.0
 10
17.8464331532
 20
69.6267712329
 30
0.0
  0
SPLINE
  5
241
100
AcDbEntity
  8
0
100
AcDbSpline
 62
7
  6
BYLAYER
 70
0
 71
3
 72
18
 73
14
 74
0
 42
0.0000001
 43
0.0000001
 44
0.0000000001
 40
0.0
 40
0.0
 40
0.0
 40
0.0
 40
0.0428479429
 40
0.0874623066
 40
0.1352840435
 40
0.1872323096
 40
0.2437220832
 40
0.3047263631
 40
0.4383562007
 40
0.5826594577
 40
0.729784539
 40
0.8713400481
 40
1.0
 40
1.0
 40
1.0
 40
1.0
 10
15.4322215916
 20
78.7073195695
 30
0.0
 10
15.4815259809
 20
78.7357902697
 30
0.0
 10
15.5902258165
 20
78.7809257676
 30
0.0
 10
15.7696285146
 20
78.8072617092
 30
0.0
 10
15.9622889582
 20
78.7930521018
 30
0.0
 10
16.1639176841
 20
78.7394961578
 30
0.0
 10
16.3705783737
 20
78.6481853251
 30
0.0
 10
16.6558440684
 20
78.4735628829
 30
0.0
 10
16.9956925837
 20
78.1725940659
 30
0.0
 10
17.3449596155
 20
77.725464595
 30
0.0
 10
17.6200980724
 20
77.216980851
 30
0.0
 10
17.7986072625
 20
76.6892105648
 30
0.0
 10
17.8464331532
 20
76.3297474802
 30
0.0
 10
17.8464331532
 20
76.1587905699
 30
0.0
  0
SPLINE
  5
242
100
AcDbEntity
  8
0
100
AcDbSpline
 62
7
  6
BYLAYER
 70
0
 71
3
 72
18
 73
14
 74
0
 42
0.0000001
 43
0.0000001
 44
0.0000000001
 40
0.0
 40
0.0
 40
0.0
 40
0.0
 40
0.0428479429
 40
0.0874623066
 40
0.1352840435
 40
0.1872323096
 40
0.2437220832
 40
0.3047263631
 40
0.4383562007
 40
0.5826594577
 40
0.729784539
 40
0.8713400481
 40
1.0
 40
1.0
 40
1.0
 40
1.0
 10
57.8588051004
 20
42.7818404585
 30
0.0
 10
57.9081094897
 20
42.8103111586
 30
0.0
 10
58.0168093253
 20
42.8554466566
 30
0.0
 10
58.1962120234
 20
42.8817825982
 30
0.0
 10
58.388872467
 20
42.8675729907
 30
0.0
 10
58.5905011929
 20
42.8140170468
 30
0.0
 10
58.7971618825
 20
42.7227062141
 30
0.0
 10
59.0824275773
 20
42.5480837719
 30
0.0
 10
59.4222760925
 20
42.2471149548
 30
0.0
 10
59.7715431243
 20
41.7999854839
 30
0.0
 10
60.0466815812
 20
41.2915017399
 30
0.0
 10
60.2251907713
 20
40.7637314538
 30
0.0
 10
60.2730166621
 20
40.4042683692
 30
0.0
 10
60.2730166621
 20
40.2333114589
 30
0.0
  0
SPLINE
  5
243
100
AcDbEntity
  8
0
100
AcDbSpline
 62
7
  6
BYLAYER
 70
0
 71
3
 72
11
 73
7
 74
0
 42
0.0000001
 43
0.0000001
 44
0.0000000001
 40
0.0
 40
0.0
 40
0.0
 40
0.0
 40
0.2897016594
 40
0.5490895814
 40
0.7822189142
 40
1.0
 40
1.0
 40
1.0
 40
1.0
 10
60.2730166621
 20
40.2333114589
 30
0.0
 10
60.2730166621
 20
40.131975527
 30
0.0
 10
60.2576527523
 20
39.9392550724
 30
0.0
 10
60.1796073632
 20
39.674465315
 30
0.0
 10
60.0481952738
 20
39.4596035874
 30
0.0
 10
59.9247590936
 20
39.3558395616
 30
0.0
 10
59.8587893231
 20
39.3177454774
 30
0.0
  0
SPLINE
  5
244
100
AcDbEntity
  8
0
100
AcDbSpline
 62
7
  6
BYLAYER
 70
0
 71
3
 72
11
 73
7
 74
0
 42
0.0000001
 43
0.0000001
 44
0.0000000001
 40
0.0
 40
0.0
 40
0.0
 40
0.0
 40
0.2897016594
 40
0.5490895814
 40
0.7822189142
 40
1.0
 40
1.0
 40
1.0
 40
1.0
 10
17.8464331532
 20
76.1587905699
 30
0.0
 10
17.8464331532
 20
76.0574546381
 30
0.0
 10
17.8310692434
 20
75.8647341835
 30
0.0
 10
17.7530238543
 20
75.5999444261
 30
0.0
 10
17.6216117649
 20
75.3850826984
 30
0.0
 10
17.4981755848
 20
75.2813186727
 30
0.0
 10
17.4322058143
 20
75.2432245885
 30
0.0
  0
SPLINE
  5
245
100
AcDbEntity
  8
0
100
AcDbSpline
 62
7
  6
BYLAYER
 70
0
 71
3
 72
11
 73
7
 74
0
 42
0.0000001
 43
0.0000001
 44
0.0000000001
 40
0.0
 40
0.0
 40
0.0
 40
0.0
 40
0.2897016594
 40
0.5490895814
 40
0.7822189142
 40
1.0
 40
1.0
 40
1.0
 40
1.0
 10
17.8464331532
 20
69.6267712329
 30
0.0
 10
17.8464331532
 20
69.525435301
 30
0.0
 10
17.8310692434
 20
69.3327148464
 30
0.0
 10
17.7530238543
 20
69.067925089
 30
0.0
 10
17.6216117649
 20
68.8530633614
 30
0.0
 10
17.4981755848
 20
68.7492993356
 30
0.0
 10
17.4322058143
 20
68.7112052514
 30
0.0
  0
SPLINE
  5
246
100
AcDbEntity
  8
0
100
AcDbSpline
 62
7
  6
BYLAYER
 70
0
 71
3
 72
11
 73
7
 74
0
 42
0.0000001
 43
0.0000001
 44
0.0000000001
 40
0.0
 40
0.0
 40
0.0
 40
0.0
 40
0.2897016594
 40
0.5490895814
 40
0.7822189142
 40
1.0
 40
1.0
 40
1.0
 40
1.0
 10
17.8464331532
 20
64.7277567301
 30
0.0
 10
17.8464331532
 20
64.6264207982
 30
0.0
 10
17.8310692434
 20
64.4337003437
 30
0.0
 10
17.7530238543
 20
64.1689105862
 30
0.0
 10
17.6216117649
 20
63.9540488586
 30
0.0
 10
17.4981755848
 20
63.8502848329
 30
0.0
 10
17.4322058143
 20
63.8121907487
 30
0.0
  0
SPLINE
  5
247
100
AcDbEntity
  8
0
100
AcDbSpline
 62
7
  6
BYLAYER
 70
0
 71
3
 72
9
 73
5
 74
0
 42
0.0000001
 43
0.0000001
 44
0.0000000001
 40
0.0
 40
0.0
 40
0.0
 40
0.0
 40
0.2473109588
 40
1.0
 40
1.0
 40
1.0
 40
1.0
 10
68.136943306
 20
44.3158301885
 30
0.0
 10
68.1369374252
 20
44.3010253644
 30
0.0
 10
68.1342771598
 20
44.241179251
 30
0.0
 10
68.1208114508
 20
44.1819187841
 30
0.0
 10
68.1055537178
 20
44.1395223376
 30
0.0
  0
SPLINE
  5
248
100
AcDbEntity
  8
0
100
AcDbSpline
 62
7
  6
BYLAYER
 70
0
 71
3
 72
11
 73
7
 74
0
 42
0.0000001
 43
0.0000001
 44
0.0000000001
 40
0.0
 40
0.0
 40
0.0
 40
0.0
 40
0.2212052706
 40
0.459778159
 40
0.7193015264
 40
1.0
 40
1.0
 40
1.0
 40
1.0
 10
68.1055537178
 20
44.1395223376
 30
0.0
 10
68.0903605863
 20
44.0973053985
 30
0.0
 10
68.0480738786
 20
44.0131872899
 30
0.0
 10
67.9570345842
 20
43.8981558799
 30
0.0
 10
67.8386589231
 20
43.7925803529
 30
0.0
 10
67.7469463459
 20
43.7319362008
 30
0.0
 10
67.6976393364
 20
43.7034689555
 30
0.0
  0
SPLINE
  5
249
100
AcDbEntity
  8
0
100
AcDbSpline
 62
7
  6
BYLAYER
 70
0
 71
3
 72
11
 73
7
 74
0
 42
0.0000001
 43
0.0000001
 44
0.0000000001
 40
0.0
 40
0.0
 40
0.0
 40
0.0
 40
0.2177508335
 40
0.4508940037
 40
0.710465094
 40
1.0
 40
1.0
 40
1.0
 40
1.0
 10
24.4175499841
 20
69.2680911012
 30
0.0
 10
24.450530492
 20
69.2871322966
 30
0.0
 10
24.5262841409
 20
69.3147199196
 30
0.0
 10
24.6522177968
 20
69.3178776744
 30
0.0
 10
24.7863622664
 20
69.2854077348
 30
0.0
 10
24.8736714194
 20
69.2439250809
 30
0.0
 10
24.9175245168
 20
69.2186070561
 30
0.0
  0
SPLINE
  5
24A
100
AcDbEntity
  8
0
100
AcDbSpline
 62
7
  6
BYLAYER
 70
0
 71
3
 72
14
 73
10
 74
0
 42
0.0000001
 43
0.0000001
 44
0.0000000001
 40
0.0
 40
0.0
 40
0.0
 40
0.0
 40
0.1083456523
 40
0.2186846247
 40
0.3328291943
 40
0.4522890555
 40
0.578201262
 40
0.7113021513
 40
1.0
 40
1.0
 40
1.0
 40
1.0
 10
10.1522216689
 20
61.6932985057
 30
0.0
 10
10.0874934205
 20
61.7306691605
 30
0.0
 10
9.9629669283
 20
61.8173018507
 30
0.0
 10
9.7981564233
 20
61.9785285486
 30
0.0
 10
9.6559435905
 20
62.1695920116
 30
0.0
 10
9.5377188726
 20
62.3884912739
 30
0.0
 10
9.4443567147
 20
62.6330484719
 30
0.0
 10
9.3514556901
 20
62.9999432192
 30
0.0
 10
9.3256787596
 20
63.2921229651
 30
0.0
 10
9.3239080556
 20
63.4912716698
 30
0.0
  0
SPLINE
  5
24B
100
AcDbEntity
  8
0
100
AcDbSpline
 62
7
  6
BYLAYER
 70
0
 71
3
 72
9
 73
5
 74
0
 42
0.0000001
 43
0.0000001
 44
0.0000000001
 40
0.0
 40
0.0
 40
0.0
 40
0.0
 40
0.2636698379
 40
1.0
 40
1.0
 40
1.0
 40
1.0
 10
12.180887396
 20
68.4398163517
 30
0.0
 10
12.2416799518
 20
68.4741968637
 30
0.0
 10
12.4758050258
 20
68.5979717905
 30
0.0
 10
12.7251995898
 20
68.6945459295
 30
0.0
 10
12.9142242657
 20
68.7426083494
 30
0.0
  0
SPLINE
  5
24C
100
AcDbEntity
  8
0
100
AcDbSpline
 62
7
  6
BYLAYER
 70
0
 71
3
 72
15
 73
11
 74
0
 42
0.0000001
 43
0.0000001
 44
0.0000000001
 40
0.0
 40
0.0
 40
0.0
 40
0.0
 40
0.1137551665
 40
0.2366908384
 40
0.3662662323
 40
0.4993460278
 40
0.6325236981
 40
0.7623513249
 40
0.8857360578
 40
1.0
 40
1.0
 40
1.0
 40
1.0
 10
9.3170511363
 20
64.2684643829
 30
0.0
 10
9.3155343059
 20
64.4399974682
 30
0.0
 10
9.3443513618
 20
64.7975279848
 30
0.0
 10
9.4668447484
 20
65.3376051621
 30
0.0
 10
9.6657738349
 20
65.885503089
 30
0.0
 10
9.933607496
 20
66.420380938
 30
0.0
 10
10.2602108505
 20
66.9219851677
 30
0.0
 10
10.6331994706
 20
67.3714767281
 30
0.0
 10
11.0384591826
 20
67.7515588417
 30
0.0
 10
11.3331937149
 20
67.9584630493
 30
0.0
 10
11.4824161872
 20
68.0446161696
 30
0.0
  0
SPLINE
  5
24D
100
AcDbEntity
  8
0
100
AcDbSpline
 62
7
  6
BYLAYER
 70
0
 71
3
 72
17
 73
13
 74
0
 42
0.0000001
 43
0.0000001
 44
0.0000000001
 40
0.0
 40
0.0
 40
0.0
 40
0.0
 40
0.1246192356
 40
0.2612652608
 40
0.4040397335
 40
0.5461447263
 40
0.6808546098
 40
0.802625097
 40
0.857681239
 40
0.9086659221
 40
0.9558802134
 40
1.0
 40
1.0
 40
1.0
 40
1.0
 10
67.6976393364
 20
43.7034689555
 30
0.0
 10
67.5961067744
 20
43.6448494534
 30
0.0
 10
67.3679791016
 20
43.5478345223
 30
0.0
 10
66.9955180035
 20
43.4643402784
 30
0.0
 10
66.5980860878
 20
43.4398211945
 30
0.0
 10
66.2033705139
 20
43.4760663626
 30
0.0
 10
65.8387212373
 20
43.5705108289
 30
0.0
 10
65.5713995524
 20
43.6968583259
 30
0.0
 10
65.3976303061
 20
43.823308849
 30
0.0
 10
65.2939327075
 20
43.9243225309
 30
0.0
 10
65.2143926293
 20
44.0328681631
 30
0.0
 10
65.1777505934
 20
44.1114050844
 30
0.0
 10
65.1645117907
 20
44.150744294
 30
0.0
  0
SPLINE
  5
24E
100
AcDbEntity
  8
0
100
AcDbSpline
 62
7
  6
BYLAYER
 70
0
 71
3
 72
9
 73
5
 74
0
 42
0.0000001
 43
0.0000001
 44
0.0000000001
 40
0.0
 40
0.0
 40
0.0
 40
0.0
 40
0.2543035794
 40
1.0
 40
1.0
 40
1.0
 40
1.0
 10
65.1645117907
 20
44.150744294
 30
0.0
 10
65.1599756265
 20
44.1642235429
 30
0.0
 10
65.1441528192
 20
44.2178803192
 30
0.0
 10
65.1369896261
 20
44.2741265344
 30
0.0
 10
65.1370061915
 20
44.315829986
 30
0.0
  0
SPLINE
  5
24F
100
AcDbEntity
  8
0
100
AcDbSpline
 62
7
  6
BYLAYER
 70
0
 71
3
 72
13
 73
9
 74
0
 42
0.0000001
 43
0.0000001
 44
0.0000000001
 40
0.0
 40
0.0
 40
0.0
 40
0.0
 40
0.1141732089
 40
0.2375638708
 40
0.4999989157
 40
0.7624345537
 40
0.8858259098
 40
1.0
 40
1.0
 40
1.0
 40
1.0
 10
24.9175245168
 20
65.1360949704
 30
0.0
 10
24.869152974
 20
65.1640216619
 30
0.0
 10
24.7735551519
 20
65.2310975248
 30
0.0
 10
24.5944602303
 20
65.3985578583
 30
0.0
 10
24.4054534824
 20
65.6569450941
 30
0.0
 10
24.2761854987
 20
65.9498230476
 30
0.0
 10
24.2207063037
 20
66.1886546366
 30
0.0
 10
24.2104147916
 20
66.3049833803
 30
0.0
 10
24.2104147916
 20
66.3608381421
 30
0.0
  0
SPLINE
  5
250
100
AcDbEntity
  8
0
100
AcDbSpline
 62
7
  6
BYLAYER
 70
0
 71
3
 72
18
 73
14
 74
0
 42
0.0000001
 43
0.0000001
 44
0.0000000001
 40
0.0
 40
0.0
 40
0.0
 40
0.0
 40
0.0428479429
 40
0.0874623066
 40
0.1352840435
 40
0.1872323096
 40
0.2437220832
 40
0.3047263631
 40
0.4383562007
 40
0.5826594577
 40
0.729784539
 40
0.8713400481
 40
1.0
 40
1.0
 40
1.0
 40
1.0
 10
59.8587893231
 20
39.3177454774
 30
0.0
 10
59.8094849338
 20
39.2892747773
 30
0.0
 10
59.7007850983
 20
39.2441392793
 30
0.0
 10
59.5213824002
 20
39.2178033377
 30
0.0
 10
59.3287219565
 20
39.2320129452
 30
0.0
 10
59.1270932306
 20
39.2855688891
 30
0.0
 10
58.920432541
 20
39.3768797218
 30
0.0
 10
58.6351668463
 20
39.551502164
 30
0.0
 10
58.295318331
 20
39.8524709811
 30
0.0
 10
57.9460512992
 20
40.299600452
 30
0.0
 10
57.6709128423
 20
40.808084196
 30
0.0
 10
57.4924036522
 20
41.3358544822
 30
0.0
 10
57.4445777615
 20
41.6953175667
 30
0.0
 10
57.4445777615
 20
41.866274477
 30
0.0
  0
SPLINE
  5
251
100
AcDbEntity
  8
0
100
AcDbSpline
 62
7
  6
BYLAYER
 70
0
 71
3
 72
17
 73
13
 74
0
 42
0.0000001
 43
0.0000001
 44
0.0000000001
 40
0.0
 40
0.0
 40
0.0
 40
0.0
 40
0.0441193168
 40
0.091335701
 40
0.1423216268
 40
0.1973797974
 40
0.3191493863
 40
0.4538551679
 40
0.5959596091
 40
0.7387357698
 40
0.8753845395
 40
1.0
 40
1.0
 40
1.0
 40
1.0
 10
68.1093888336
 20
44.2769392954
 30
0.0
 10
68.0961412939
 20
44.3162726715
 30
0.0
 10
68.0594822991
 20
44.3947982883
 30
0.0
 10
67.9799174302
 20
44.5033190163
 30
0.0
 10
67.8762126597
 20
44.6043204051
 30
0.0
 10
67.7024302824
 20
44.7307369626
 30
0.0
 10
67.4351204984
 20
44.857059152
 30
0.0
 10
67.0704913522
 20
44.9514788942
 30
0.0
 10
66.6758000677
 20
44.9877100476
 30
0.0
 10
66.2783867929
 20
44.9631873234
 30
0.0
 10
65.9059472428
 20
44.8796905234
 30
0.0
 10
65.6778340239
 20
44.7826800944
 30
0.0
 10
65.576310161
 20
44.7240656148
 30
0.0
  0
SPLINE
  5
252
100
AcDbEntity
  8
0
100
AcDbSpline
 62
7
  6
BYLAYER
 70
0
 71
3
 72
11
 73
7
 74
0
 42
0.0000001
 43
0.0000001
 44
0.0000000001
 40
0.0
 40
0.0
 40
0.0
 40
0.0
 40
0.2177648073
 40
0.4508950352
 40
0.7103684932
 40
1.0
 40
1.0
 40
1.0
 40
1.0
 10
65.1370061915
 20
44.315829986
 30
0.0
 10
65.1370288834
 20
44.372957244
 30
0.0
 10
65.1580506833
 20
44.4920434149
 30
0.0
 10
65.2483766671
 20
44.6579759339
 30
0.0
 10
65.3911115364
 20
44.8079314192
 30
0.0
 10
65.5105091144
 20
44.8902011939
 30
0.0
 10
65.576310161
 20
44.9281912191
 30
0.0
  0
SPLINE
  5
253
100
AcDbEntity
  8
0
100
AcDbSpline
 62
7
  6
BYLAYER
 70
0
 71
3
 72
15
 73
11
 74
0
 42
0.0000001
 43
0.0000001
 44
0.0000000001
 40
0.0
 40
0.0
 40
0.0
 40
0.0
 40
0.1141232787
 40
0.2373467935
 40
0.3669716251
 40
0.4999988493
 40
0.6330262331
 40
0.7626515288
 40
0.885875802
 40
1.0
 40
1.0
 40
1.0
 40
1.0
 10
24.2104206796
 20
63.9113483994
 30
0.0
 10
24.1136330662
 20
63.9672274899
 30
0.0
 10
23.9224172839
 20
64.1013190628
 30
0.0
 10
23.6592598288
 20
64.3474321942
 30
0.0
 10
23.4168002633
 20
64.6384703263
 30
0.0
 10
23.2040746766
 20
64.9633225166
 30
0.0
 10
23.0291053325
 20
65.3099739265
 30
0.0
 10
22.8982863256
 20
65.6654696964
 30
0.0
 10
22.8167221344
 20
66.0164288155
 30
0.0
 10
22.7962012293
 20
66.2490737652
 30
0.0
 10
22.7962012293
 20
66.3608347427
 30
0.0
  0
SPLINE
  5
254
100
AcDbEntity
  8
0
100
AcDbSpline
 62
7
  6
BYLAYER
 70
0
 71
3
 72
17
 73
13
 74
0
 42
0.0000001
 43
0.0000001
 44
0.0000000001
 40
0.0
 40
0.0
 40
0.0
 40
0.0
 40
0.128688448
 40
0.2702796817
 40
0.4174325464
 40
0.5617749928
 40
0.6954478191
 40
0.8127119577
 40
0.8646769781
 40
0.912510124
 40
0.9571398159
 40
1.0
 40
1.0
 40
1.0
 40
1.0
 10
65.576310161
 20
44.9281912191
 30
0.0
 10
65.6873450943
 20
44.992296885
 30
0.0
 10
65.9387483318
 20
45.0960250246
 30
0.0
 10
66.3484805718
 20
45.1780029416
 30
0.0
 10
66.7818482394
 20
45.1899996096
 30
0.0
 10
67.2034803746
 20
45.1307531207
 30
0.0
 10
67.5791992233
 20
45.005258786
 30
0.0
 10
67.8405119987
 20
44.846194537
 30
0.0
 10
67.993862753
 20
44.6922868397
 30
0.0
 10
68.075332359
 20
44.5724622287
 30
0.0
 10
68.1255341291
 20
44.4460712847
 30
0.0
 10
68.1369602677
 20
44.3585316551
 30
0.0
 10
68.136943306
 20
44.3158301885
 30
0.0
  0
SPLINE
  5
255
100
AcDbEntity
  8
0
100
AcDbSpline
 62
7
  6
BYLAYER
 70
0
 71
3
 72
11
 73
7
 74
0
 42
0.0000001
 43
0.0000001
 44
0.0000000001
 40
0.0
 40
0.0
 40
0.0
 40
0.0
 40
0.2807162871
 40
0.5402414285
 40
0.7788048355
 40
1.0
 40
1.0
 40
1.0
 40
1.0
 10
65.576310161
 20
44.7240656148
 30
0.0
 10
65.5269914935
 20
44.6955916388
 30
0.0
 10
65.4352599843
 20
44.6349340094
 30
0.0
 10
65.3168679053
 20
44.5293320678
 30
0.0
 10
65.2258252805
 20
44.4142751313
 30
0.0
 10
65.1835460372
 20
44.3301387074
 30
0.0
 10
65.1683600085
 20
44.2879131444
 30
0.0
  0
SPLINE
  5
256
100
AcDbEntity
  8
0
100
AcDbSpline
 62
7
  6
BYLAYER
 70
0
 71
3
 72
11
 73
7
 74
0
 42
0.0000001
 43
0.0000001
 44
0.0000000001
 40
0.0
 40
0.0
 40
0.0
 40
0.0
 40
0.289535909
 40
0.5491073528
 40
0.7822501147
 40
1.0
 40
1.0
 40
1.0
 40
1.0
 10
24.2104147916
 20
68.8103453934
 30
0.0
 10
24.2104147916
 20
68.8609838313
 30
0.0
 10
24.2181436415
 20
68.9573399973
 30
0.0
 10
24.2570960973
 20
69.0897515217
 30
0.0
 10
24.3227987486
 20
69.1972375029
 30
0.0
 10
24.3845687382
 20
69.2490494796
 30
0.0
 10
24.4175499841
 20
69.2680911012
 30
0.0
  0
SPLINE
  5
257
100
AcDbEntity
  8
0
100
AcDbSpline
 62
7
  6
BYLAYER
 70
0
 71
3
 72
18
 73
14
 74
0
 42
0.0000001
 43
0.0000001
 44
0.0000000001
 40
0.0
 40
0.0
 40
0.0
 40
0.0
 40
0.0428479429
 40
0.0874623066
 40
0.1352840435
 40
0.1872323096
 40
0.2437220832
 40
0.3047263631
 40
0.4383562007
 40
0.5826594577
 40
0.729784539
 40
0.8713400481
 40
1.0
 40
1.0
 40
1.0
 40
1.0
 10
17.4322058143
 20
68.7112052514
 30
0.0
 10
17.382901425
 20
68.6827345513
 30
0.0
 10
17.2742015894
 20
68.6375990533
 30
0.0
 10
17.0947988913
 20
68.6112631117
 30
0.0
 10
16.9021384477
 20
68.6254727192
 30
0.0
 10
16.7005097218
 20
68.6790286631
 30
0.0
 10
16.4938490322
 20
68.7703394958
 30
0.0
 10
16.2085833374
 20
68.944961938
 30
0.0
 10
15.8687348222
 20
69.2459307551
 30
0.0
 10
15.5194677904
 20
69.693060226
 30
0.0
 10
15.2443293335
 20
70.20154397
 30
0.0
 10
15.0658201434
 20
70.7293142562
 30
0.0
 10
15.0179942527
 20
71.0887773407
 30
0.0
 10
15.0179942527
 20
71.259734251
 30
0.0
  0
SPLINE
  5
258
100
AcDbEntity
  8
0
100
AcDbSpline
 62
7
  6
BYLAYER
 70
0
 71
3
 72
15
 73
11
 74
0
 42
0.0000001
 43
0.0000001
 44
0.0000000001
 40
0.0
 40
0.0
 40
0.0
 40
0.0
 40
0.1448520769
 40
0.2745457152
 40
0.3911098206
 40
0.5000019296
 40
0.6088936798
 40
0.7254568371
 40
0.8551492479
 40
1.0
 40
1.0
 40
1.0
 40
1.0
 10
22.7962012293
 20
68.8103419941
 30
0.0
 10
22.7962012293
 20
68.9116772171
 30
0.0
 10
22.8115782727
 20
69.1044031052
 30
0.0
 10
22.889573123
 20
69.3691577032
 30
0.0
 10
23.0211460676
 20
69.5841129295
 30
0.0
 10
23.2036228411
 20
69.7376747695
 30
0.0
 10
23.4278470283
 20
69.8189289146
 30
0.0
 10
23.6797883948
 20
69.8254020448
 30
0.0
 10
23.9480687153
 20
69.7605749181
 30
0.0
 10
24.1226621085
 20
69.6775316077
 30
0.0
 10
24.2104206796
 20
69.6268653193
 30
0.0
  0
SPLINE
  5
259
100
AcDbEntity
  8
0
100
AcDbSpline
 62
7
  6
BYLAYER
 70
0
 71
3
 72
11
 73
7
 74
0
 42
0.0000001
 43
0.0000001
 44
0.0000000001
 40
0.0
 40
0.0
 40
0.0
 40
0.0
 40
0.2897016594
 40
0.5490895814
 40
0.7822189142
 40
1.0
 40
1.0
 40
1.0
 40
1.0
 10
57.4445777615
 20
41.866274477
 30
0.0
 10
57.4445777615
 20
41.9676104089
 30
0.0
 10
57.4599416713
 20
42.1603308635
 30
0.0
 10
57.5379870604
 20
42.4251206209
 30
0.0
 10
57.6693991498
 20
42.6399823485
 30
0.0
 10
57.7928353299
 20
42.7437463743
 30
0.0
 10
57.8588051004
 20
42.7818404585
 30
0.0
  0
SPLINE
  5
25A
100
AcDbEntity
  8
0
100
AcDbSpline
 62
7
  6
BYLAYER
 70
0
 71
3
 72
15
 73
11
 74
0
 42
0.0000001
 43
0.0000001
 44
0.0000000001
 40
0.0
 40
0.0
 40
0.0
 40
0.0
 40
0.1117256342
 40
0.2315840067
 40
0.3577815632
 40
0.4880864531
 40
0.6200048845
 40
0.7509497753
 40
0.8783711469
 40
1.0
 40
1.0
 40
1.0
 40
1.0
 10
9.3239080556
 20
63.4912716698
 30
0.0
 10
9.32218286
 20
63.6853021177
 30
0.0
 10
9.3499322694
 20
64.0880930439
 30
0.0
 10
9.4711282873
 20
64.698898477
 30
0.0
 10
9.669941537
 20
65.3229289813
 30
0.0
 10
9.9406232712
 20
65.9420709052
 30
0.0
 10
10.2753622724
 20
66.5384917314
 30
0.0
 10
10.6644949219
 20
67.0948968518
 30
0.0
 10
11.0966122773
 20
67.595205766
 30
0.0
 10
11.414426457
 20
67.8903394911
 30
0.0
 10
11.5780508312
 20
68.0239370502
 30
0.0
  0
SPLINE
  5
25B
100
AcDbEntity
  8
0
100
AcDbSpline
 62
7
  6
BYLAYER
 70
0
 71
3
 72
9
 73
5
 74
0
 42
0.0000001
 43
0.0000001
 44
0.0000000001
 40
0.0
 40
0.0
 40
0.0
 40
0.0
 40
0.258663766
 40
1.0
 40
1.0
 40
1.0
 40
1.0
 10
11.5780508312
 20
68.0239370502
 30
0.0
 10
11.6247910068
 20
68.0620999059
 30
0.0
 10
11.8081654634
 20
68.2062962056
 30
0.0
 10
12.0024066326
 20
68.3369406219
 30
0.0
 10
12.1521763767
 20
68.4234097078
 30
0.0
  0
SPLINE
  5
25C
100
AcDbEntity
  8
0
100
AcDbSpline
 62
7
  6
BYLAYER
 70
0
 71
3
 72
11
 73
7
 74
0
 42
0.0000001
 43
0.0000001
 44
0.0000000001
 40
0.0
 40
0.0
 40
0.0
 40
0.0
 40
0.2897016594
 40
0.5490895814
 40
0.7822189142
 40
1.0
 40
1.0
 40
1.0
 40
1.0
 10
15.0179942527
 20
77.791753588
 30
0.0
 10
15.0179942527
 20
77.8930895199
 30
0.0
 10
15.0333581625
 20
78.0858099745
 30
0.0
 10
15.1114035515
 20
78.3505997319
 30
0.0
 10
15.242815641
 20
78.5654614595
 30
0.0
 10
15.3662518211
 20
78.6692254853
 30
0.0
 10
15.4322215916
 20
78.7073195695
 30
0.0
  0
SPLINE
  5
25D
100
AcDbEntity
  8
0
100
AcDbSpline
 62
7
  6
BYLAYER
 70
0
 71
3
 72
18
 73
14
 74
0
 42
0.0000001
 43
0.0000001
 44
0.0000000001
 40
0.0
 40
0.0
 40
0.0
 40
0.0
 40
0.0428479429
 40
0.0874623066
 40
0.1352840435
 40
0.1872323096
 40
0.2437220832
 40
0.3047263631
 40
0.4383562007
 40
0.5826594577
 40
0.729784539
 40
0.8713400481
 40
1.0
 40
1.0
 40
1.0
 40
1.0
 10
17.4322058143
 20
75.2432245885
 30
0.0
 10
17.382901425
 20
75.2147538883
 30
0.0
 10
17.2742015894
 20
75.1696183903
 30
0.0
 10
17.0947988913
 20
75.1432824488
 30
0.0
 10
16.9021384477
 20
75.1574920562
 30
0.0
 10
16.7005097218
 20
75.2110480001
 30
0.0
 10
16.4938490322
 20
75.3023588328
 30
0.0
 10
16.2085833374
 20
75.4769812751
 30
0.0
 10
15.8687348222
 20
75.7779500921
 30
0.0
 10
15.5194677904
 20
76.225079563
 30
0.0
 10
15.2443293335
 20
76.733563307
 30
0.0
 10
15.0658201434
 20
77.2613335932
 30
0.0
 10
15.0179942527
 20
77.6207966778
 30
0.0
 10
15.0179942527
 20
77.791753588
 30
0.0
  0
SPLINE
  5
25E
100
AcDbEntity
  8
0
100
AcDbSpline
 62
7
  6
BYLAYER
 70
0
 71
3
 72
11
 73
7
 74
0
 42
0.0000001
 43
0.0000001
 44
0.0000000001
 40
0.0
 40
0.0
 40
0.0
 40
0.0
 40
0.2897016594
 40
0.5490895814
 40
0.7822189142
 40
1.0
 40
1.0
 40
1.0
 40
1.0
 10
15.0179942527
 20
71.259734251
 30
0.0
 10
15.0179942527
 20
71.3610701829
 30
0.0
 10
15.0333581625
 20
71.5537906375
 30
0.0
 10
15.1114035515
 20
71.8185803949
 30
0.0
 10
15.242815641
 20
72.0334421225
 30
0.0
 10
15.3662518211
 20
72.1372061483
 30
0.0
 10
15.4322215916
 20
72.1753002325
 30
0.0
  0
SPLINE
  5
25F
100
AcDbEntity
  8
0
100
AcDbSpline
 62
7
  6
BYLAYER
 70
0
 71
3
 72
18
 73
14
 74
0
 42
0.0000001
 43
0.0000001
 44
0.0000000001
 40
0.0
 40
0.0
 40
0.0
 40
0.0
 40
0.0428479429
 40
0.0874623066
 40
0.1352840435
 40
0.1872323096
 40
0.2437220832
 40
0.3047263631
 40
0.4383562007
 40
0.5826594577
 40
0.729784539
 40
0.8713400481
 40
1.0
 40
1.0
 40
1.0
 40
1.0
 10
17.4322058143
 20
63.8121907487
 30
0.0
 10
17.382901425
 20
63.7837200485
 30
0.0
 10
17.2742015894
 20
63.7385845505
 30
0.0
 10
17.0947988913
 20
63.712248609
 30
0.0
 10
16.9021384477
 20
63.7264582164
 30
0.0
 10
16.7005097218
 20
63.7800141603
 30
0.0
 10
16.4938490322
 20
63.871324993
 30
0.0
 10
16.2085833374
 20
64.0459474352
 30
0.0
 10
15.8687348222
 20
64.3469162523
 30
0.0
 10
15.5194677904
 20
64.7940457232
 30
0.0
 10
15.2443293335
 20
65.3025294672
 30
0.0
 10
15.0658201434
 20
65.8302997534
 30
0.0
 10
15.0179942527
 20
66.1897628379
 30
0.0
 10
15.0179942527
 20
66.3607197482
 30
0.0
  0
SPLINE
  5
260
100
AcDbEntity
  8
0
100
AcDbSpline
 62
7
  6
BYLAYER
 70
0
 71
3
 72
11
 73
7
 74
0
 42
0.0000001
 43
0.0000001
 44
0.0000000001
 40
0.0
 40
0.0
 40
0.0
 40
0.0
 40
0.2897016594
 40
0.5490895814
 40
0.7822189142
 40
1.0
 40
1.0
 40
1.0
 40
1.0
 10
15.0179942527
 20
66.3607197482
 30
0.0
 10
15.0179942527
 20
66.4620556801
 30
0.0
 10
15.0333581625
 20
66.6547761347
 30
0.0
 10
15.1114035515
 20
66.9195658921
 30
0.0
 10
15.242815641
 20
67.1344276197
 30
0.0
 10
15.3662518211
 20
67.2381916455
 30
0.0
 10
15.4322215916
 20
67.2762857297
 30
0.0
  0
ENDSEC
  0
SECTION
  2
OBJECTS
  0
DICTIONARY
  5
C
100
AcDbDictionary
280
0
281
1
  3
ACAD_GROUP
350
D
  3
ACAD_MLINESTYLE
350
17
  3
ACAD_LAYOUT
350
1A
  3
ACAD_PLOTSETTINGS
350
19
  3
ACAD_PLOTSTYLENAME
350
E
  0
DICTIONARY
  5
D
102
{ACAD_REACTORS
330
C
102
}
100
AcDbDictionary
280
0
281
1
  0
ACDBDICTIONARYWDFLT
  5
E
102
{ACAD_REACTORS
330
C
102
}
100
AcDbDictionary
281
1
  3
Normal
350
F
100
AcDbDictionaryWithDefault
340
F
  0
DICTIONARY
  5
17
102
{ACAD_REACTORS
330
C
102
}
100
AcDbDictionary
280
0
281
1
  3
Standard
350
18
  0
DICTIONARY
  5
19
102
{ACAD_REACTORS
330
C
102
}
100
AcDbDictionary
281
1
  0
DICTIONARY
  5
1A
102
{ACAD_REACTORS
330
C
102
}
100
AcDbDictionary
281
1
  3
Model
350
261
  3
Layout1
350
262
  0
ACDBPLACEHOLDER
  5
F
102
{ACAD_REACTORS
330
E
102
}
  0
MLINESTYLE
  5
18
102
{ACAD_REACTORS
330
17
102
}
100
AcDbMlineStyle
  2
STANDARD
 70
0
  3

 62
256
 51
90.0
 52
90.0
 71
2
 49
0.5
 62
256
  6
BYLAYER
 49
-0.5
 62
256
  6
BYLAYER
  0
LAYOUT
  5
261
102
{ACAD_REACTORS
330
1A
102
}
100
AcDbPlotSettings
  1

  2
none_device
  4

  6

 40
0.0
 41
0.0
 42
0.0
 43
0.0
 44
210.0
 45
297.0
 46
0.0
 47
0.0
 48
0.0
 49
0.0
140
0.0
141
0.0
142
1.0
143
1.0
 70
1024
 72
1
 73
0
 74
0
  7

 75
0
147
1.0
148
0.0
149
0.0
100
AcDbLayout
  1
Model
 70
0
 71
0
 10
0.0
 20
0.0
 11
210.0
 21
297.0
 12
0.0
 22
0.0
 32
0.0
 14
0.0
 24
0.0
 34
0.0
 15
0.0
 25
0.0
 35
0.0
146
0.0
 13
0.0
 23
0.0
 33
0.0
 16
1.0
 26
0.0
 36
0.0
 17
0.0
 27
1.0
 37
0.0
 76
0
330
210
345
0
346
0
  0
LAYOUT
  5
262
102
{ACAD_REACTORS
330
1A
102
}
100
AcDbPlotSettings
  1

  2
none_device
  4

  6

 40
0.0
 41
0.0
 42
0.0
 43
0.0
 44
210.0
 45
297.0
 46
0.0
 47
0.0
 48
0.0
 49
0.0
140
0.0
141
0.0
142
1.0
143
1.0
 70
0
 72
1
 73
0
 74
0
  7

 75
0
147
1.0
148
0.0
149
0.0
100
AcDbLayout
  1
Layout1
 70
0
 71
1
 10
0.0
 20
0.0
 11
210.0
 21
297.0
 12
0.0
 22
0.0
 32
0.0
 14
0.0
 24
0.0
 34
0.0
 15
0.0
 25
0.0
 35
0.0
146
0.0
 13
0.0
 23
0.0
 33
0.0
 16
1.0
 26
0.0
 36
0.0
 17
0.0
 27
1.0
 37
0.0
 76
0
330
211
345
0
346
0
  0
ENDSEC
  0
EOF
