999
DXF file: C:\Users\sesa63760\Dev\_Creo\CAD\MCADID0004511_3D-CAD\drw0001_1.dxf
999
Pro/ENGINEER 2019471 by Parametric Technology Corporation
  0
SECTION
  2
HEADER
  9
$ACADVER
  1
AC1024
  9
$DWGCODEPAGE
  3
ANSI_1252
  9
$EXTMAX
 10
22.1109821163
 20
31.2712461359
 30
0.0
  9
$EXTMIN
 10
0.0
 20
0.0
 30
0.0
  9
$LIMMIN
 10
0.0
 20
0.0
  9
$LIMMAX
 10
22.1109821163
 20
31.2712461359
  9
$VIEWCTR
 10
11.0554910581
 20
15.6356230679
  9
$VIEWSIZE
 40
31.2712461359
  9
$CLAYER
  8
0
  9
$LTSCALE
 40
2.0384219703
  9
$CELTYPE
  6
BYLAYER
  9
$DIMSCALE
 40
1.0
  9
$DIMASZ
 40
0.2632259776
  9
$DIMEXO
 40
1.0
  9
$DIMDLI
 40
1.4083642704
  9
$DIMEXE
 40
1.0
  9
$DIMCEN
 40
0.3335599588
  9
$DIMLFAC
 40
1.0
  9
$DIMBLK
  1
_FILLED
  9
$DIMALT
 70
0
  9
$DIMALTF
 40
0.0393700787
  9
$DIMTXT
 40
0.3685163686
  9
$DIMTOL
 70
1
  9
$DIMLIM
 70
0
  9
$DIMTFAC
 40
1.0
  9
$DIMTP
 40
0.01
  9
$DIMTM
 40
0.01
  9
$DIMGAP
 40
0.625
  9
$DIMDSEP
 70
46
  9
$AUNITS
 70
0
  9
$PDMODE
 70
3
  9
$PDSIZE
 40
0.3125
  9
$HANDSEED
  5
231
  9
$TILEMODE
 70
1
  9
$MEASUREMENT
 70
1
  9
$INSUNITS
 70
4
  0
ENDSEC
  0
SECTION
  2
CLASSES
  0
CLASS
  1
ACDBDICTIONARYWDFLT
  2
AcDbDictionaryWithDefault
  3
AutoCAD 2000
 90
0
 91
1
280
0
281
0
  0
CLASS
  1
ACDBPLACEHOLDER
  2
AcDbPlaceHolder
  3
AutoCAD 2000
 90
0
 91
1
280
0
281
0
  0
CLASS
  1
LAYOUT
  2
AcDbLayout
  3
AutoCAD 2000
 90
0
 91
0
280
0
281
0
  0
ENDSEC
  0
SECTION
  2
TABLES
  0
TABLE
  2
VPORT
  5
8
100
AcDbSymbolTable
 70
2
  0
VPORT
  5
1F4
100
AcDbSymbolTableRecord
100
AcDbViewportTableRecord
  2
*ACTIVE
 70
0
 10
0.0
 20
0.0
 11
1.0
 21
1.0
 12
11.0554910581
 22
15.6356230679
 13
0.0
 23
0.0
 14
1.0
 24
1.0
 15
0.0
 25
0.0
 16
0.0
 26
0.0
 36
1.0
 17
0.0
 27
0.0
 37
0.0
 40
31.2712461359
 41
0.7070707071
 42
50.0
 43
0.0
 44
0.0
 50
0.0
 51
0.0
 71
0
 72
100
 73
1
 74
1
 75
0
 76
0
 77
0
 78
0
  0
ENDTAB
  0
TABLE
  2
LTYPE
  5
5
100
AcDbSymbolTable
 70
6
  0
LTYPE
  5
14
100
AcDbSymbolTableRecord
100
AcDbLinetypeTableRecord
  2
BYBLOCK
 70
0
  3

 72
65
 73
0
 40
0.0
  0
LTYPE
  5
15
100
AcDbSymbolTableRecord
100
AcDbLinetypeTableRecord
  2
BYLAYER
 70
0
  3

 72
65
 73
0
 40
0.0
  0
LTYPE
  5
16
100
AcDbSymbolTableRecord
100
AcDbLinetypeTableRecord
  2
CONTINUOUS
 70
64
  3
Solid line
 72
65
 73
0
 40
0.0
  0
LTYPE
  5
1F5
100
AcDbSymbolTableRecord
100
AcDbLinetypeTableRecord
  2
CENTER
 70
64
  3
____ _ ____ _ ____ _ ____ _ ____ _ ____ _ ____
 72
65
 73
4
 40
0.6
 49
0.375
 74
0
 49
-0.075
 74
0
 49
0.075
 74
0
 49
-0.075
 74
0
  0
LTYPE
  5
1F6
100
AcDbSymbolTableRecord
100
AcDbLinetypeTableRecord
  2
HIDDEN
 70
64
  3
- - - - - - - - - - - - - - - - - - - -
 72
65
 73
2
 40
0.2
 49
0.1
 74
0
 49
-0.1
 74
0
  0
LTYPE
  5
1F7
100
AcDbSymbolTableRecord
100
AcDbLinetypeTableRecord
  2
PHANTOM
 70
64
  3
_____ _ _ _____ _ _ _____ _ _ _____
 72
65
 73
6
 40
0.8
 49
0.45
 74
0
 49
-0.05
 74
0
 49
0.1
 74
0
 49
-0.05
 74
0
 49
0.1
 74
0
 49
-0.05
 74
0
  0
LTYPE
  5
1F8
100
AcDbSymbolTableRecord
100
AcDbLinetypeTableRecord
  2
DOT
 70
64
  3
. . . . . . . . . . . . . . . . . . . .
 72
65
 73
2
 40
0.2
 49
0.1
 74
0
 49
-0.1
 74
0
  0
LTYPE
  5
1F9
100
AcDbSymbolTableRecord
100
AcDbLinetypeTableRecord
  2
DASHED
 70
64
  3
- - - - - - - - - - - - - - - - - - - -
 72
65
 73
2
 40
0.2
 49
0.1
 74
0
 49
-0.1
 74
0
  0
ENDTAB
  0
TABLE
  2
LAYER
  5
2
100
AcDbSymbolTable
 70
36
  0
LAYER
  5
10
100
AcDbSymbolTableRecord
100
AcDbLayerTableRecord
  2
0
 70
0
 62
7
  6
CONTINUOUS
370
-3
390
F
  0
LAYER
  5
1FA
100
AcDbSymbolTableRecord
100
AcDbLayerTableRecord
  2
DEFAULT_1
 70
0
 62
7
  6
CENTER
370
-3
390
F
  0
LAYER
  5
1FB
100
AcDbSymbolTableRecord
100
AcDbLayerTableRecord
  2
DEFAULT_2
 70
0
 62
7
  6
HIDDEN
370
-3
390
F
  0
LAYER
  5
1FC
100
AcDbSymbolTableRecord
100
AcDbLayerTableRecord
  2
DEFAULT_3
 70
0
 62
7
  6
PHANTOM
370
-3
390
F
  0
LAYER
  5
1FD
100
AcDbSymbolTableRecord
100
AcDbLayerTableRecord
  2
00_COMPONENTS
 70
0
 62
7
  6
CONTINUOUS
370
-3
390
F
  0
LAYER
  5
1FE
100
AcDbSymbolTableRecord
100
AcDbLayerTableRecord
  2
01_1_DEFAULT_DATUMS
 70
0
 62
7
  6
CONTINUOUS
370
-3
390
F
  0
LAYER
  5
1FF
100
AcDbSymbolTableRecord
100
AcDbLayerTableRecord
  2
01_PLANES
 70
0
 62
7
  6
CONTINUOUS
370
-3
390
F
  0
LAYER
  5
200
100
AcDbSymbolTableRecord
100
AcDbLayerTableRecord
  2
02_COORD_SYS
 70
0
 62
7
  6
CONTINUOUS
370
-3
390
F
  0
LAYER
  5
201
100
AcDbSymbolTableRecord
100
AcDbLayerTableRecord
  2
03_AXES
 70
0
 62
7
  6
CONTINUOUS
370
-3
390
F
  0
LAYER
  5
202
100
AcDbSymbolTableRecord
100
AcDbLayerTableRecord
  2
04_POINTS
 70
0
 62
7
  6
CONTINUOUS
370
-3
390
F
  0
LAYER
  5
203
100
AcDbSymbolTableRecord
100
AcDbLayerTableRecord
  2
05_CURVES
 70
0
 62
7
  6
CONTINUOUS
370
-3
390
F
  0
LAYER
  5
204
100
AcDbSymbolTableRecord
100
AcDbLayerTableRecord
  2
06_SURFS
 70
0
 62
7
  6
CONTINUOUS
370
-3
390
F
  0
LAYER
  5
205
100
AcDbSymbolTableRecord
100
AcDbLayerTableRecord
  2
07_COSMETICS
 70
0
 62
7
  6
CONTINUOUS
370
-3
390
F
  0
LAYER
  5
206
100
AcDbSymbolTableRecord
100
AcDbLayerTableRecord
  2
10_NOTES
 70
0
 62
7
  6
CONTINUOUS
370
-3
390
F
  0
LAYER
  5
207
100
AcDbSymbolTableRecord
100
AcDbLayerTableRecord
  2
11_NOTES_PUB
 70
0
 62
7
  6
CONTINUOUS
370
-3
390
F
  0
LAYER
  5
208
100
AcDbSymbolTableRecord
100
AcDbLayerTableRecord
  2
13_REF_GTOL
 70
0
 62
7
  6
CONTINUOUS
370
-3
390
F
  0
LAYER
  5
209
100
AcDbSymbolTableRecord
100
AcDbLayerTableRecord
  2
16_MISC
 70
0
 62
7
  6
CONTINUOUS
370
-3
390
F
  0
LAYER
  5
20A
100
AcDbSymbolTableRecord
100
AcDbLayerTableRecord
  2
17_NO_PRINT
 70
0
 62
7
  6
CONTINUOUS
370
-3
390
F
  0
LAYER
  5
20B
100
AcDbSymbolTableRecord
100
AcDbLayerTableRecord
  2
18_DATUM_CAMS_JOINTS
 70
0
 62
7
  6
CONTINUOUS
370
-3
390
F
  0
LAYER
  5
20C
100
AcDbSymbolTableRecord
100
AcDbLayerTableRecord
  2
19_DATUM_FUNCTIONAL
 70
0
 62
7
  6
CONTINUOUS
370
-3
390
F
  0
LAYER
  5
20D
100
AcDbSymbolTableRecord
100
AcDbLayerTableRecord
  2
20_DATUM_KINEMATIC_SCHEME
 70
0
 62
7
  6
CONTINUOUS
370
-3
390
F
  0
ENDTAB
  0
TABLE
  2
STYLE
  5
3
100
AcDbSymbolTable
 70
1
  0
STYLE
  5
11
100
AcDbSymbolTableRecord
100
AcDbTextStyleTableRecord
  2
STANDARD
 70
0
 40
0.0
 41
1.0
 50
0.0
 71
0
 42
0.2
  3
ARIAL.TTF
  4

  0
STYLE
  5
20E
100
AcDbSymbolTableRecord
100
AcDbTextStyleTableRecord
  2
TEXTSTYLE_1
 70
0
 40
0.0
 41
0.8
 50
0.0
 71
0
 42
0.2
  3
gdt
  4

  0
ENDTAB
  0
TABLE
  2
VIEW
  5
6
100
AcDbSymbolTable
 70
0
  0
ENDTAB
  0
TABLE
  2
UCS
  5
7
100
AcDbSymbolTable
 70
0
  0
ENDTAB
  0
TABLE
  2
APPID
  5
9
100
AcDbSymbolTable
 70
1
  0
APPID
  5
20F
100
AcDbSymbolTableRecord
100
AcDbRegAppTableRecord
  2
ACAD
 70
0
  0
ENDTAB
  0
TABLE
  2
BLOCK_RECORD
  5
1
100
AcDbSymbolTable
 70
0
  0
BLOCK_RECORD
  5
210
100
AcDbSymbolTableRecord
100
AcDbBlockTableRecord
  2
*Model_Space
  0
BLOCK_RECORD
  5
211
100
AcDbSymbolTableRecord
100
AcDbBlockTableRecord
  2
*Paper_Space
  0
BLOCK_RECORD
  5
212
100
AcDbSymbolTableRecord
100
AcDbBlockTableRecord
  2
_FILLED
  0
ENDTAB
  0
TABLE
  2
DIMSTYLE
  5
A
100
AcDbSymbolTable
 70
1
100
AcDbDimStyleTable
 71
0
  0
DIMSTYLE
105
213
100
AcDbSymbolTableRecord
100
AcDbDimStyleTableRecord
  2
STANDARD
 70
0
  3

  4

 40
1.0
 41
0.2632259776
 42
1.0
 43
0.38
 44
1.0
 45
0.0
 46
0.0
 47
0.01
 48
0.01
140
0.3685163686
141
0.09
142
0.0
143
25.4
144
1.0
145
0.0
146
1.0
147
0.625
 71
1
 72
0
 73
0
 74
0
 75
0
 76
0
 77
1
 78
8
 79
2
170
0
171
1
172
0
173
0
174
0
175
0
176
0
177
0
178
0
270
2
179
2
271
2
272
2
273
2
274
2
275
0
280
0
281
0
282
0
283
1
284
8
285
0
286
0
287
3
288
0
340
11
278
46
341
212
342
212
343
212
344
212
  0
ENDTAB
  0
ENDSEC
  0
SECTION
  2
BLOCKS
  0
BLOCK
  5
20
100
AcDbEntity
  8
0
100
AcDbBlockBegin
  2
*Model_Space
 70
0
 10
0.0
 20
0.0
 30
0.0
  3
*Model_Space
  1

  0
ENDBLK
  5
21
100
AcDbEntity
  8
0
100
AcDbBlockEnd
  0
BLOCK
  5
1C
100
AcDbEntity
  8
0
100
AcDbBlockBegin
  2
*Paper_Space
 70
0
 10
0.0
 20
0.0
 30
0.0
  3
*Paper_Space
  1

  0
ENDBLK
  5
1D
100
AcDbEntity
  8
0
100
AcDbBlockEnd
  0
BLOCK
  5
214
100
AcDbEntity
  8
0
100
AcDbBlockBegin
  2
_FILLED
 70
64
 10
0.0
 20
0.0
  3
_FILLED
  1

  0
SOLID
  5
215
100
AcDbEntity
  8
0
  6
BYBLOCK
 62
0
100
AcDbTrace
 10
0.0
 20
0.0
 11
-1.0
 21
0.25
 12
-1.0
 22
-0.25
 13
-1.0
 23
-0.25
  0
ENDBLK
  5
216
100
AcDbEntity
  8
0
  6
BYBLOCK
 62
0
100
AcDbBlockEnd
  0
ENDSEC
  0
SECTION
  2
ENTITIES
  0
LINE
  5
217
100
AcDbEntity
  8
0
100
AcDbLine
 62
7
  6
BYLAYER
 10
5.2701200381
 20
24.2057428644
 11
7.2146555904
 21
25.3284142876
  0
LINE
  5
218
100
AcDbEntity
  8
0
100
AcDbLine
 62
7
  6
BYLAYER
 10
4.3255800089
 20
21.351018049
 11
6.2701155612
 21
22.4736894721
  0
LINE
  5
219
100
AcDbEntity
  8
0
100
AcDbLine
 62
7
  6
BYLAYER
 10
12.8255419554
 20
6.6285642145
 11
14.7700775077
 21
7.7512356377
  0
LINE
  5
21A
100
AcDbEntity
  8
0
100
AcDbLine
 62
7
  6
BYLAYER
 10
15.7700730308
 20
6.0191822454
 11
17.7146085832
 21
7.1418536685
  0
ARC
  5
21B
100
AcDbEntity
  8
0
100
AcDbCircle
 62
7
  6
BYLAYER
 10
11.4465273488
 20
9.4262393447
 40
2.7123650046
100
AcDbArc
 50
295.6884829319
 51
296.754435411
  0
ARC
  5
21C
100
AcDbEntity
  8
0
100
AcDbCircle
 62
7
  6
BYLAYER
 10
6.0556514206
 20
18.7628483535
 40
2.706445646
100
AcDbArc
 50
121.0829239434
 51
124.1987472856
  0
SPLINE
  5
21D
100
AcDbEntity
  8
0
100
AcDbSpline
 62
7
  6
BYLAYER
 70
0
 71
3
 72
19
 73
15
 74
0
 42
0.0000001
 43
0.0000001
 44
0.0000000001
 40
0.0
 40
0.0
 40
0.0
 40
0.0
 40
0.1459337136
 40
0.2847716003
 40
0.4167195072
 40
0.542245366
 40
0.6028574212
 40
0.6621742549
 40
0.7203393141
 40
0.7775123495
 40
0.8338686901
 40
0.889599644
 40
0.944906909
 40
1.0
 40
1.0
 40
1.0
 40
1.0
 10
11.1038670696
 20
6.2287005702
 30
0.0
 10
11.3165651657
 20
6.1252758717
 30
0.0
 10
11.7400445786
 20
5.9400980323
 30
0.0
 10
12.3818809184
 20
5.7267253814
 30
0.0
 10
13.0098338158
 20
5.5862991261
 30
0.0
 10
13.5236600363
 20
5.5306127246
 30
0.0
 10
13.9216527819
 20
5.5248798849
 30
0.0
 10
14.2101353646
 20
5.539387064
 30
0.0
 10
14.4914590291
 20
5.5726031527
 30
0.0
 10
14.7650819261
 20
5.6244671661
 30
0.0
 10
15.0304450905
 20
5.6949302108
 30
0.0
 10
15.2870269731
 20
5.7838320016
 30
0.0
 10
15.5343004368
 20
5.8909806347
 30
0.0
 10
15.6927448271
 20
5.974543201
 30
0.0
 10
15.7700688926
 20
6.0191894032
 30
0.0
  0
SPLINE
  5
21E
100
AcDbEntity
  8
0
100
AcDbSpline
 62
7
  6
BYLAYER
 70
0
 71
3
 72
21
 73
17
 74
0
 42
0.0000001
 43
0.0000001
 44
0.0000000001
 40
0.0
 40
0.0
 40
0.0
 40
0.0
 40
0.0752137058
 40
0.1485608494
 40
0.2894157633
 40
0.4225721571
 40
0.4864081497
 40
0.5484986262
 40
0.6089443887
 40
0.6678759362
 40
0.7254498355
 40
0.7818454231
 40
0.8372670736
 40
0.8919379948
 40
0.9460980664
 40
1.0
 40
1.0
 40
1.0
 40
1.0
 10
19.8892842008
 20
11.9486060556
 30
0.0
 10
19.8892842008
 20
11.8101225903
 30
0.0
 10
19.8835310589
 20
11.5365436511
 30
0.0
 10
19.8485810496
 20
11.0046840965
 30
0.0
 10
19.7622913512
 20
10.3698911087
 30
0.0
 10
19.6141262916
 20
9.7642963234
 30
0.0
 10
19.4597619322
 20
9.3126639213
 30
0.0
 10
19.3287348686
 20
8.9952568969
 30
0.0
 10
19.1810980362
 20
8.695244147
 30
0.0
 10
19.017202859
 20
8.4133500542
 30
0.0
 10
18.8374549507
 20
8.1502495493
 30
0.0
 10
18.6422269906
 20
7.9066245728
 30
0.0
 10
18.432019922
 20
7.6830625502
 30
0.0
 10
18.2073315775
 20
7.480119512
 30
0.0
 10
17.9687043049
 20
7.2983672911
 30
0.0
 10
17.800551078
 20
7.1914853542
 30
0.0
 10
17.7146045774
 20
7.1418605939
 30
0.0
  0
SPLINE
  5
21F
100
AcDbEntity
  8
0
100
AcDbSpline
 62
7
  6
BYLAYER
 70
0
 71
3
 72
39
 73
35
 74
0
 42
0.0000001
 43
0.0000001
 44
0.0000000001
 40
0.0
 40
0.0
 40
0.0
 40
0.0
 40
0.0213241265
 40
0.0428766592
 40
0.0648737134
 40
0.0875101257
 40
0.1109506783
 40
0.1353285874
 40
0.16074196
 40
0.1872577464
 40
0.21491111
 40
0.2437112361
 40
0.2736416066
 40
0.3046654972
 40
0.336726444
 40
0.3697527212
 40
0.4036579515
 40
0.4383445553
 40
0.4737045675
 40
0.5096222425
 40
0.5459750483
 40
0.582635762
 40
0.6194735119
 40
0.6563557888
 40
0.693149297
 40
0.7297219436
 40
0.7659434926
 40
0.8016888729
 40
0.8368376469
 40
0.8712755572
 40
0.90489624
 40
0.9376118184
 40
0.9693425607
 40
1.0
 40
1.0
 40
1.0
 40
1.0
 10
4.5255847021
 20
21.0045976893
 30
0.0
 10
4.625099506
 20
21.0620520906
 30
0.0
 10
4.8328334383
 20
21.1648813048
 30
0.0
 10
5.1640628549
 20
21.279350085
 30
0.0
 10
5.5137146315
 20
21.3539576418
 30
0.0
 10
5.8797202745
 20
21.388259686
 30
0.0
 10
6.2600359742
 20
21.3822901066
 30
0.0
 10
6.652576241
 20
21.3361127724
 30
0.0
 10
7.0552470113
 20
21.2501516506
 30
0.0
 10
7.4658921781
 20
21.1248767274
 30
0.0
 10
7.8823564481
 20
20.9610700432
 30
0.0
 10
8.3024113527
 20
20.7595966754
 30
0.0
 10
8.7238465845
 20
20.5215989973
 30
0.0
 10
9.1443966087
 20
20.2483366658
 30
0.0
 10
9.5618316379
 20
19.9413097299
 30
0.0
 10
9.9739005838
 20
19.602156518
 30
0.0
 10
10.3784018975
 20
19.2327163201
 30
0.0
 10
10.7731533376
 20
18.8349743799
 30
0.0
 10
11.1560316188
 20
18.4110765238
 30
0.0
 10
11.5249753982
 20
17.9633118728
 30
0.0
 10
11.8779873905
 20
17.4940898439
 30
0.0
 10
12.2131748282
 20
17.0059526379
 30
0.0
 10
12.5287112212
 20
16.5015230722
 30
0.0
 10
12.8229153298
 20
15.9835387346
 30
0.0
 10
13.094170472
 20
15.4547798963
 30
0.0
 10
13.3410450435
 20
14.9181207397
 30
0.0
 10
13.5621702985
 20
14.3764392056
 30
0.0
 10
13.7563937387
 20
13.8326726302
 30
0.0
 10
13.9226151461
 20
13.2897369279
 30
0.0
 10
14.0599961364
 20
12.7505903235
 30
0.0
 10
14.1677469475
 20
12.2181056194
 30
0.0
 10
14.2453251512
 20
11.6951118985
 30
0.0
 10
14.2922294362
 20
11.1845120134
 30
0.0
 10
14.3031497558
 20
10.8482450919
 30
0.0
 10
14.3031497558
 20
10.6830410201
 30
0.0
  0
SPLINE
  5
220
100
AcDbEntity
  8
0
100
AcDbSpline
 62
7
  6
BYLAYER
 70
0
 71
3
 72
39
 73
35
 74
0
 42
0.0000001
 43
0.0000001
 44
0.0000000001
 40
0.0
 40
0.0
 40
0.0
 40
0.0
 40
0.0306574098
 40
0.062388015
 40
0.0951034112
 40
0.1287239604
 40
0.1631617432
 40
0.1983103941
 40
0.2340556931
 40
0.270277237
 40
0.306849942
 40
0.3436435486
 40
0.380525946
 40
0.4173638087
 40
0.4540246167
 40
0.4903774842
 40
0.526295206
 40
0.5616552584
 40
0.5963419201
 40
0.630247207
 40
0.6632735491
 40
0.6953345415
 40
0.7263584682
 40
0.7562888486
 40
0.7850889764
 40
0.8127423305
 40
0.8392581156
 40
0.8646714892
 40
0.8890494092
 40
0.9124899679
 40
0.9351263801
 40
0.95712342
 40
0.9786759203
 40
1.0
 40
1.0
 40
1.0
 40
1.0
 10
2.5651283184
 20
17.4598375452
 30
0.0
 10
2.5651283184
 20
17.2864754146
 30
0.0
 10
2.5765876812
 20
16.9336036536
 30
0.0
 10
2.6258081322
 20
16.3977909335
 30
0.0
 10
2.7072166292
 20
15.8489728446
 30
0.0
 10
2.8202879023
 20
15.2901950519
 30
0.0
 10
2.964451576
 20
14.7244257647
 30
0.0
 10
3.1388809159
 20
14.1546802234
 30
0.0
 10
3.3426941873
 20
13.5840617185
 30
0.0
 10
3.5747391375
 20
13.0156306214
 30
0.0
 10
3.8338043326
 20
12.4524685051
 30
0.0
 10
4.118455571
 20
11.8975967537
 30
0.0
 10
4.4271883873
 20
11.3540308471
 30
0.0
 10
4.7583079282
 20
10.8246896814
 30
0.0
 10
5.1100480839
 20
10.3124452613
 30
0.0
 10
5.4804936366
 20
9.8200509926
 30
0.0
 10
5.8676568887
 20
9.3501734364
 30
0.0
 10
6.2694435373
 20
8.9053419699
 30
0.0
 10
6.6836890679
 20
8.4879574084
 30
0.0
 10
7.1081667604
 20
8.100272845
 30
0.0
 10
7.5405852323
 20
7.7443703741
 30
0.0
 10
7.9786352447
 20
7.422181446
 30
0.0
 10
8.4199534439
 20
7.1354241442
 30
0.0
 10
8.8622007301
 20
6.885673724
 30
0.0
 10
9.3029990014
 20
6.6742508417
 30
0.0
 10
9.7400295218
 20
6.5023553759
 30
0.0
 10
10.1709533449
 20
6.3708938263
 30
0.0
 10
10.5935092506
 20
6.2806881775
 30
0.0
 10
11.0054343015
 20
6.2322302775
 30
0.0
 10
11.4045311302
 20
6.2259663581
 30
0.0
 10
11.7886110794
 20
6.2619622933
 30
0.0
 10
12.1555292839
 20
6.3402544431
 30
0.0
 10
12.5031151928
 20
6.4603758851
 30
0.0
 10
12.7211070913
 20
6.5682830468
 30
0.0
 10
12.8255360507
 20
6.6285744438
 30
0.0
  0
SPLINE
  5
221
100
AcDbEntity
  8
0
100
AcDbSpline
 62
7
  6
BYLAYER
 70
0
 71
3
 72
20
 73
16
 74
0
 42
0.0000001
 43
0.0000001
 44
0.0000000001
 40
0.0
 40
0.0
 40
0.0
 40
0.0
 40
0.1485248219
 40
0.2893904355
 40
0.4225515954
 40
0.4863887493
 40
0.5484812189
 40
0.6089302458
 40
0.6678639149
 40
0.7254398441
 40
0.7818376545
 40
0.8372608755
 40
0.8919338982
 40
0.9460961101
 40
1.0
 40
1.0
 40
1.0
 40
1.0
 10
14.3031497558
 20
10.6830410201
 30
0.0
 10
14.3031497558
 20
10.4720910277
 30
0.0
 10
14.2861359355
 20
10.0607762351
 30
0.0
 10
14.2051896617
 20
9.4652000269
 30
0.0
 10
14.0908877247
 20
8.9979967531
 30
0.0
 10
13.9718034014
 20
8.6496011537
 30
0.0
 10
13.8707192727
 20
8.4047473881
 30
0.0
 10
13.7568394674
 20
8.1733025393
 30
0.0
 10
13.6303993972
 20
7.9558433138
 30
0.0
 10
13.4917328179
 20
7.7528835686
 30
0.0
 10
13.3411402917
 20
7.5649353709
 30
0.0
 10
13.1789703776
 20
7.3924827843
 30
0.0
 10
13.0056397015
 20
7.23592826
 30
0.0
 10
12.8215650069
 20
7.0957062915
 30
0.0
 10
12.6918401054
 20
7.0132642071
 30
0.0
 10
12.6255372622
 20
6.9749845742
 30
0.0
  0
SPLINE
  5
222
100
AcDbEntity
  8
0
100
AcDbSpline
 62
7
  6
BYLAYER
 70
0
 71
3
 72
19
 73
15
 74
0
 42
0.0000001
 43
0.0000001
 44
0.0000000001
 40
0.0
 40
0.0
 40
0.0
 40
0.0
 40
0.0548078881
 40
0.1098399092
 40
0.1653162103
 40
0.221447576
 40
0.2784315442
 40
0.3364518166
 40
0.4561764901
 40
0.5817811123
 40
0.7140137784
 40
0.7827918472
 40
0.8533809583
 40
1.0
 40
1.0
 40
1.0
 40
1.0
 10
5.2701241763
 20
24.2057357066
 30
0.0
 10
5.1907425925
 20
24.1599015124
 30
0.0
 10
5.0351994718
 20
24.061744904
 30
0.0
 10
4.8134218505
 20
23.8962002343
 30
0.0
 10
4.6034465882
 20
23.7125229455
 30
0.0
 10
4.4057174412
 20
23.511147424
 30
0.0
 10
4.22061378
 20
23.2925037243
 30
0.0
 10
3.9888259543
 20
22.9753154151
 30
0.0
 10
3.7328383715
 20
22.535407143
 30
0.0
 10
3.4855987498
 20
21.9528227695
 30
0.0
 10
3.330050131
 20
21.4280077132
 30
0.0
 10
3.234210942
 20
20.9838461989
 30
0.0
 10
3.1560748769
 20
20.5118223723
 30
0.0
 10
3.1219023055
 20
20.1495415526
 30
0.0
 10
3.1087830828
 20
19.9046794332
 30
0.0
  0
SPLINE
  5
223
100
AcDbEntity
  8
0
100
AcDbSpline
 62
7
  6
BYLAYER
 70
0
 71
3
 72
41
 73
37
 74
0
 42
0.0000001
 43
0.0000001
 44
0.0000000001
 40
0.0
 40
0.0
 40
0.0
 40
0.0
 40
0.010653019
 40
0.0213348517
 40
0.0320738818
 40
0.0428976722
 40
0.0538328372
 40
0.0649046263
 40
0.087540754
 40
0.1109815564
 40
0.1353591141
 40
0.1479349109
 40
0.1607792216
 40
0.187294614
 40
0.2149482823
 40
0.2437480146
 40
0.2736785613
 40
0.3047021264
 40
0.3367630975
 40
0.3697891572
 40
0.4036943275
 40
0.4383808042
 40
0.4737406612
 40
0.5096581937
 40
0.5826542132
 40
0.6563572808
 40
0.6931506822
 40
0.7297231936
 40
0.7659447654
 40
0.8016898083
 40
0.8368383156
 40
0.8712762836
 40
0.9048971285
 40
0.9376116408
 40
0.9693415235
 40
1.0
 40
1.0
 40
1.0
 40
1.0
 10
7.2146595963
 20
25.3284073622
 30
0.0
 10
7.2791041722
 20
25.3656170986
 30
0.0
 10
7.4105849233
 20
25.4360382047
 30
0.0
 10
7.6145576643
 20
25.5290814061
 30
0.0
 10
7.8251134146
 20
25.6095025865
 30
0.0
 10
8.0419468221
 20
25.6771934457
 30
0.0
 10
8.2647754739
 20
25.7320475429
 30
0.0
 10
8.5716534399
 20
25.7883743699
 30
0.0
 10
8.9700500062
 20
25.8257753863
 30
0.0
 10
9.4630061035
 20
25.8179790461
 30
0.0
 10
9.8827124376
 20
25.7686496331
 30
0.0
 10
10.2246384941
 20
25.7041822064
 30
0.0
 10
10.57788983
 20
25.6210617861
 30
0.0
 10
11.0261997972
 20
25.4843324813
 30
0.0
 10
11.5660286142
 20
25.2719624091
 30
0.0
 10
12.1105639709
 20
25.0108168841
 30
0.0
 10
12.656855116
 20
24.7022818322
 30
0.0
 10
13.2020222654
 20
24.3480652542
 30
0.0
 10
13.7431353978
 20
23.9500600731
 30
0.0
 10
14.2773004936
 20
23.5104185729
 30
0.0
 10
14.8016566775
 20
23.0315164643
 30
0.0
 10
15.3133631806
 20
22.5159201216
 30
0.0
 10
15.8097036537
 20
21.9664256865
 30
0.0
 10
16.4507371983
 20
21.1883943412
 30
0.0
 10
17.1957499651
 20
20.1508021765
 30
0.0
 10
17.8530261182
 20
19.0484897806
 30
0.0
 10
18.3220992527
 20
18.1342012801
 30
0.0
 10
18.6421063721
 20
17.4385123497
 30
0.0
 10
18.9287652745
 20
16.7363420646
 30
0.0
 10
19.1805216944
 20
16.0314548162
 30
0.0
 10
19.3960077832
 20
15.3276549252
 30
0.0
 10
19.5740812389
 20
14.6287552741
 30
0.0
 10
19.7137640494
 20
13.9385020738
 30
0.0
 10
19.8143244278
 20
13.2605565602
 30
0.0
 10
19.8751327338
 20
12.5986721593
 30
0.0
 10
19.8892842008
 20
12.1627675152
 30
0.0
 10
19.8892842008
 20
11.9486060556
 30
0.0
  0
SPLINE
  5
224
100
AcDbEntity
  8
0
100
AcDbSpline
 62
7
  6
BYLAYER
 70
0
 71
3
 72
20
 73
16
 74
0
 42
0.0000001
 43
0.0000001
 44
0.0000000001
 40
0.0
 40
0.0
 40
0.0
 40
0.0
 40
0.0539036221
 40
0.1080656022
 40
0.1627384119
 40
0.2181614583
 40
0.2745591852
 40
0.3321350597
 40
0.391068735
 40
0.4515178409
 40
0.5136103334
 40
0.5774475111
 40
0.7106089696
 40
0.8514751665
 40
1.0
 40
1.0
 40
1.0
 40
1.0
 10
4.3255859136
 20
21.3510078197
 30
0.0
 10
4.2560091552
 20
21.3108381198
 30
0.0
 10
4.1198785881
 20
21.2243253928
 30
0.0
 10
3.9267150735
 20
21.0771789748
 30
0.0
 10
3.7448250481
 20
20.9128945931
 30
0.0
 10
3.5746468008
 20
20.7319267027
 30
0.0
 10
3.4166183
 20
20.5346971767
 30
0.0
 10
3.2711033832
 20
20.3217154194
 30
0.0
 10
3.1384189401
 20
20.0935176331
 30
0.0
 10
3.018915687
 20
19.8506431297
 30
0.0
 10
2.9128389204
 20
19.5936979829
 30
0.0
 10
2.7878732907
 20
19.2280973202
 30
0.0
 10
2.6679263052
 20
18.7378210148
 30
0.0
 10
2.5829826355
 20
18.1128323222
 30
0.0
 10
2.5651283184
 20
17.6812048307
 30
0.0
 10
2.5651283184
 20
17.4598375452
 30
0.0
  0
SPLINE
  5
225
100
AcDbEntity
  8
0
100
AcDbSpline
 62
7
  6
BYLAYER
 70
0
 71
3
 72
20
 73
16
 74
0
 42
0.0000001
 43
0.0000001
 44
0.0000000001
 40
0.0
 40
0.0
 40
0.0
 40
0.0
 40
0.1485248219
 40
0.2893904355
 40
0.4225515954
 40
0.4863887493
 40
0.5484812189
 40
0.6089302458
 40
0.6678639149
 40
0.7254398441
 40
0.7818376545
 40
0.8372608755
 40
0.8919338982
 40
0.9460961101
 40
1.0
 40
1.0
 40
1.0
 40
1.0
 10
2.8479722084
 20
17.2965412434
 30
0.0
 10
2.8479722084
 20
17.5074912358
 30
0.0
 10
2.8649860288
 20
17.9188060284
 30
0.0
 10
2.9459323025
 20
18.5143822366
 30
0.0
 10
3.0602342395
 20
18.9815855104
 30
0.0
 10
3.1793185628
 20
19.3299811098
 30
0.0
 10
3.2804026915
 20
19.5748348755
 30
0.0
 10
3.3942824968
 20
19.8062797242
 30
0.0
 10
3.5207225671
 20
20.0237389497
 30
0.0
 10
3.6593891464
 20
20.2266986949
 30
0.0
 10
3.8099816726
 20
20.4146468926
 30
0.0
 10
3.9721515866
 20
20.5870994792
 30
0.0
 10
4.1454822628
 20
20.7436540035
 30
0.0
 10
4.3295569573
 20
20.883875972
 30
0.0
 10
4.4592818589
 20
20.9663180564
 30
0.0
 10
4.5255847021
 20
21.0045976893
 30
0.0
  0
SPLINE
  5
226
100
AcDbEntity
  8
0
100
AcDbSpline
 62
7
  6
BYLAYER
 70
0
 71
3
 72
40
 73
36
 74
0
 42
0.0000001
 43
0.0000001
 44
0.0000000001
 40
0.0
 40
0.0
 40
0.0
 40
0.0
 40
0.0304643398
 40
0.0619773717
 40
0.0944541791
 40
0.1278184587
 40
0.1619871806
 40
0.1968594802
 40
0.2323265931
 40
0.2682737862
 40
0.3045820286
 40
0.3411271012
 40
0.3777827377
 40
0.4144213634
 40
0.45091574
 40
0.4871401511
 40
0.5229715639
 40
0.5582915668
 40
0.5929869634
 40
0.6269523302
 40
0.6600903299
 40
0.6923148792
 40
0.7235514078
 40
0.753740623
 40
0.7828389396
 40
0.8108227417
 40
0.8376892424
 40
0.863460977
 40
0.8881869936
 40
0.9119467185
 40
0.9348504092
 40
0.9570403052
 40
0.9786879643
 40
0.9893741493
 40
1.0
 40
1.0
 40
1.0
 40
1.0
 10
3.0247481677
 20
17.3986022818
 30
0.0
 10
3.0247481677
 20
17.2365027524
 30
0.0
 10
3.0352599578
 20
16.9066523595
 30
0.0
 10
3.0804443816
 20
16.405850169
 30
0.0
 10
3.1551956304
 20
15.8930036987
 30
0.0
 10
3.2590442011
 20
15.3708596515
 30
0.0
 10
3.3914920175
 20
14.8420917614
 30
0.0
 10
3.5517960334
 20
14.3094098484
 30
0.0
 10
3.739188395
 20
13.7756132818
 30
0.0
 10
3.952634715
 20
13.2434571588
 30
0.0
 10
4.1910771575
 20
12.7157271556
 30
0.0
 10
4.4532247504
 20
12.1951422918
 30
0.0
 10
4.7377644665
 20
11.6844390979
 30
0.0
 10
5.0431668004
 20
11.1862474455
 30
0.0
 10
5.3678891396
 20
10.7031875137
 30
0.0
 10
5.7101978246
 20
10.2377424482
 30
0.0
 10
6.0683555593
 20
9.7923635652
 30
0.0
 10
6.4404597726
 20
9.369334823
 30
0.0
 10
6.8246165215
 20
8.9708873954
 30
0.0
 10
7.2187947189
 20
8.5990578081
 30
0.0
 10
7.620985892
 20
8.2558123946
 30
0.0
 10
8.0290741775
 20
7.9428976042
 30
0.0
 10
8.4409818417
 20
7.6619766427
 30
0.0
 10
8.8545558452
 20
7.4144714277
 30
0.0
 10
9.267695828
 20
7.2017131016
 30
0.0
 10
9.6782596703
 20
7.0247767284
 30
0.0
 10
10.084167977
 20
6.8846456664
 30
0.0
 10
10.4833309715
 20
6.782040693
 30
0.0
 10
10.8737215209
 20
6.7175951113
 30
0.0
 10
11.2533210014
 20
6.6916774553
 30
0.0
 10
11.6201652149
 20
6.7045704412
 30
0.0
 10
11.9722680951
 20
6.7562568179
 30
0.0
 10
12.2531353733
 20
6.8319430349
 30
0.0
 10
12.4675643208
 20
6.9114703174
 30
0.0
 10
12.5713262681
 20
6.9574443016
 30
0.0
 10
12.6222777697
 20
6.9819531777
 30
0.0
  0
SPLINE
  5
227
100
AcDbEntity
  8
0
100
AcDbSpline
 62
7
  6
BYLAYER
 70
0
 71
3
 72
39
 73
35
 74
0
 42
0.0000001
 43
0.0000001
 44
0.0000000001
 40
0.0
 40
0.0
 40
0.0
 40
0.0
 40
0.0213241265
 40
0.0428766592
 40
0.0648737134
 40
0.0875101257
 40
0.1109506783
 40
0.1353285874
 40
0.16074196
 40
0.1872577464
 40
0.21491111
 40
0.2437112361
 40
0.2736416066
 40
0.3046654972
 40
0.336726444
 40
0.3697527212
 40
0.4036579515
 40
0.4383445553
 40
0.4737045675
 40
0.5096222425
 40
0.5459750483
 40
0.582635762
 40
0.6194735119
 40
0.6563557888
 40
0.693149297
 40
0.7297219436
 40
0.7659434926
 40
0.8016888729
 40
0.8368376469
 40
0.8712755572
 40
0.90489624
 40
0.9376118184
 40
0.9693425607
 40
1.0
 40
1.0
 40
1.0
 40
1.0
 10
12.6255372622
 20
6.9749845742
 30
0.0
 10
12.5260224582
 20
6.9175301729
 30
0.0
 10
12.318288526
 20
6.8147009587
 30
0.0
 10
11.9870591093
 20
6.7002321785
 30
0.0
 10
11.6374073328
 20
6.6256246217
 30
0.0
 10
11.2714016898
 20
6.5913225775
 30
0.0
 10
10.8910859901
 20
6.5972921569
 30
0.0
 10
10.4985457232
 20
6.6434694911
 30
0.0
 10
10.0958749529
 20
6.7294306129
 30
0.0
 10
9.6852297861
 20
6.8547055361
 30
0.0
 10
9.2687655162
 20
7.0185122203
 30
0.0
 10
8.8487106116
 20
7.2199855881
 30
0.0
 10
8.4272753798
 20
7.4579832662
 30
0.0
 10
8.0067253556
 20
7.7312455977
 30
0.0
 10
7.5892903263
 20
8.0382725336
 30
0.0
 10
7.1772213804
 20
8.3774257455
 30
0.0
 10
6.7727200667
 20
8.7468659434
 30
0.0
 10
6.3779686266
 20
9.1446078836
 30
0.0
 10
5.9950903454
 20
9.5685057397
 30
0.0
 10
5.626146566
 20
10.0162703907
 30
0.0
 10
5.2731345738
 20
10.4854924196
 30
0.0
 10
4.9379471361
 20
10.9736296256
 30
0.0
 10
4.622410743
 20
11.4780591913
 30
0.0
 10
4.3282066344
 20
11.9960435289
 30
0.0
 10
4.0569514922
 20
12.5248023672
 30
0.0
 10
3.8100769207
 20
13.0614615238
 30
0.0
 10
3.5889516658
 20
13.6031430579
 30
0.0
 10
3.3947282256
 20
14.1469096333
 30
0.0
 10
3.2285068182
 20
14.6898453356
 30
0.0
 10
3.0911258278
 20
15.22899194
 30
0.0
 10
2.9833750168
 20
15.7614766441
 30
0.0
 10
2.9057968131
 20
16.284470365
 30
0.0
 10
2.858892528
 20
16.7950702501
 30
0.0
 10
2.8479722084
 20
17.1313371717
 30
0.0
 10
2.8479722084
 20
17.2965412434
 30
0.0
  0
SPLINE
  5
228
100
AcDbEntity
  8
0
100
AcDbSpline
 62
7
  6
BYLAYER
 70
0
 71
3
 72
21
 73
17
 74
0
 42
0.0000001
 43
0.0000001
 44
0.0000000001
 40
0.0
 40
0.0
 40
0.0
 40
0.0
 40
0.0539017225
 40
0.1080615979
 40
0.1627323537
 40
0.2181538459
 40
0.2745493316
 40
0.3321231754
 40
0.3910546988
 40
0.4515005241
 40
0.5135910481
 40
0.5774270681
 40
0.7105836806
 40
0.8514390951
 40
0.9247863397
 40
1.0
 40
1.0
 40
1.0
 40
1.0
 10
15.7700688926
 20
6.0191894032
 30
0.0
 10
15.8560150732
 20
6.068813935
 30
0.0
 10
16.0241678556
 20
6.1756951575
 30
0.0
 10
16.2627942575
 20
6.3574468038
 30
0.0
 10
16.4874817302
 20
6.5603893222
 30
0.0
 10
16.6976890162
 20
6.7839500544
 30
0.0
 10
16.8929164346
 20
7.0275747366
 30
0.0
 10
17.0726644043
 20
7.290674746
 30
0.0
 10
17.2365603645
 20
7.5725683581
 30
0.0
 10
17.3841969172
 20
7.8725814207
 30
0.0
 10
17.5152246085
 20
8.1899884282
 30
0.0
 10
17.6695898933
 20
8.6416210857
 30
0.0
 10
17.8177553421
 20
9.247217206
 30
0.0
 10
17.9040452136
 20
9.88201167
 30
0.0
 10
17.9389954333
 20
10.4138722212
 30
0.0
 10
17.9447486485
 20
10.6874512548
 30
0.0
 10
17.9447486485
 20
10.8259346324
 30
0.0
  0
SPLINE
  5
229
100
AcDbEntity
  8
0
100
AcDbSpline
 62
7
  6
BYLAYER
 70
0
 71
3
 72
39
 73
35
 74
0
 42
0.0000001
 43
0.0000001
 44
0.0000000001
 40
0.0
 40
0.0
 40
0.0
 40
0.0
 40
0.0213241223
 40
0.0428766548
 40
0.0648737113
 40
0.0875101279
 40
0.1109506891
 40
0.1353286131
 40
0.1607420016
 40
0.1872578034
 40
0.2149111773
 40
0.2437113104
 40
0.2736416822
 40
0.3046655729
 40
0.3367265184
 40
0.3697527969
 40
0.4036580285
 40
0.4383446341
 40
0.4737046431
 40
0.5096223131
 40
0.5459751158
 40
0.5826358285
 40
0.6194735732
 40
0.6563558426
 40
0.6931493465
 40
0.7297219921
 40
0.7659435394
 40
0.8016889124
 40
0.8368376707
 40
0.8712755641
 40
0.9048962386
 40
0.9376118161
 40
0.96934256
 40
1.0
 40
1.0
 40
1.0
 40
1.0
 10
6.2701214179
 20
22.4736793265
 30
0.0
 10
6.374550511
 20
22.5339709738
 30
0.0
 10
6.5925428948
 20
22.6418781463
 30
0.0
 10
6.9401293038
 20
22.76199971
 30
0.0
 10
7.3070478683
 20
22.84029161
 30
0.0
 10
7.6911279507
 20
22.8762875889
 30
0.0
 10
8.090224832
 20
22.8700232034
 30
0.0
 10
8.5021500153
 20
22.8215654091
 30
0.0
 10
8.9247060209
 20
22.7313592478
 30
0.0
 10
9.3556301477
 20
22.5998977094
 30
0.0
 10
9.7926607258
 20
22.4280017362
 30
0.0
 10
10.2334591102
 20
22.2165788798
 30
0.0
 10
10.6757059958
 20
21.9668282019
 30
0.0
 10
11.1170238449
 20
21.6800713129
 30
0.0
 10
11.5550729454
 20
21.3578825471
 30
0.0
 10
11.987490899
 20
21.0019809239
 30
0.0
 10
12.4119676023
 20
20.6142967463
 30
0.0
 10
12.8262128499
 20
20.1969131391
 30
0.0
 10
13.2279986828
 20
19.7520820891
 30
0.0
 10
13.6151617816
 20
19.2822055817
 30
0.0
 10
13.9856064248
 20
18.7898121294
 30
0.0
 10
14.3373462219
 20
18.2775693725
 30
0.0
 10
14.668464624
 20
17.7482297742
 30
0.0
 10
14.97719721
 20
17.2046660046
 30
0.0
 10
15.2618476248
 20
16.6497956787
 30
0.0
 10
15.5209134619
 20
16.0866348457
 30
0.0
 10
15.7529584479
 20
15.5182036527
 30
0.0
 10
15.9567730685
 20
14.9475845191
 30
0.0
 10
16.1312028896
 20
14.3778373982
 30
0.0
 10
16.2753680222
 20
13.8120664819
 30
0.0
 10
16.3884398284
 20
13.2532863819
 30
0.0
 10
16.4698490549
 20
12.7044658538
 30
0.0
 10
16.5190696003
 20
12.1686511516
 30
0.0
 10
16.5305291982
 20
11.8157784431
 30
0.0
 10
16.5305291982
 20
11.6424161415
 30
0.0
  0
SPLINE
  5
22A
100
AcDbEntity
  8
0
100
AcDbSpline
 62
7
  6
BYLAYER
 70
0
 71
3
 72
41
 73
37
 74
0
 42
0.0000001
 43
0.0000001
 44
0.0000000001
 40
0.0
 40
0.0
 40
0.0
 40
0.0
 40
0.0306584437
 40
0.062388198
 40
0.0951025627
 40
0.1287233161
 40
0.1631611946
 40
0.1983096235
 40
0.2340546189
 40
0.2702762053
 40
0.3068487701
 40
0.343642263
 40
0.4173455513
 40
0.4903417877
 40
0.526259433
 40
0.5616194133
 40
0.5963060177
 40
0.6302113092
 40
0.6632374749
 40
0.6952985142
 40
0.7263221118
 40
0.7562526382
 40
0.7850523188
 40
0.8127059023
 40
0.839221204
 40
0.8520654667
 40
0.8646412186
 40
0.8890186976
 40
0.9124594319
 40
0.9350955085
 40
0.9461672736
 40
0.9571024149
 40
0.9679261842
 40
0.9786651928
 40
0.9893470027
 40
1.0
 40
1.0
 40
1.0
 40
1.0
 10
17.9447486485
 20
10.8259346324
 30
0.0
 10
17.9447486485
 20
11.040095863
 30
0.0
 10
17.9305974529
 20
11.4759993912
 30
0.0
 10
17.8697892059
 20
12.1378816284
 30
0.0
 10
17.7692296588
 20
12.8158246688
 30
0.0
 10
17.6295473341
 20
13.5060756165
 30
0.0
 10
17.4514754362
 20
14.2049737991
 30
0.0
 10
17.235989613
 20
14.9087721975
 30
0.0
 10
16.9842346233
 20
15.6136591292
 30
0.0
 10
16.697575556
 20
16.3158295061
 30
0.0
 10
16.3775690103
 20
17.0115199235
 30
0.0
 10
15.9084946762
 20
17.9258106939
 30
0.0
 10
15.2512173563
 20
19.0281266867
 30
0.0
 10
14.5062024113
 20
20.0657220585
 30
0.0
 10
13.8651668178
 20
20.8437558191
 30
0.0
 10
13.3688244818
 20
21.3932519979
 30
0.0
 10
12.8571160147
 20
21.9088500655
 30
0.0
 10
12.3327575708
 20
22.3877533742
 30
0.0
 10
11.7985907058
 20
22.8273959889
 30
0.0
 10
11.2574757604
 20
23.225401138
 30
0.0
 10
10.7123079472
 20
23.5796177397
 30
0.0
 10
10.1660163817
 20
23.8881514824
 30
0.0
 10
9.6214818215
 20
24.1492961368
 30
0.0
 10
9.0816540201
 20
24.3616644561
 30
0.0
 10
8.6333454371
 20
24.498392926
 30
0.0
 10
8.2800952012
 20
24.5815124385
 30
0.0
 10
7.938170236
 20
24.6459791538
 30
0.0
 10
7.5184651909
 20
24.6953080905
 30
0.0
 10
7.0255104693
 20
24.7031036073
 30
0.0
 10
6.6271149251
 20
24.6657025742
 30
0.0
 10
6.3202376652
 20
24.6093756697
 30
0.0
 10
6.0974095835
 20
24.554521282
 30
0.0
 10
5.8805766088
 20
24.4868306221
 30
0.0
 10
5.670021239
 20
24.4064097116
 30
0.0
 10
5.4660490082
 20
24.3133664827
 30
0.0
 10
5.3345686349
 20
24.2429453426
 30
0.0
 10
5.2701241763
 20
24.2057357066
 30
0.0
  0
SPLINE
  5
22B
100
AcDbEntity
  8
0
100
AcDbSpline
 62
7
  6
BYLAYER
 70
0
 71
3
 72
20
 73
16
 74
0
 42
0.0000001
 43
0.0000001
 44
0.0000000001
 40
0.0
 40
0.0
 40
0.0
 40
0.0
 40
0.1485248385
 40
0.2893904795
 40
0.4225516342
 40
0.4863887701
 40
0.5484812194
 40
0.6089302327
 40
0.6678639013
 40
0.7254398378
 40
0.7818376569
 40
0.837260885
 40
0.8919339108
 40
0.9460961191
 40
1.0
 40
1.0
 40
1.0
 40
1.0
 10
16.5305291982
 20
11.6424161415
 30
0.0
 10
16.5305291982
 20
11.4210488406
 30
0.0
 10
16.5126751768
 20
10.9894221411
 30
0.0
 10
16.4277315403
 20
10.3644347049
 30
0.0
 10
16.3077850419
 20
9.8741596639
 30
0.0
 10
16.1828200454
 20
9.5085594005
 30
0.0
 10
16.0767441342
 20
9.251614163
 30
0.0
 10
15.9572406373
 20
9.0087399948
 30
0.0
 10
15.8245566196
 20
8.7805420507
 30
0.0
 10
15.6790423082
 20
8.5675595736
 30
0.0
 10
15.5210130882
 20
8.3703299593
 30
0.0
 10
15.3508347604
 20
8.1893611786
 30
0.0
 10
15.1689445372
 20
8.0250755601
 30
0.0
 10
14.9757797446
 20
7.8779290601
 30
0.0
 10
14.8396486958
 20
7.7914157639
 30
0.0
 10
14.770071651
 20
7.7512457833
 30
0.0
  0
SPLINE
  5
22C
100
AcDbEntity
  8
0
100
AcDbSpline
 62
7
  6
BYLAYER
 70
0
 71
3
 72
20
 73
16
 74
0
 42
0.0000001
 43
0.0000001
 44
0.0000000001
 40
0.0
 40
0.0
 40
0.0
 40
0.0
 40
0.0539036221
 40
0.1080656022
 40
0.1627384119
 40
0.2181614583
 40
0.2745591852
 40
0.3321350597
 40
0.391068735
 40
0.4515178409
 40
0.5136103334
 40
0.5774475111
 40
0.7106089696
 40
0.8514751665
 40
1.0
 40
1.0
 40
1.0
 40
1.0
 10
12.8255360507
 20
6.6285744438
 30
0.0
 10
12.895112809
 20
6.6687441437
 30
0.0
 10
13.0312433761
 20
6.7552568707
 30
0.0
 10
13.2244068908
 20
6.9024032887
 30
0.0
 10
13.4062969162
 20
7.0666876704
 30
0.0
 10
13.5764751635
 20
7.2476555609
 30
0.0
 10
13.7345036643
 20
7.4448850868
 30
0.0
 10
13.8800185811
 20
7.6578668441
 30
0.0
 10
14.0127030242
 20
7.8860646304
 30
0.0
 10
14.1322062773
 20
8.1289391338
 30
0.0
 10
14.2382830438
 20
8.3858842806
 30
0.0
 10
14.3632486735
 20
8.7514849433
 30
0.0
 10
14.4831956591
 20
9.2417612487
 30
0.0
 10
14.5681393288
 20
9.8667499413
 30
0.0
 10
14.5859936459
 20
10.2983774328
 30
0.0
 10
14.5859936459
 20
10.5197447183
 30
0.0
  0
SPLINE
  5
22D
100
AcDbEntity
  8
0
100
AcDbSpline
 62
7
  6
BYLAYER
 70
0
 71
3
 72
17
 73
13
 74
0
 42
0.0000001
 43
0.0000001
 44
0.0000000001
 40
0.0
 40
0.0
 40
0.0
 40
0.0
 40
0.0536887764
 40
0.1078128014
 40
0.1625874332
 40
0.2182159075
 40
0.3326943355
 40
0.4525904577
 40
0.5788223802
 40
0.7119847209
 40
0.8524046889
 40
1.0
 40
1.0
 40
1.0
 40
1.0
 10
4.5344522517
 20
21.0013302327
 30
0.0
 10
4.4743239462
 20
20.9604716513
 30
0.0
 10
4.3568308821
 20
20.8735214912
 30
0.0
 10
4.1906520769
 20
20.7287986235
 30
0.0
 10
4.03434579
 20
20.5697405872
 30
0.0
 10
3.837769865
 20
20.3368748032
 30
0.0
 10
3.6183827915
 20
20.0094737422
 30
0.0
 10
3.4028406046
 20
19.5699175723
 30
0.0
 10
3.2338229536
 20
19.0837409937
 30
0.0
 10
3.1126031096
 20
18.5551289141
 30
0.0
 10
3.0400477649
 20
17.988674297
 30
0.0
 10
3.0247481677
 20
17.5984526005
 30
0.0
 10
3.0247481677
 20
17.3986022818
 30
0.0
  0
SPLINE
  5
22E
100
AcDbEntity
  8
0
100
AcDbSpline
 62
7
  6
BYLAYER
 70
0
 71
3
 72
39
 73
35
 74
0
 42
0.0000001
 43
0.0000001
 44
0.0000000001
 40
0.0
 40
0.0
 40
0.0
 40
0.0
 40
0.0306574098
 40
0.062388015
 40
0.0951034112
 40
0.1287239604
 40
0.1631617432
 40
0.1983103941
 40
0.2340556931
 40
0.270277237
 40
0.306849942
 40
0.3436435486
 40
0.380525946
 40
0.4173638087
 40
0.4540246167
 40
0.4903774842
 40
0.526295206
 40
0.5616552584
 40
0.5963419201
 40
0.630247207
 40
0.6632735491
 40
0.6953345415
 40
0.7263584682
 40
0.7562888486
 40
0.7850889764
 40
0.8127423305
 40
0.8392581156
 40
0.8646714892
 40
0.8890494092
 40
0.9124899679
 40
0.9351263801
 40
0.95712342
 40
0.9786759203
 40
1.0
 40
1.0
 40
1.0
 40
1.0
 10
14.5859936459
 20
10.5197447183
 30
0.0
 10
14.5859936459
 20
10.6931068489
 30
0.0
 10
14.574534283
 20
11.0459786099
 30
0.0
 10
14.5253138321
 20
11.5817913301
 30
0.0
 10
14.443905335
 20
12.1306094189
 30
0.0
 10
14.3308340619
 20
12.6893872116
 30
0.0
 10
14.1866703882
 20
13.2551564988
 30
0.0
 10
14.0122410484
 20
13.8249020401
 30
0.0
 10
13.808427777
 20
14.395520545
 30
0.0
 10
13.5763828267
 20
14.9639516421
 30
0.0
 10
13.3173176317
 20
15.5271137584
 30
0.0
 10
13.0326663932
 20
16.0819855098
 30
0.0
 10
12.7239335769
 20
16.6255514164
 30
0.0
 10
12.3928140361
 20
17.1548925822
 30
0.0
 10
12.0410738803
 20
17.6671370022
 30
0.0
 10
11.6706283277
 20
18.1595312709
 30
0.0
 10
11.2834650756
 20
18.6294088271
 30
0.0
 10
10.881678427
 20
19.0742402936
 30
0.0
 10
10.4674328963
 20
19.4916248551
 30
0.0
 10
10.0429552039
 20
19.8793094185
 30
0.0
 10
9.610536732
 20
20.2352118894
 30
0.0
 10
9.1724867196
 20
20.5574008175
 30
0.0
 10
8.7311685204
 20
20.8441581193
 30
0.0
 10
8.2889212341
 20
21.0939085395
 30
0.0
 10
7.8481229628
 20
21.3053314218
 30
0.0
 10
7.4110924425
 20
21.4772268876
 30
0.0
 10
6.9801686193
 20
21.6086884372
 30
0.0
 10
6.5576127137
 20
21.698894086
 30
0.0
 10
6.1456876627
 20
21.747351986
 30
0.0
 10
5.7465908341
 20
21.7536159054
 30
0.0
 10
5.3625108848
 20
21.7176199702
 30
0.0
 10
4.9955926804
 20
21.6393278204
 30
0.0
 10
4.6480067714
 20
21.5192063784
 30
0.0
 10
4.430014873
 20
21.4112992167
 30
0.0
 10
4.3255859136
 20
21.3510078197
 30
0.0
  0
ENDSEC
  0
SECTION
  2
OBJECTS
  0
DICTIONARY
  5
C
100
AcDbDictionary
280
0
281
1
  3
ACAD_GROUP
350
D
  3
ACAD_MLINESTYLE
350
17
  3
ACAD_LAYOUT
350
1A
  3
ACAD_PLOTSETTINGS
350
19
  3
ACAD_PLOTSTYLENAME
350
E
  0
DICTIONARY
  5
D
102
{ACAD_REACTORS
330
C
102
}
100
AcDbDictionary
280
0
281
1
  0
ACDBDICTIONARYWDFLT
  5
E
102
{ACAD_REACTORS
330
C
102
}
100
AcDbDictionary
281
1
  3
Normal
350
F
100
AcDbDictionaryWithDefault
340
F
  0
DICTIONARY
  5
17
102
{ACAD_REACTORS
330
C
102
}
100
AcDbDictionary
280
0
281
1
  3
Standard
350
18
  0
DICTIONARY
  5
19
102
{ACAD_REACTORS
330
C
102
}
100
AcDbDictionary
281
1
  0
DICTIONARY
  5
1A
102
{ACAD_REACTORS
330
C
102
}
100
AcDbDictionary
281
1
  3
Model
350
22F
  3
Layout1
350
230
  0
ACDBPLACEHOLDER
  5
F
102
{ACAD_REACTORS
330
E
102
}
  0
MLINESTYLE
  5
18
102
{ACAD_REACTORS
330
17
102
}
100
AcDbMlineStyle
  2
STANDARD
 70
0
  3

 62
256
 51
90.0
 52
90.0
 71
2
 49
0.5
 62
256
  6
BYLAYER
 49
-0.5
 62
256
  6
BYLAYER
  0
LAYOUT
  5
22F
102
{ACAD_REACTORS
330
1A
102
}
100
AcDbPlotSettings
  1

  2
none_device
  4

  6

 40
0.0
 41
0.0
 42
0.0
 43
0.0
 44
210.0
 45
297.0
 46
0.0
 47
0.0
 48
0.0
 49
0.0
140
0.0
141
0.0
142
1.0
143
1.0
 70
1024
 72
1
 73
0
 74
0
  7

 75
0
147
1.0
148
0.0
149
0.0
100
AcDbLayout
  1
Model
 70
0
 71
0
 10
0.0
 20
0.0
 11
210.0
 21
297.0
 12
0.0
 22
0.0
 32
0.0
 14
0.0
 24
0.0
 34
0.0
 15
0.0
 25
0.0
 35
0.0
146
0.0
 13
0.0
 23
0.0
 33
0.0
 16
1.0
 26
0.0
 36
0.0
 17
0.0
 27
1.0
 37
0.0
 76
0
330
210
345
0
346
0
  0
LAYOUT
  5
230
102
{ACAD_REACTORS
330
1A
102
}
100
AcDbPlotSettings
  1

  2
none_device
  4

  6

 40
0.0
 41
0.0
 42
0.0
 43
0.0
 44
210.0
 45
297.0
 46
0.0
 47
0.0
 48
0.0
 49
0.0
140
0.0
141
0.0
142
1.0
143
1.0
 70
0
 72
1
 73
0
 74
0
  7

 75
0
147
1.0
148
0.0
149
0.0
100
AcDbLayout
  1
Layout1
 70
0
 71
1
 10
0.0
 20
0.0
 11
210.0
 21
297.0
 12
0.0
 22
0.0
 32
0.0
 14
0.0
 24
0.0
 34
0.0
 15
0.0
 25
0.0
 35
0.0
146
0.0
 13
0.0
 23
0.0
 33
0.0
 16
1.0
 26
0.0
 36
0.0
 17
0.0
 27
1.0
 37
0.0
 76
0
330
211
345
0
346
0
  0
ENDSEC
  0
EOF
