999
DXF file: C:\Users\sesa63760\Dev\_Creo\CAD\MCADID0004413_3D-CAD\drw0001_1.dxf
999
Pro/ENGINEER 2019471 by Parametric Technology Corporation
  0
SECTION
  2
HEADER
  9
$ACADVER
  1
AC1024
  9
$DWGCODEPAGE
  3
ANSI_1252
  9
$EXTMAX
 10
65.0357626029
 20
91.9791499669
 30
0.0
  9
$EXTMIN
 10
0.0
 20
0.0
 30
0.0
  9
$LIMMIN
 10
0.0
 20
0.0
  9
$LIMMAX
 10
65.0357626029
 20
91.9791499669
  9
$VIEWCTR
 10
32.5178813014
 20
45.9895749835
  9
$VIEWSIZE
 40
91.9791499669
  9
$CLAYER
  8
0
  9
$LTSCALE
 40
5.9956779238
  9
$CELTYPE
  6
BYLAYER
  9
$DIMSCALE
 40
1.0
  9
$DIMASZ
 40
0.7742352691
  9
$DIMEXO
 40
1.0
  9
$DIMDLI
 40
4.1424683837
  9
$DIMEXE
 40
1.0
  9
$DIMCEN
 40
0.981110933
  9
$DIMLFAC
 40
1.0
  9
$DIMBLK
  1
_FILLED
  9
$DIMALT
 70
0
  9
$DIMALTF
 40
0.0393700787
  9
$DIMTXT
 40
1.0839293767
  9
$DIMTOL
 70
1
  9
$DIMLIM
 70
0
  9
$DIMTFAC
 40
1.0
  9
$DIMTP
 40
0.01
  9
$DIMTM
 40
0.01
  9
$DIMGAP
 40
0.625
  9
$DIMDSEP
 70
46
  9
$AUNITS
 70
0
  9
$PDMODE
 70
3
  9
$PDSIZE
 40
0.3125
  9
$HANDSEED
  5
25B
  9
$TILEMODE
 70
1
  9
$MEASUREMENT
 70
1
  9
$INSUNITS
 70
4
  0
ENDSEC
  0
SECTION
  2
CLASSES
  0
CLASS
  1
ACDBDICTIONARYWDFLT
  2
AcDbDictionaryWithDefault
  3
AutoCAD 2000
 90
0
 91
1
280
0
281
0
  0
CLASS
  1
ACDBPLACEHOLDER
  2
AcDbPlaceHolder
  3
AutoCAD 2000
 90
0
 91
1
280
0
281
0
  0
CLASS
  1
LAYOUT
  2
AcDbLayout
  3
AutoCAD 2000
 90
0
 91
0
280
0
281
0
  0
ENDSEC
  0
SECTION
  2
TABLES
  0
TABLE
  2
VPORT
  5
8
100
AcDbSymbolTable
 70
2
  0
VPORT
  5
1F4
100
AcDbSymbolTableRecord
100
AcDbViewportTableRecord
  2
*ACTIVE
 70
0
 10
0.0
 20
0.0
 11
1.0
 21
1.0
 12
32.5178813014
 22
45.9895749835
 13
0.0
 23
0.0
 14
1.0
 24
1.0
 15
0.0
 25
0.0
 16
0.0
 26
0.0
 36
1.0
 17
0.0
 27
0.0
 37
0.0
 40
91.9791499669
 41
0.7070707071
 42
50.0
 43
0.0
 44
0.0
 50
0.0
 51
0.0
 71
0
 72
100
 73
1
 74
1
 75
0
 76
0
 77
0
 78
0
  0
ENDTAB
  0
TABLE
  2
LTYPE
  5
5
100
AcDbSymbolTable
 70
6
  0
LTYPE
  5
14
100
AcDbSymbolTableRecord
100
AcDbLinetypeTableRecord
  2
BYBLOCK
 70
0
  3

 72
65
 73
0
 40
0.0
  0
LTYPE
  5
15
100
AcDbSymbolTableRecord
100
AcDbLinetypeTableRecord
  2
BYLAYER
 70
0
  3

 72
65
 73
0
 40
0.0
  0
LTYPE
  5
16
100
AcDbSymbolTableRecord
100
AcDbLinetypeTableRecord
  2
CONTINUOUS
 70
64
  3
Solid line
 72
65
 73
0
 40
0.0
  0
LTYPE
  5
1F5
100
AcDbSymbolTableRecord
100
AcDbLinetypeTableRecord
  2
CENTER
 70
64
  3
____ _ ____ _ ____ _ ____ _ ____ _ ____ _ ____
 72
65
 73
4
 40
0.6
 49
0.375
 74
0
 49
-0.075
 74
0
 49
0.075
 74
0
 49
-0.075
 74
0
  0
LTYPE
  5
1F6
100
AcDbSymbolTableRecord
100
AcDbLinetypeTableRecord
  2
HIDDEN
 70
64
  3
- - - - - - - - - - - - - - - - - - - -
 72
65
 73
2
 40
0.2
 49
0.1
 74
0
 49
-0.1
 74
0
  0
LTYPE
  5
1F7
100
AcDbSymbolTableRecord
100
AcDbLinetypeTableRecord
  2
PHANTOM
 70
64
  3
_____ _ _ _____ _ _ _____ _ _ _____
 72
65
 73
6
 40
0.8
 49
0.45
 74
0
 49
-0.05
 74
0
 49
0.1
 74
0
 49
-0.05
 74
0
 49
0.1
 74
0
 49
-0.05
 74
0
  0
LTYPE
  5
1F8
100
AcDbSymbolTableRecord
100
AcDbLinetypeTableRecord
  2
DOT
 70
64
  3
. . . . . . . . . . . . . . . . . . . .
 72
65
 73
2
 40
0.2
 49
0.1
 74
0
 49
-0.1
 74
0
  0
LTYPE
  5
1F9
100
AcDbSymbolTableRecord
100
AcDbLinetypeTableRecord
  2
DASHED
 70
64
  3
- - - - - - - - - - - - - - - - - - - -
 72
65
 73
2
 40
0.2
 49
0.1
 74
0
 49
-0.1
 74
0
  0
ENDTAB
  0
TABLE
  2
LAYER
  5
2
100
AcDbSymbolTable
 70
36
  0
LAYER
  5
10
100
AcDbSymbolTableRecord
100
AcDbLayerTableRecord
  2
0
 70
0
 62
7
  6
CONTINUOUS
370
-3
390
F
  0
LAYER
  5
1FA
100
AcDbSymbolTableRecord
100
AcDbLayerTableRecord
  2
DEFAULT_1
 70
0
 62
7
  6
CENTER
370
-3
390
F
  0
LAYER
  5
1FB
100
AcDbSymbolTableRecord
100
AcDbLayerTableRecord
  2
DEFAULT_2
 70
0
 62
7
  6
HIDDEN
370
-3
390
F
  0
LAYER
  5
1FC
100
AcDbSymbolTableRecord
100
AcDbLayerTableRecord
  2
DEFAULT_3
 70
0
 62
7
  6
PHANTOM
370
-3
390
F
  0
LAYER
  5
1FD
100
AcDbSymbolTableRecord
100
AcDbLayerTableRecord
  2
00_COMPONENTS
 70
0
 62
7
  6
CONTINUOUS
370
-3
390
F
  0
LAYER
  5
1FE
100
AcDbSymbolTableRecord
100
AcDbLayerTableRecord
  2
01_1_DEFAULT_DATUMS
 70
0
 62
7
  6
CONTINUOUS
370
-3
390
F
  0
LAYER
  5
1FF
100
AcDbSymbolTableRecord
100
AcDbLayerTableRecord
  2
01_PLANES
 70
0
 62
7
  6
CONTINUOUS
370
-3
390
F
  0
LAYER
  5
200
100
AcDbSymbolTableRecord
100
AcDbLayerTableRecord
  2
02_COORD_SYS
 70
0
 62
7
  6
CONTINUOUS
370
-3
390
F
  0
LAYER
  5
201
100
AcDbSymbolTableRecord
100
AcDbLayerTableRecord
  2
03_AXES
 70
0
 62
7
  6
CONTINUOUS
370
-3
390
F
  0
LAYER
  5
202
100
AcDbSymbolTableRecord
100
AcDbLayerTableRecord
  2
04_POINTS
 70
0
 62
7
  6
CONTINUOUS
370
-3
390
F
  0
LAYER
  5
203
100
AcDbSymbolTableRecord
100
AcDbLayerTableRecord
  2
05_CURVES
 70
0
 62
7
  6
CONTINUOUS
370
-3
390
F
  0
LAYER
  5
204
100
AcDbSymbolTableRecord
100
AcDbLayerTableRecord
  2
06_SURFS
 70
0
 62
7
  6
CONTINUOUS
370
-3
390
F
  0
LAYER
  5
205
100
AcDbSymbolTableRecord
100
AcDbLayerTableRecord
  2
07_COSMETICS
 70
0
 62
7
  6
CONTINUOUS
370
-3
390
F
  0
LAYER
  5
206
100
AcDbSymbolTableRecord
100
AcDbLayerTableRecord
  2
10_NOTES
 70
0
 62
7
  6
CONTINUOUS
370
-3
390
F
  0
LAYER
  5
207
100
AcDbSymbolTableRecord
100
AcDbLayerTableRecord
  2
11_NOTES_PUB
 70
0
 62
7
  6
CONTINUOUS
370
-3
390
F
  0
LAYER
  5
208
100
AcDbSymbolTableRecord
100
AcDbLayerTableRecord
  2
13_REF_GTOL
 70
0
 62
7
  6
CONTINUOUS
370
-3
390
F
  0
LAYER
  5
209
100
AcDbSymbolTableRecord
100
AcDbLayerTableRecord
  2
16_MISC
 70
0
 62
7
  6
CONTINUOUS
370
-3
390
F
  0
LAYER
  5
20A
100
AcDbSymbolTableRecord
100
AcDbLayerTableRecord
  2
17_NO_PRINT
 70
0
 62
7
  6
CONTINUOUS
370
-3
390
F
  0
LAYER
  5
20B
100
AcDbSymbolTableRecord
100
AcDbLayerTableRecord
  2
18_DATUM_CAMS_JOINTS
 70
0
 62
7
  6
CONTINUOUS
370
-3
390
F
  0
LAYER
  5
20C
100
AcDbSymbolTableRecord
100
AcDbLayerTableRecord
  2
19_DATUM_FUNCTIONAL
 70
0
 62
7
  6
CONTINUOUS
370
-3
390
F
  0
LAYER
  5
20D
100
AcDbSymbolTableRecord
100
AcDbLayerTableRecord
  2
20_DATUM_KINEMATIC_SCHEME
 70
0
 62
7
  6
CONTINUOUS
370
-3
390
F
  0
ENDTAB
  0
TABLE
  2
STYLE
  5
3
100
AcDbSymbolTable
 70
1
  0
STYLE
  5
11
100
AcDbSymbolTableRecord
100
AcDbTextStyleTableRecord
  2
STANDARD
 70
0
 40
0.0
 41
1.0
 50
0.0
 71
0
 42
0.2
  3
ARIAL.TTF
  4

  0
STYLE
  5
20E
100
AcDbSymbolTableRecord
100
AcDbTextStyleTableRecord
  2
TEXTSTYLE_1
 70
0
 40
0.0
 41
0.8
 50
0.0
 71
0
 42
0.2
  3
gdt
  4

  0
ENDTAB
  0
TABLE
  2
VIEW
  5
6
100
AcDbSymbolTable
 70
0
  0
ENDTAB
  0
TABLE
  2
UCS
  5
7
100
AcDbSymbolTable
 70
0
  0
ENDTAB
  0
TABLE
  2
APPID
  5
9
100
AcDbSymbolTable
 70
1
  0
APPID
  5
20F
100
AcDbSymbolTableRecord
100
AcDbRegAppTableRecord
  2
ACAD
 70
0
  0
ENDTAB
  0
TABLE
  2
BLOCK_RECORD
  5
1
100
AcDbSymbolTable
 70
0
  0
BLOCK_RECORD
  5
210
100
AcDbSymbolTableRecord
100
AcDbBlockTableRecord
  2
*Model_Space
  0
BLOCK_RECORD
  5
211
100
AcDbSymbolTableRecord
100
AcDbBlockTableRecord
  2
*Paper_Space
  0
BLOCK_RECORD
  5
212
100
AcDbSymbolTableRecord
100
AcDbBlockTableRecord
  2
_FILLED
  0
ENDTAB
  0
TABLE
  2
DIMSTYLE
  5
A
100
AcDbSymbolTable
 70
1
100
AcDbDimStyleTable
 71
0
  0
DIMSTYLE
105
213
100
AcDbSymbolTableRecord
100
AcDbDimStyleTableRecord
  2
STANDARD
 70
0
  3

  4

 40
1.0
 41
0.7742352691
 42
1.0
 43
0.38
 44
1.0
 45
0.0
 46
0.0
 47
0.01
 48
0.01
140
1.0839293767
141
0.09
142
0.0
143
25.4
144
1.0
145
0.0
146
1.0
147
0.625
 71
1
 72
0
 73
0
 74
0
 75
0
 76
0
 77
1
 78
8
 79
2
170
0
171
1
172
0
173
0
174
0
175
0
176
0
177
0
178
0
270
2
179
2
271
2
272
2
273
2
274
2
275
0
280
0
281
0
282
0
283
1
284
8
285
0
286
0
287
3
288
0
340
11
278
46
341
212
342
212
343
212
344
212
  0
ENDTAB
  0
ENDSEC
  0
SECTION
  2
BLOCKS
  0
BLOCK
  5
20
100
AcDbEntity
  8
0
100
AcDbBlockBegin
  2
*Model_Space
 70
0
 10
0.0
 20
0.0
 30
0.0
  3
*Model_Space
  1

  0
ENDBLK
  5
21
100
AcDbEntity
  8
0
100
AcDbBlockEnd
  0
BLOCK
  5
1C
100
AcDbEntity
  8
0
100
AcDbBlockBegin
  2
*Paper_Space
 70
0
 10
0.0
 20
0.0
 30
0.0
  3
*Paper_Space
  1

  0
ENDBLK
  5
1D
100
AcDbEntity
  8
0
100
AcDbBlockEnd
  0
BLOCK
  5
214
100
AcDbEntity
  8
0
100
AcDbBlockBegin
  2
_FILLED
 70
64
 10
0.0
 20
0.0
  3
_FILLED
  1

  0
SOLID
  5
215
100
AcDbEntity
  8
0
  6
BYBLOCK
 62
0
100
AcDbTrace
 10
0.0
 20
0.0
 11
-1.0
 21
0.25
 12
-1.0
 22
-0.25
 13
-1.0
 23
-0.25
  0
ENDBLK
  5
216
100
AcDbEntity
  8
0
  6
BYBLOCK
 62
0
100
AcDbBlockEnd
  0
ENDSEC
  0
SECTION
  2
ENTITIES
  0
LINE
  5
217
100
AcDbEntity
  8
0
100
AcDbLine
 62
7
  6
BYLAYER
 10
11.1246456675
 20
68.7595333501
 11
18.1956840397
 21
72.8419748888
  0
LINE
  5
218
100
AcDbEntity
  8
0
100
AcDbLine
 62
7
  6
BYLAYER
 10
7.5450034108
 20
51.1537467675
 11
7.5518880798
 21
50.3765703748
  0
LINE
  5
219
100
AcDbEntity
  8
0
100
AcDbLine
 62
7
  6
BYLAYER
 10
10.4246069808
 20
45.5904683281
 11
10.4246069808
 21
50.2951190735
  0
LINE
  5
21A
100
AcDbEntity
  8
0
100
AcDbLine
 62
7
  6
BYLAYER
 10
11.1246456675
 20
68.7595333501
 11
11.1246456675
 21
59.7780067617
  0
LINE
  5
21B
100
AcDbEntity
  8
0
100
AcDbLine
 62
7
  6
BYLAYER
 10
11.1246456675
 20
58.1449202772
 11
11.1246456675
 21
42.6313743517
  0
LINE
  5
21C
100
AcDbEntity
  8
0
100
AcDbLine
 62
7
  6
BYLAYER
 10
11.4782005301
 20
59.5738863844
 11
11.4782005301
 21
57.9407998999
  0
LINE
  5
21D
100
AcDbEntity
  8
0
100
AcDbLine
 62
7
  6
BYLAYER
 10
10.4246069808
 20
50.2951190735
 11
11.1246456675
 21
51.165981922
  0
LINE
  5
21E
100
AcDbEntity
  8
0
100
AcDbLine
 62
7
  6
BYLAYER
 10
11.1246456675
 20
58.1449202772
 11
11.4782005301
 21
58.3490440538
  0
LINE
  5
21F
100
AcDbEntity
  8
0
100
AcDbLine
 62
7
  6
BYLAYER
 10
10.380156967
 20
55.3087087464
 11
10.4088679978
 21
55.3251166976
  0
LINE
  5
220
100
AcDbEntity
  8
0
100
AcDbLine
 62
7
  6
BYLAYER
 10
9.7103967776
 20
54.9299152082
 11
10.3800848547
 21
55.3088362378
  0
LINE
  5
221
100
AcDbEntity
  8
0
100
AcDbLine
 62
7
  6
BYLAYER
 10
11.1246456675
 20
42.6313743517
 11
51.4299000009
 21
19.3616513441
  0
LINE
  5
222
100
AcDbEntity
  8
0
100
AcDbLine
 62
7
  6
BYLAYER
 10
22.4384012699
 20
50.796647438
 11
23.1454343967
 21
52.0212715343
  0
LINE
  5
223
100
AcDbEntity
  8
0
100
AcDbLine
 62
7
  6
BYLAYER
 10
23.1454343967
 20
52.0212715343
 11
24.5598378152
 21
52.8378728543
  0
LINE
  5
224
100
AcDbEntity
  8
0
100
AcDbLine
 62
7
  6
BYLAYER
 10
11.1317167059
 20
45.1822275736
 11
10.4246069808
 21
45.5904683281
  0
LINE
  5
225
100
AcDbEntity
  8
0
100
AcDbLine
 62
7
  6
BYLAYER
 10
8.3801909011
 20
48.5785778711
 11
10.4246069808
 21
47.3982603995
  0
LINE
  5
226
100
AcDbEntity
  8
0
100
AcDbLine
 62
7
  6
BYLAYER
 10
11.1317167059
 20
49.886878319
 11
10.4246069808
 21
50.2951190735
  0
LINE
  5
227
100
AcDbEntity
  8
0
100
AcDbLine
 62
7
  6
BYLAYER
 10
22.4384012699
 20
50.796647438
 11
51.4298292899
 21
34.0588173267
  0
LINE
  5
228
100
AcDbEntity
  8
0
100
AcDbLine
 62
7
  6
BYLAYER
 10
11.4782005301
 20
57.9407998999
 11
11.1246456675
 21
58.1449202772
  0
LINE
  5
229
100
AcDbEntity
  8
0
100
AcDbLine
 62
7
  6
BYLAYER
 10
51.4298234026
 20
35.6916413535
 11
23.1454343967
 21
52.0212715343
  0
LINE
  5
22A
100
AcDbEntity
  8
0
100
AcDbLine
 62
7
  6
BYLAYER
 10
11.1246456675
 20
59.7780067617
 11
11.4782005301
 21
59.5738863844
  0
LINE
  5
22B
100
AcDbEntity
  8
0
100
AcDbLine
 62
7
  6
BYLAYER
 10
51.4299000009
 20
37.3247861711
 11
22.4384012699
 21
54.0626571065
  0
LINE
  5
22C
100
AcDbEntity
  8
0
100
AcDbLine
 62
7
  6
BYLAYER
 10
55.6724687009
 20
39.774219731
 11
58.5008676621
 21
38.1412588654
  0
LINE
  5
22D
100
AcDbEntity
  8
0
100
AcDbLine
 62
7
  6
BYLAYER
 10
51.4299000009
 20
45.4898103424
 11
58.500938373
 21
49.5722518812
  0
LINE
  5
22E
100
AcDbEntity
  8
0
100
AcDbLine
 62
7
  6
BYLAYER
 10
51.4299000009
 20
45.4898103424
 11
11.1246456675
 21
68.7595333501
  0
LINE
  5
22F
100
AcDbEntity
  8
0
100
AcDbLine
 62
7
  6
BYLAYER
 10
51.4299000009
 20
37.3247861711
 11
58.500938373
 21
41.4072277099
  0
LINE
  5
230
100
AcDbEntity
  8
0
100
AcDbLine
 62
7
  6
BYLAYER
 10
58.500938373
 20
49.5722518812
 11
18.1956840397
 21
72.8419748888
  0
LINE
  5
231
100
AcDbEntity
  8
0
100
AcDbLine
 62
7
  6
BYLAYER
 10
51.4299000009
 20
19.3616513441
 11
51.4298234026
 21
35.6916413535
  0
LINE
  5
232
100
AcDbEntity
  8
0
100
AcDbLine
 62
7
  6
BYLAYER
 10
51.4299000009
 20
37.3247861711
 11
51.4299000009
 21
45.4898103424
  0
LINE
  5
233
100
AcDbEntity
  8
0
100
AcDbLine
 62
7
  6
BYLAYER
 10
51.4298234026
 20
35.6916413535
 11
57.0867955211
 21
38.9576762333
  0
LINE
  5
234
100
AcDbEntity
  8
0
100
AcDbLine
 62
7
  6
BYLAYER
 10
51.4298292905
 20
34.058654028
 11
58.5010090834
 21
38.1411772155
  0
LINE
  5
235
100
AcDbEntity
  8
0
100
AcDbLine
 62
7
  6
BYLAYER
 10
58.500938373
 20
23.4440928828
 11
58.500938373
 21
38.1411363911
  0
LINE
  5
236
100
AcDbEntity
  8
0
100
AcDbLine
 62
7
  6
BYLAYER
 10
58.500938373
 20
41.4072277099
 11
58.500938373
 21
49.5722518812
  0
LINE
  5
237
100
AcDbEntity
  8
0
100
AcDbLine
 62
7
  6
BYLAYER
 10
51.4299000009
 20
19.3616513441
 11
58.500938373
 21
23.4440928828
  0
ARC
  5
238
100
AcDbEntity
  8
0
100
AcDbCircle
 62
7
  6
BYLAYER
 10
53.7598690991
 20
37.9136529691
 40
0.5877891084
100
AcDbArc
 50
21.7964963435
 51
24.7804251642
  0
ARC
  5
239
100
AcDbEntity
  8
0
100
AcDbCircle
 62
7
  6
BYLAYER
 10
53.7606730529
 20
38.1641386941
 40
0.5868754247
100
AcDbArc
 50
335.5113009546
 51
338.1978965492
  0
SPLINE
  5
23A
100
AcDbEntity
  8
0
100
AcDbSpline
 62
7
  6
BYLAYER
 70
0
 71
3
 72
9
 73
5
 74
0
 42
0.0000001
 43
0.0000001
 44
0.0000000001
 40
0.0
 40
0.0
 40
0.0
 40
0.0
 40
0.4938440067
 40
1.0
 40
1.0
 40
1.0
 40
1.0
 10
54.3440831148
 20
38.1411403196
 30
0.0
 10
54.3440786243
 20
38.1082758976
 30
0.0
 10
54.337402205
 20
38.0415745346
 30
0.0
 10
54.318076495
 20
37.9774481838
 30
0.0
 10
54.3055705652
 20
37.9461720334
 30
0.0
  0
SPLINE
  5
23B
100
AcDbEntity
  8
0
100
AcDbSpline
 62
7
  6
BYLAYER
 70
0
 71
3
 72
10
 73
6
 74
0
 42
0.0000001
 43
0.0000001
 44
0.0000000001
 40
0.0
 40
0.0
 40
0.0
 40
0.0
 40
0.4620168855
 40
0.7214509654
 40
1.0
 40
1.0
 40
1.0
 40
1.0
 10
54.2947549525
 20
37.9208707582
 30
0.0
 10
54.2590027173
 20
37.8423514441
 30
0.0
 10
54.1761463255
 20
37.7314745044
 30
0.0
 10
54.0341817192
 20
37.6099904804
 30
0.0
 10
53.9498013874
 20
37.5547867907
 30
0.0
 10
53.9047545993
 20
37.5287791707
 30
0.0
  0
SPLINE
  5
23C
100
AcDbEntity
  8
0
100
AcDbSpline
 62
7
  6
BYLAYER
 70
0
 71
3
 72
11
 73
7
 74
0
 42
0.0000001
 43
0.0000001
 44
0.0000000001
 40
0.0
 40
0.0
 40
0.0
 40
0.0
 40
0.2177869107
 40
0.450916938
 40
0.7103006503
 40
1.0
 40
1.0
 40
1.0
 40
1.0
 10
22.6455073455
 20
53.7039231223
 30
0.0
 10
22.678493784
 20
53.72296774
 30
0.0
 10
22.7542856768
 20
53.7504724079
 30
0.0
 10
22.8801730901
 20
53.7536573137
 30
0.0
 10
23.0143382524
 20
53.7212577861
 30
0.0
 10
23.1016264836
 20
53.6797316052
 30
0.0
 10
23.1455051071
 20
53.6543988432
 30
0.0
  0
SPLINE
  5
23D
100
AcDbEntity
  8
0
100
AcDbSpline
 62
7
  6
BYLAYER
 70
0
 71
3
 72
20
 73
16
 74
0
 42
0.0000001
 43
0.0000001
 44
0.0000000001
 40
0.0
 40
0.0
 40
0.0
 40
0.0
 40
0.0428301836
 40
0.0874298145
 40
0.1352303245
 40
0.1871620766
 40
0.2436308801
 40
0.3046118587
 40
0.3697370547
 40
0.4383714746
 40
0.5826211611
 40
0.729687008
 40
0.8711863708
 40
0.9376074823
 40
1.0
 40
1.0
 40
1.0
 40
1.0
 10
13.6602044243
 20
52.936827251
 30
0.0
 10
13.7095140172
 20
52.9652850579
 30
0.0
 10
13.8181898611
 20
53.0104828712
 30
0.0
 10
13.9976060756
 20
53.0367382019
 30
0.0
 10
14.1902677389
 20
53.0225998129
 30
0.0
 10
14.3918978259
 20
52.9690072838
 30
0.0
 10
14.5985431344
 20
52.8776866965
 30
0.0
 10
14.8060942944
 20
52.7507325882
 30
0.0
 10
15.0103204212
 20
52.590830272
 30
0.0
 10
15.2768596031
 20
52.3341195791
 30
0.0
 10
15.5730375808
 20
51.954800709
 30
0.0
 10
15.847982104
 20
51.4467127192
 30
0.0
 10
16.000175832
 20
50.9968859086
 30
0.0
 10
16.0631319837
 20
50.6425843713
 30
0.0
 10
16.0744137436
 20
50.4712377507
 30
0.0
 10
16.0744137436
 20
50.388302143
 30
0.0
  0
SPLINE
  5
23E
100
AcDbEntity
  8
0
100
AcDbSpline
 62
7
  6
BYLAYER
 70
0
 71
3
 72
20
 73
16
 74
0
 42
0.0000001
 43
0.0000001
 44
0.0000000001
 40
0.0
 40
0.0
 40
0.0
 40
0.0
 40
0.0428301042
 40
0.0874298121
 40
0.1352303843
 40
0.1871623667
 40
0.2436330846
 40
0.3046173553
 40
0.3697452028
 40
0.4383813995
 40
0.5826327108
 40
0.7296936846
 40
0.8711864463
 40
0.9376070657
 40
1.0
 40
1.0
 40
1.0
 40
1.0
 10
13.6602043955
 20
57.8358418022
 30
0.0
 10
13.7095138749
 20
57.8642996066
 30
0.0
 10
13.818189686
 20
57.9094976136
 30
0.0
 10
13.9976060959
 20
57.9357523755
 30
0.0
 10
14.1902682124
 20
57.9216143345
 30
0.0
 10
14.3919014098
 20
57.8680214898
 30
0.0
 10
14.5985523268
 20
57.7766954932
 30
0.0
 10
14.8061119148
 20
57.6497350825
 30
0.0
 10
15.0103442529
 20
57.4898239116
 30
0.0
 10
15.2768872181
 20
57.2331054751
 30
0.0
 10
15.5730580931
 20
56.8537833496
 30
0.0
 10
15.8479921604
 20
56.3457048723
 30
0.0
 10
16.0001777018
 20
55.8958922307
 30
0.0
 10
16.0631313295
 20
55.5415993113
 30
0.0
 10
16.0744137436
 20
55.370252816
 30
0.0
 10
16.0744137436
 20
55.2873166458
 30
0.0
  0
SPLINE
  5
23F
100
AcDbEntity
  8
0
100
AcDbSpline
 62
7
  6
BYLAYER
 70
0
 71
3
 72
20
 73
16
 74
0
 42
0.0000001
 43
0.0000001
 44
0.0000000001
 40
0.0
 40
0.0
 40
0.0
 40
0.0
 40
0.0428301042
 40
0.0874298121
 40
0.1352303843
 40
0.1871623667
 40
0.2436330846
 40
0.3046173553
 40
0.3697452028
 40
0.4383813995
 40
0.5826327108
 40
0.7296936846
 40
0.8711864463
 40
0.9376070657
 40
1.0
 40
1.0
 40
1.0
 40
1.0
 10
13.6602043955
 20
64.3678611392
 30
0.0
 10
13.7095138749
 20
64.3963189437
 30
0.0
 10
13.818189686
 20
64.4415169507
 30
0.0
 10
13.9976060959
 20
64.4677717126
 30
0.0
 10
14.1902682124
 20
64.4536336715
 30
0.0
 10
14.3919014098
 20
64.4000408268
 30
0.0
 10
14.5985523268
 20
64.3087148302
 30
0.0
 10
14.8061119148
 20
64.1817544195
 30
0.0
 10
15.0103442529
 20
64.0218432486
 30
0.0
 10
15.2768872181
 20
63.7651248121
 30
0.0
 10
15.5730580931
 20
63.3858026866
 30
0.0
 10
15.8479921604
 20
62.8777242093
 30
0.0
 10
16.0001777018
 20
62.4279115678
 30
0.0
 10
16.0631313295
 20
62.0736186484
 30
0.0
 10
16.0744137436
 20
61.9022721531
 30
0.0
 10
16.0744137436
 20
61.8193359828
 30
0.0
  0
SPLINE
  5
240
100
AcDbEntity
  8
0
100
AcDbSpline
 62
7
  6
BYLAYER
 70
0
 71
3
 72
13
 73
9
 74
0
 42
0.0000001
 43
0.0000001
 44
0.0000000001
 40
0.0
 40
0.0
 40
0.0
 40
0.0
 40
0.2893498224
 40
0.5483276209
 40
0.6677524169
 40
0.7817657463
 40
0.8919063293
 40
1.0
 40
1.0
 40
1.0
 40
1.0
 10
46.4801319249
 20
32.8339496986
 30
0.0
 10
46.4801319249
 20
32.7325972066
 30
0.0
 10
46.4648394581
 20
32.5399561472
 30
0.0
 10
46.3979261037
 20
32.3133347527
 30
0.0
 10
46.3166931387
 20
32.1605797276
 30
0.0
 10
46.2450156122
 20
32.0633128083
 30
0.0
 10
46.1617419388
 20
31.9813108108
 30
0.0
 10
46.0986955918
 20
31.9373134173
 30
0.0
 10
46.0659023436
 20
31.9183876086
 30
0.0
  0
SPLINE
  5
241
100
AcDbEntity
  8
0
100
AcDbSpline
 62
7
  6
BYLAYER
 70
0
 71
3
 72
13
 73
9
 74
0
 42
0.0000001
 43
0.0000001
 44
0.0000000001
 40
0.0
 40
0.0
 40
0.0
 40
0.0
 40
0.2893498224
 40
0.5483276209
 40
0.6677524169
 40
0.7817657463
 40
0.8919063293
 40
1.0
 40
1.0
 40
1.0
 40
1.0
 10
16.0744137436
 20
61.8193359828
 30
0.0
 10
16.0744137436
 20
61.7179834908
 30
0.0
 10
16.0591212768
 20
61.5253424314
 30
0.0
 10
15.9922079224
 20
61.2987210369
 30
0.0
 10
15.9109749574
 20
61.1459660118
 30
0.0
 10
15.8392974309
 20
61.0486990925
 30
0.0
 10
15.7560237575
 20
60.966697095
 30
0.0
 10
15.6929774105
 20
60.9226997015
 30
0.0
 10
15.6601841623
 20
60.9037738928
 30
0.0
  0
SPLINE
  5
242
100
AcDbEntity
  8
0
100
AcDbSpline
 62
7
  6
BYLAYER
 70
0
 71
3
 72
13
 73
9
 74
0
 42
0.0000001
 43
0.0000001
 44
0.0000000001
 40
0.0
 40
0.0
 40
0.0
 40
0.0
 40
0.2893498224
 40
0.5483276209
 40
0.6677524169
 40
0.7817657463
 40
0.8919063293
 40
1.0
 40
1.0
 40
1.0
 40
1.0
 10
16.0744137436
 20
55.2873166458
 30
0.0
 10
16.0744137436
 20
55.1859641538
 30
0.0
 10
16.0591212768
 20
54.9933230944
 30
0.0
 10
15.9922079224
 20
54.7667016998
 30
0.0
 10
15.9109749574
 20
54.6139466748
 30
0.0
 10
15.8392974309
 20
54.5166797554
 30
0.0
 10
15.7560237575
 20
54.434677758
 30
0.0
 10
15.6929774105
 20
54.3906803645
 30
0.0
 10
15.6601841623
 20
54.3717545558
 30
0.0
  0
SPLINE
  5
243
100
AcDbEntity
  8
0
100
AcDbSpline
 62
7
  6
BYLAYER
 70
0
 71
3
 72
13
 73
9
 74
0
 42
0.0000001
 43
0.0000001
 44
0.0000000001
 40
0.0
 40
0.0
 40
0.0
 40
0.0
 40
0.2893498224
 40
0.5483276209
 40
0.6677524169
 40
0.7817657463
 40
0.8919063293
 40
1.0
 40
1.0
 40
1.0
 40
1.0
 10
16.0744137436
 20
50.388302143
 30
0.0
 10
16.0744137436
 20
50.286949651
 30
0.0
 10
16.0591212768
 20
50.0943085916
 30
0.0
 10
15.9922079224
 20
49.867687197
 30
0.0
 10
15.9109749574
 20
49.714932172
 30
0.0
 10
15.8392974309
 20
49.6176652527
 30
0.0
 10
15.7560237575
 20
49.5356632552
 30
0.0
 10
15.6929774105
 20
49.4916658617
 30
0.0
 10
15.6601841623
 20
49.472740053
 30
0.0
  0
SPLINE
  5
244
100
AcDbEntity
  8
0
100
AcDbSpline
 62
7
  6
BYLAYER
 70
0
 71
3
 72
15
 73
11
 74
0
 42
0.0000001
 43
0.0000001
 44
0.0000000001
 40
0.0
 40
0.0
 40
0.0
 40
0.0
 40
0.1141259136
 40
0.2373540757
 40
0.3669857852
 40
0.5000162477
 40
0.6330378371
 40
0.762681582
 40
0.8858496234
 40
1.0
 40
1.0
 40
1.0
 40
1.0
 10
53.9047545993
 20
37.5287791707
 30
0.0
 10
53.8321586861
 20
37.4868661508
 30
0.0
 10
53.6733433341
 20
37.4129484516
 30
0.0
 10
53.41477921
 20
37.3343120771
 30
0.0
 10
53.1347944463
 20
37.2859742058
 30
0.0
 10
52.8440064644
 20
37.2696367982
 30
0.0
 10
52.5532069554
 20
37.2859801383
 30
0.0
 10
52.2732766777
 20
37.3343759634
 30
0.0
 10
52.0147188608
 20
37.412970974
 30
0.0
 10
51.8559402364
 20
37.4869104742
 30
0.0
 10
51.783332943
 20
37.5288397186
 30
0.0
  0
SPLINE
  5
245
100
AcDbEntity
  8
0
100
AcDbSpline
 62
7
  6
BYLAYER
 70
0
 71
3
 72
20
 73
16
 74
0
 42
0.0000001
 43
0.0000001
 44
0.0000000001
 40
0.0
 40
0.0
 40
0.0
 40
0.0
 40
0.0428301836
 40
0.0874298145
 40
0.1352303245
 40
0.1871620766
 40
0.2436308801
 40
0.3046118587
 40
0.3697370547
 40
0.4383714746
 40
0.5826211611
 40
0.729687008
 40
0.8711863708
 40
0.9376074823
 40
1.0
 40
1.0
 40
1.0
 40
1.0
 10
44.0659226056
 20
35.3824748067
 30
0.0
 10
44.1152321985
 20
35.4109326135
 30
0.0
 10
44.2239080424
 20
35.4561304268
 30
0.0
 10
44.4033242569
 20
35.4823857576
 30
0.0
 10
44.5959859203
 20
35.4682473685
 30
0.0
 10
44.7976160072
 20
35.4146548394
 30
0.0
 10
45.0042613158
 20
35.3233342521
 30
0.0
 10
45.2118124758
 20
35.1963801438
 30
0.0
 10
45.4160386025
 20
35.0364778276
 30
0.0
 10
45.6825777844
 20
34.7797671347
 30
0.0
 10
45.9787557621
 20
34.4004482647
 30
0.0
 10
46.2537002854
 20
33.8923602748
 30
0.0
 10
46.4058940133
 20
33.4425334643
 30
0.0
 10
46.4688501651
 20
33.0882319269
 30
0.0
 10
46.4801319249
 20
32.9168853063
 30
0.0
 10
46.4801319249
 20
32.8339496986
 30
0.0
  0
SPLINE
  5
246
100
AcDbEntity
  8
0
100
AcDbSpline
 62
7
  6
BYLAYER
 70
0
 71
3
 72
14
 73
10
 74
0
 42
0.0000001
 43
0.0000001
 44
0.0000000001
 40
0.0
 40
0.0
 40
0.0
 40
0.0
 40
0.1083452369
 40
0.2186842558
 40
0.3328271038
 40
0.4522901787
 40
0.5781959192
 40
0.7113049609
 40
1.0
 40
1.0
 40
1.0
 40
1.0
 10
8.3801957214
 20
48.5785862211
 30
0.0
 10
8.3154630613
 20
48.6159492173
 30
0.0
 10
8.1909650245
 20
48.7026238694
 30
0.0
 10
8.026126322
 20
48.8638148092
 30
0.0
 10
7.8839142823
 20
49.0548871103
 30
0.0
 10
7.7657177349
 20
49.2737950295
 30
0.0
 10
7.6723023834
 20
49.5183377246
 30
0.0
 10
7.5794828613
 20
49.8852555566
 30
0.0
 10
7.553663019
 20
50.1774310408
 30
0.0
 10
7.5519021043
 20
50.3765786363
 30
0.0
  0
SPLINE
  5
247
100
AcDbEntity
  8
0
100
AcDbSpline
 62
7
  6
BYLAYER
 70
0
 71
3
 72
9
 73
5
 74
0
 42
0.0000001
 43
0.0000001
 44
0.0000000001
 40
0.0
 40
0.0
 40
0.0
 40
0.0
 40
0.5178277143
 40
1.0
 40
1.0
 40
1.0
 40
1.0
 10
10.4088679879
 20
55.3251155665
 30
0.0
 10
10.5268743255
 20
55.3918540658
 30
0.0
 10
10.7620421618
 20
55.5084362825
 30
0.0
 10
11.0105681686
 20
55.5938891893
 30
0.0
 10
11.1327852888
 20
55.6254892755
 30
0.0
  0
SPLINE
  5
248
100
AcDbEntity
  8
0
100
AcDbSpline
 62
7
  6
BYLAYER
 70
0
 71
3
 72
15
 73
11
 74
0
 42
0.0000001
 43
0.0000001
 44
0.0000000001
 40
0.0
 40
0.0
 40
0.0
 40
0.0
 40
0.1137598704
 40
0.2366985036
 40
0.3662741685
 40
0.4993525933
 40
0.6325258475
 40
0.7623584819
 40
0.8857270063
 40
1.0
 40
1.0
 40
1.0
 40
1.0
 10
7.5450106347
 20
51.1537510277
 30
0.0
 10
7.5434865422
 20
51.3252917794
 30
0.0
 10
7.5723265156
 20
51.6828350592
 30
0.0
 10
7.6948333074
 20
52.2229220462
 30
0.0
 10
7.8937746894
 20
52.7708210639
 30
0.0
 10
8.1616011134
 20
53.3056943034
 30
0.0
 10
8.4881902698
 20
53.8073105904
 30
0.0
 10
8.8611840631
 20
54.2567691934
 30
0.0
 10
9.2664239797
 20
54.6368706167
 30
0.0
 10
9.5611619301
 20
54.8437549431
 30
0.0
 10
9.7103967776
 20
54.9299152082
 30
0.0
  0
SPLINE
  5
249
100
AcDbEntity
  8
0
100
AcDbSpline
 62
7
  6
BYLAYER
 70
0
 71
3
 72
11
 73
7
 74
0
 42
0.0000001
 43
0.0000001
 44
0.0000000001
 40
0.0
 40
0.0
 40
0.0
 40
0.0
 40
0.2898011193
 40
0.5490467489
 40
0.7822256932
 40
1.0
 40
1.0
 40
1.0
 40
1.0
 10
53.904632119
 20
38.7535649966
 30
0.0
 10
53.9704861389
 20
38.7155511224
 30
0.0
 10
54.0899414418
 20
38.6333371641
 30
0.0
 10
54.2326314925
 20
38.4832868095
 30
0.0
 10
54.3229735709
 20
38.3174006172
 30
0.0
 10
54.3440909221
 20
38.1982800723
 30
0.0
 10
54.3440831148
 20
38.1411403196
 30
0.0
  0
SPLINE
  5
24A
100
AcDbEntity
  8
0
100
AcDbSpline
 62
7
  6
BYLAYER
 70
0
 71
3
 72
20
 73
16
 74
0
 42
0.0000001
 43
0.0000001
 44
0.0000000001
 40
0.0
 40
0.0
 40
0.0
 40
0.0
 40
0.0428301836
 40
0.0874298145
 40
0.1352303245
 40
0.1871620766
 40
0.2436308801
 40
0.3046118587
 40
0.3697370547
 40
0.4383714746
 40
0.5826211611
 40
0.729687008
 40
0.8711863708
 40
0.9376074823
 40
1.0
 40
1.0
 40
1.0
 40
1.0
 10
15.6601841623
 20
60.9037738928
 30
0.0
 10
15.6108745694
 20
60.875316086
 30
0.0
 10
15.5021987255
 20
60.8301182727
 30
0.0
 10
15.3227825109
 20
60.8038629419
 30
0.0
 10
15.1301208476
 20
60.818001331
 30
0.0
 10
14.9284907607
 20
60.8715938601
 30
0.0
 10
14.7218454521
 20
60.9629144474
 30
0.0
 10
14.5142942921
 20
61.0898685557
 30
0.0
 10
14.3100681653
 20
61.2497708719
 30
0.0
 10
14.0435289834
 20
61.5064815648
 30
0.0
 10
13.7473510058
 20
61.8858004348
 30
0.0
 10
13.4724064825
 20
62.3938884247
 30
0.0
 10
13.3202127545
 20
62.8437152352
 30
0.0
 10
13.2572566028
 20
63.1980167726
 30
0.0
 10
13.245974843
 20
63.3693633932
 30
0.0
 10
13.245974843
 20
63.4522990009
 30
0.0
  0
SPLINE
  5
24B
100
AcDbEntity
  8
0
100
AcDbSpline
 62
7
  6
BYLAYER
 70
0
 71
3
 72
15
 73
11
 74
0
 42
0.0000001
 43
0.0000001
 44
0.0000000001
 40
0.0
 40
0.0
 40
0.0
 40
0.0
 40
0.114115004
 40
0.2373339914
 40
0.3669596312
 40
0.4999878952
 40
0.6330164215
 40
0.7626409237
 40
0.8858669513
 40
1.0
 40
1.0
 40
1.0
 40
1.0
 10
23.1454343964
 20
52.0212715341
 30
0.0
 10
23.0970436986
 20
52.0492092845
 30
0.0
 10
23.0014521848
 20
52.1162704754
 30
0.0
 10
22.8698838254
 20
52.2393289808
 30
0.0
 10
22.748644788
 20
52.3848407744
 30
0.0
 10
22.6422817165
 20
52.5472712102
 30
0.0
 10
22.5548032627
 20
52.7206018823
 30
0.0
 10
22.4893763312
 20
52.8983456499
 30
0.0
 10
22.4486095036
 20
53.0738390872
 30
0.0
 10
22.4383953676
 20
53.1901702378
 30
0.0
 10
22.4383953676
 20
53.2460555221
 30
0.0
  0
SPLINE
  5
24C
100
AcDbEntity
  8
0
100
AcDbSpline
 62
7
  6
BYLAYER
 70
0
 71
3
 72
11
 73
7
 74
0
 42
0.0000001
 43
0.0000001
 44
0.0000000001
 40
0.0
 40
0.0
 40
0.0
 40
0.0
 40
0.2897042587
 40
0.549094322
 40
0.7822194156
 40
1.0
 40
1.0
 40
1.0
 40
1.0
 10
22.4383953855
 20
53.2460555283
 30
0.0
 10
22.4383866081
 20
53.2967319788
 30
0.0
 10
22.4460639183
 20
53.3931095836
 30
0.0
 10
22.4850855043
 20
53.5255272778
 30
0.0
 10
22.5507910001
 20
53.6329805763
 30
0.0
 10
22.6125158699
 20
53.6848755964
 30
0.0
 10
22.6455073455
 20
53.7039231223
 30
0.0
  0
SPLINE
  5
24D
100
AcDbEntity
  8
0
100
AcDbSpline
 62
7
  6
BYLAYER
 70
0
 71
3
 72
20
 73
16
 74
0
 42
0.0000001
 43
0.0000001
 44
0.0000000001
 40
0.0
 40
0.0
 40
0.0
 40
0.0
 40
0.0428301836
 40
0.0874298145
 40
0.1352303245
 40
0.1871620766
 40
0.2436308801
 40
0.3046118587
 40
0.3697370547
 40
0.4383714746
 40
0.5826211611
 40
0.729687008
 40
0.8711863708
 40
0.9376074823
 40
1.0
 40
1.0
 40
1.0
 40
1.0
 10
46.0659023436
 20
31.9183876086
 30
0.0
 10
46.0165927507
 20
31.8899298018
 30
0.0
 10
45.9079169068
 20
31.8447319885
 30
0.0
 10
45.7285006923
 20
31.8184766578
 30
0.0
 10
45.5358390289
 20
31.8326150468
 30
0.0
 10
45.334208942
 20
31.8862075759
 30
0.0
 10
45.1275636334
 20
31.9775281632
 30
0.0
 10
44.9200124734
 20
32.1044822715
 30
0.0
 10
44.7157863467
 20
32.2643845877
 30
0.0
 10
44.4492471647
 20
32.5210952806
 30
0.0
 10
44.1530691871
 20
32.9004141507
 30
0.0
 10
43.8781246638
 20
33.4085021405
 30
0.0
 10
43.7259309358
 20
33.8583289511
 30
0.0
 10
43.6629747841
 20
34.2126304884
 30
0.0
 10
43.6516930243
 20
34.383977109
 30
0.0
 10
43.6516930243
 20
34.4669127167
 30
0.0
  0
SPLINE
  5
24E
100
AcDbEntity
  8
0
100
AcDbSpline
 62
7
  6
BYLAYER
 70
0
 71
3
 72
20
 73
16
 74
0
 42
0.0000001
 43
0.0000001
 44
0.0000000001
 40
0.0
 40
0.0
 40
0.0
 40
0.0
 40
0.0428301836
 40
0.0874298145
 40
0.1352303245
 40
0.1871620766
 40
0.2436308801
 40
0.3046118587
 40
0.3697370547
 40
0.4383714746
 40
0.5826211611
 40
0.729687008
 40
0.8711863708
 40
0.9376074823
 40
1.0
 40
1.0
 40
1.0
 40
1.0
 10
15.6601841623
 20
49.472740053
 30
0.0
 10
15.6108745694
 20
49.4442822462
 30
0.0
 10
15.5021987255
 20
49.3990844329
 30
0.0
 10
15.3227825109
 20
49.3728291021
 30
0.0
 10
15.1301208476
 20
49.3869674912
 30
0.0
 10
14.9284907607
 20
49.4405600203
 30
0.0
 10
14.7218454521
 20
49.5318806076
 30
0.0
 10
14.5142942921
 20
49.6588347158
 30
0.0
 10
14.3100681653
 20
49.8187370321
 30
0.0
 10
14.0435289834
 20
50.075447725
 30
0.0
 10
13.7473510058
 20
50.454766595
 30
0.0
 10
13.4724064825
 20
50.9628545849
 30
0.0
 10
13.3202127545
 20
51.4126813954
 30
0.0
 10
13.2572566028
 20
51.7669829328
 30
0.0
 10
13.245974843
 20
51.9383295534
 30
0.0
 10
13.245974843
 20
52.0212651611
 30
0.0
  0
SPLINE
  5
24F
100
AcDbEntity
  8
0
100
AcDbSpline
 62
7
  6
BYLAYER
 70
0
 71
3
 72
26
 73
22
 74
0
 42
0.0000001
 43
0.0000001
 44
0.0000000001
 40
0.0
 40
0.0
 40
0.0
 40
0.0
 40
0.0665477358
 40
0.1383816396
 40
0.2139643851
 40
0.2915233789
 40
0.3690773655
 40
0.4446671826
 40
0.5164803987
 40
0.5830361229
 40
0.643388339
 40
0.6973795728
 40
0.7459414066
 40
0.7689080624
 40
0.7914507531
 40
0.8139941348
 40
0.8369641907
 40
0.8607416585
 40
0.8856478868
 40
0.9396578825
 40
1.0
 40
1.0
 40
1.0
 40
1.0
 10
22.4384012699
 20
50.796647438
 30
0.0
 10
22.3416007704
 20
50.8525339681
 30
0.0
 10
22.1503768448
 20
50.986609272
 30
0.0
 10
21.8872303717
 20
51.2327443592
 30
0.0
 10
21.6447757368
 20
51.5237721118
 30
0.0
 10
21.4320634503
 20
51.8486239198
 30
0.0
 10
21.2570588942
 20
52.1952747455
 30
0.0
 10
21.126297282
 20
52.5507153786
 30
0.0
 10
21.0446780211
 20
52.9017535731
 30
0.0
 10
21.0152677223
 20
53.2355184885
 30
0.0
 10
21.0395487267
 20
53.5401450041
 30
0.0
 10
21.1174738718
 20
53.8048832127
 30
0.0
 10
21.2294273149
 20
53.987487953
 30
0.0
 10
21.3425660211
 20
54.0987307257
 30
0.0
 10
21.4367375684
 20
54.1644968085
 30
0.0
 10
21.5407643849
 20
54.2132039437
 30
0.0
 10
21.6534419924
 20
54.2443430101
 30
0.0
 10
21.7735127288
 20
54.2577878533
 30
0.0
 10
21.9464262075
 20
54.2517650035
 30
0.0
 10
22.1761460202
 20
54.1964076947
 30
0.0
 10
22.3506274779
 20
54.1133321825
 30
0.0
 10
22.4384012699
 20
54.0626571065
 30
0.0
  0
SPLINE
  5
250
100
AcDbEntity
  8
0
100
AcDbSpline
 62
7
  6
BYLAYER
 70
0
 71
3
 72
13
 73
9
 74
0
 42
0.0000001
 43
0.0000001
 44
0.0000000001
 40
0.0
 40
0.0
 40
0.0
 40
0.0
 40
0.2893498224
 40
0.5483276209
 40
0.6677524169
 40
0.7817657463
 40
0.8919063293
 40
1.0
 40
1.0
 40
1.0
 40
1.0
 10
43.6516930243
 20
34.4669127167
 30
0.0
 10
43.6516930243
 20
34.5682652087
 30
0.0
 10
43.666985491
 20
34.7609062681
 30
0.0
 10
43.7338988454
 20
34.9875276627
 30
0.0
 10
43.8151318105
 20
35.1402826877
 30
0.0
 10
43.8868093369
 20
35.237549607
 30
0.0
 10
43.9700830104
 20
35.3195516045
 30
0.0
 10
44.0331293574
 20
35.363548998
 30
0.0
 10
44.0659226056
 20
35.3824748067
 30
0.0
  0
SPLINE
  5
251
100
AcDbEntity
  8
0
100
AcDbSpline
 62
7
  6
BYLAYER
 70
0
 71
3
 72
13
 73
9
 74
0
 42
0.0000001
 43
0.0000001
 44
0.0000000001
 40
0.0
 40
0.0
 40
0.0
 40
0.0
 40
0.2893506156
 40
0.5483286234
 40
0.667753112
 40
0.7817661722
 40
0.8919065141
 40
1.0
 40
1.0
 40
1.0
 40
1.0
 10
13.245974843
 20
63.4522990009
 30
0.0
 10
13.245974843
 20
63.5536517714
 30
0.0
 10
13.2612676128
 20
63.7462931449
 30
0.0
 10
13.3281808734
 20
63.9729148446
 30
0.0
 10
13.4094140786
 20
64.1256696026
 30
0.0
 10
13.4810914424
 20
64.2229362699
 30
0.0
 10
13.5643649438
 20
64.3049381103
 30
0.0
 10
13.6274112213
 20
64.3489353313
 30
0.0
 10
13.6602043955
 20
64.3678611392
 30
0.0
  0
SPLINE
  5
252
100
AcDbEntity
  8
0
100
AcDbSpline
 62
7
  6
BYLAYER
 70
0
 71
3
 72
13
 73
9
 74
0
 42
0.0000001
 43
0.0000001
 44
0.0000000001
 40
0.0
 40
0.0
 40
0.0
 40
0.0
 40
0.2893506156
 40
0.5483286234
 40
0.667753112
 40
0.7817661722
 40
0.8919065141
 40
1.0
 40
1.0
 40
1.0
 40
1.0
 10
13.245974843
 20
56.9202796639
 30
0.0
 10
13.245974843
 20
57.0216324343
 30
0.0
 10
13.2612676128
 20
57.2142738079
 30
0.0
 10
13.3281808734
 20
57.4408955076
 30
0.0
 10
13.4094140786
 20
57.5936502656
 30
0.0
 10
13.4810914424
 20
57.6909169329
 30
0.0
 10
13.5643649438
 20
57.7729187733
 30
0.0
 10
13.6274112213
 20
57.8169159942
 30
0.0
 10
13.6602043955
 20
57.8358418022
 30
0.0
  0
SPLINE
  5
253
100
AcDbEntity
  8
0
100
AcDbSpline
 62
7
  6
BYLAYER
 70
0
 71
3
 72
9
 73
5
 74
0
 42
0.0000001
 43
0.0000001
 44
0.0000000001
 40
0.0
 40
0.0
 40
0.0
 40
0.0
 40
0.2470413052
 40
1.0
 40
1.0
 40
1.0
 40
1.0
 10
54.333575292
 20
38.0393579155
 30
0.0
 10
54.3319675735
 20
38.0471606486
 30
0.0
 10
54.3247389333
 20
38.0785938849
 30
0.0
 10
54.3146484481
 20
38.1093583614
 30
0.0
 10
54.3056363027
 20
38.1319055646
 30
0.0
  0
SPLINE
  5
254
100
AcDbEntity
  8
0
100
AcDbSpline
 62
7
  6
BYLAYER
 70
0
 71
3
 72
11
 73
7
 74
0
 42
0.0000001
 43
0.0000001
 44
0.0000000001
 40
0.0
 40
0.0
 40
0.0
 40
0.0
 40
0.2152420104
 40
0.4525145409
 40
0.7143294501
 40
1.0
 40
1.0
 40
1.0
 40
1.0
 10
54.2935350151
 20
38.1600200246
 30
0.0
 10
54.2701424023
 20
38.2107134446
 30
0.0
 10
54.2058894929
 20
38.310628874
 30
0.0
 10
54.0729217477
 20
38.4412835513
 30
0.0
 10
53.9037918827
 20
38.5561684679
 30
0.0
 10
53.7752531082
 20
38.6177439449
 30
0.0
 10
53.7065942231
 20
38.6456105081
 30
0.0
  0
SPLINE
  5
255
100
AcDbEntity
  8
0
100
AcDbSpline
 62
7
  6
BYLAYER
 70
0
 71
3
 72
15
 73
11
 74
0
 42
0.0000001
 43
0.0000001
 44
0.0000000001
 40
0.0
 40
0.0
 40
0.0
 40
0.0
 40
0.1116720876
 40
0.2314437405
 40
0.3575435938
 40
0.4877642084
 40
0.6196393359
 40
0.7506108645
 40
0.8781588987
 40
1.0
 40
1.0
 40
1.0
 40
1.0
 10
7.5519021043
 20
50.3765786363
 30
0.0
 10
7.5501954125
 20
50.569593978
 30
0.0
 10
7.5776024413
 20
50.9702239905
 30
0.0
 10
7.6975673099
 20
51.5778263244
 30
0.0
 10
7.8944448638
 20
52.198705481
 30
0.0
 10
8.1626019632
 20
52.8150071501
 30
0.0
 10
8.494330665
 20
53.4091722326
 30
0.0
 10
8.8801719803
 20
53.9641522594
 30
0.0
 10
9.3089437384
 20
54.4640097313
 30
0.0
 10
9.6243938495
 20
54.7594805833
 30
0.0
 10
9.7868475053
 20
54.893499583
 30
0.0
  0
SPLINE
  5
256
100
AcDbEntity
  8
0
100
AcDbSpline
 62
7
  6
BYLAYER
 70
0
 71
3
 72
9
 73
5
 74
0
 42
0.0000001
 43
0.0000001
 44
0.0000000001
 40
0.0
 40
0.0
 40
0.0
 40
0.0
 40
0.2588628005
 40
1.0
 40
1.0
 40
1.0
 40
1.0
 10
9.7868475053
 20
54.893499583
 30
0.0
 10
9.8350789011
 20
54.933288921
 30
0.0
 10
10.0242722164
 20
55.0834429968
 30
0.0
 10
10.2251259573
 20
55.2192020855
 30
0.0
 10
10.380156967
 20
55.3087087464
 30
0.0
  0
SPLINE
  5
257
100
AcDbEntity
  8
0
100
AcDbSpline
 62
7
  6
BYLAYER
 70
0
 71
3
 72
13
 73
9
 74
0
 42
0.0000001
 43
0.0000001
 44
0.0000000001
 40
0.0
 40
0.0
 40
0.0
 40
0.0
 40
0.2893498224
 40
0.5483276209
 40
0.6677524169
 40
0.7817657463
 40
0.8919063293
 40
1.0
 40
1.0
 40
1.0
 40
1.0
 10
13.245974843
 20
52.0212651611
 30
0.0
 10
13.245974843
 20
52.122617653
 30
0.0
 10
13.2612673097
 20
52.3152587125
 30
0.0
 10
13.3281806641
 20
52.541880107
 30
0.0
 10
13.4094136291
 20
52.6946351321
 30
0.0
 10
13.4810911556
 20
52.7919020514
 30
0.0
 10
13.564364829
 20
52.8739040489
 30
0.0
 10
13.6274111761
 20
52.9179014423
 30
0.0
 10
13.6602044243
 20
52.936827251
 30
0.0
  0
SPLINE
  5
258
100
AcDbEntity
  8
0
100
AcDbSpline
 62
7
  6
BYLAYER
 70
0
 71
3
 72
20
 73
16
 74
0
 42
0.0000001
 43
0.0000001
 44
0.0000000001
 40
0.0
 40
0.0
 40
0.0
 40
0.0
 40
0.0428301836
 40
0.0874298145
 40
0.1352303245
 40
0.1871620766
 40
0.2436308801
 40
0.3046118587
 40
0.3697370547
 40
0.4383714746
 40
0.5826211611
 40
0.729687008
 40
0.8711863708
 40
0.9376074823
 40
1.0
 40
1.0
 40
1.0
 40
1.0
 10
15.6601841623
 20
54.3717545558
 30
0.0
 10
15.6108745694
 20
54.343296749
 30
0.0
 10
15.5021987255
 20
54.2980989356
 30
0.0
 10
15.3227825109
 20
54.2718436049
 30
0.0
 10
15.1301208476
 20
54.285981994
 30
0.0
 10
14.9284907607
 20
54.3395745231
 30
0.0
 10
14.7218454521
 20
54.4308951103
 30
0.0
 10
14.5142942921
 20
54.5578492186
 30
0.0
 10
14.3100681653
 20
54.7177515349
 30
0.0
 10
14.0435289834
 20
54.9744622278
 30
0.0
 10
13.7473510058
 20
55.3537810978
 30
0.0
 10
13.4724064825
 20
55.8618690877
 30
0.0
 10
13.3202127545
 20
56.3116958982
 30
0.0
 10
13.2572566028
 20
56.6659974356
 30
0.0
 10
13.245974843
 20
56.8373440562
 30
0.0
 10
13.245974843
 20
56.9202796639
 30
0.0
  0
ENDSEC
  0
SECTION
  2
OBJECTS
  0
DICTIONARY
  5
C
100
AcDbDictionary
280
0
281
1
  3
ACAD_GROUP
350
D
  3
ACAD_MLINESTYLE
350
17
  3
ACAD_LAYOUT
350
1A
  3
ACAD_PLOTSETTINGS
350
19
  3
ACAD_PLOTSTYLENAME
350
E
  0
DICTIONARY
  5
D
102
{ACAD_REACTORS
330
C
102
}
100
AcDbDictionary
280
0
281
1
  0
ACDBDICTIONARYWDFLT
  5
E
102
{ACAD_REACTORS
330
C
102
}
100
AcDbDictionary
281
1
  3
Normal
350
F
100
AcDbDictionaryWithDefault
340
F
  0
DICTIONARY
  5
17
102
{ACAD_REACTORS
330
C
102
}
100
AcDbDictionary
280
0
281
1
  3
Standard
350
18
  0
DICTIONARY
  5
19
102
{ACAD_REACTORS
330
C
102
}
100
AcDbDictionary
281
1
  0
DICTIONARY
  5
1A
102
{ACAD_REACTORS
330
C
102
}
100
AcDbDictionary
281
1
  3
Model
350
259
  3
Layout1
350
25A
  0
ACDBPLACEHOLDER
  5
F
102
{ACAD_REACTORS
330
E
102
}
  0
MLINESTYLE
  5
18
102
{ACAD_REACTORS
330
17
102
}
100
AcDbMlineStyle
  2
STANDARD
 70
0
  3

 62
256
 51
90.0
 52
90.0
 71
2
 49
0.5
 62
256
  6
BYLAYER
 49
-0.5
 62
256
  6
BYLAYER
  0
LAYOUT
  5
259
102
{ACAD_REACTORS
330
1A
102
}
100
AcDbPlotSettings
  1

  2
none_device
  4

  6

 40
0.0
 41
0.0
 42
0.0
 43
0.0
 44
210.0
 45
297.0
 46
0.0
 47
0.0
 48
0.0
 49
0.0
140
0.0
141
0.0
142
1.0
143
1.0
 70
1024
 72
1
 73
0
 74
0
  7

 75
0
147
1.0
148
0.0
149
0.0
100
AcDbLayout
  1
Model
 70
0
 71
0
 10
0.0
 20
0.0
 11
210.0
 21
297.0
 12
0.0
 22
0.0
 32
0.0
 14
0.0
 24
0.0
 34
0.0
 15
0.0
 25
0.0
 35
0.0
146
0.0
 13
0.0
 23
0.0
 33
0.0
 16
1.0
 26
0.0
 36
0.0
 17
0.0
 27
1.0
 37
0.0
 76
0
330
210
345
0
346
0
  0
LAYOUT
  5
25A
102
{ACAD_REACTORS
330
1A
102
}
100
AcDbPlotSettings
  1

  2
none_device
  4

  6

 40
0.0
 41
0.0
 42
0.0
 43
0.0
 44
210.0
 45
297.0
 46
0.0
 47
0.0
 48
0.0
 49
0.0
140
0.0
141
0.0
142
1.0
143
1.0
 70
0
 72
1
 73
0
 74
0
  7

 75
0
147
1.0
148
0.0
149
0.0
100
AcDbLayout
  1
Layout1
 70
0
 71
1
 10
0.0
 20
0.0
 11
210.0
 21
297.0
 12
0.0
 22
0.0
 32
0.0
 14
0.0
 24
0.0
 34
0.0
 15
0.0
 25
0.0
 35
0.0
146
0.0
 13
0.0
 23
0.0
 33
0.0
 16
1.0
 26
0.0
 36
0.0
 17
0.0
 27
1.0
 37
0.0
 76
0
330
211
345
0
346
0
  0
ENDSEC
  0
EOF
