999
DXF file: C:\Users\sesa63760\Dev\_Creo\CAD\MCADID0004735_3D-CAD\drw0001_2.dxf
999
Pro/ENGINEER 2019471 by Parametric Technology Corporation
  0
SECTION
  2
HEADER
  9
$ACADVER
  1
AC1024
  9
$DWGCODEPAGE
  3
ANSI_1252
  9
$EXTMAX
 10
32.9741422944
 20
46.6348583878
 30
0.0
  9
$EXTMIN
 10
0.0
 20
0.0
 30
0.0
  9
$LIMMIN
 10
0.0
 20
0.0
  9
$LIMMAX
 10
32.9741422944
 20
46.6348583878
  9
$VIEWCTR
 10
16.4870711472
 20
23.3174291939
  9
$VIEWSIZE
 40
46.6348583878
  9
$CLAYER
  8
0
  9
$LTSCALE
 40
3.0399018801
  9
$CELTYPE
  6
BYLAYER
  9
$DIMSCALE
 40
1.0
  9
$DIMASZ
 40
0.392549313
  9
$DIMEXO
 40
1.0
  9
$DIMDLI
 40
2.1002958444
  9
$DIMEXE
 40
1.0
  9
$DIMCEN
 40
0.4974384895
  9
$DIMLFAC
 40
1.0
  9
$DIMBLK
  1
_FILLED
  9
$DIMALT
 70
0
  9
$DIMALTF
 40
0.0393700787
  9
$DIMTXT
 40
0.5495690382
  9
$DIMTOL
 70
1
  9
$DIMLIM
 70
0
  9
$DIMTFAC
 40
1.0
  9
$DIMTP
 40
0.01
  9
$DIMTM
 40
0.01
  9
$DIMGAP
 40
0.625
  9
$DIMDSEP
 70
46
  9
$AUNITS
 70
0
  9
$PDMODE
 70
3
  9
$PDSIZE
 40
0.3125
  9
$HANDSEED
  5
2A6
  9
$TILEMODE
 70
1
  9
$MEASUREMENT
 70
1
  9
$INSUNITS
 70
4
  0
ENDSEC
  0
SECTION
  2
CLASSES
  0
CLASS
  1
ACDBDICTIONARYWDFLT
  2
AcDbDictionaryWithDefault
  3
AutoCAD 2000
 90
0
 91
1
280
0
281
0
  0
CLASS
  1
ACDBPLACEHOLDER
  2
AcDbPlaceHolder
  3
AutoCAD 2000
 90
0
 91
1
280
0
281
0
  0
CLASS
  1
LAYOUT
  2
AcDbLayout
  3
AutoCAD 2000
 90
0
 91
0
280
0
281
0
  0
ENDSEC
  0
SECTION
  2
TABLES
  0
TABLE
  2
VPORT
  5
8
100
AcDbSymbolTable
 70
2
  0
VPORT
  5
1F4
100
AcDbSymbolTableRecord
100
AcDbViewportTableRecord
  2
*ACTIVE
 70
0
 10
0.0
 20
0.0
 11
1.0
 21
1.0
 12
16.4870711472
 22
23.3174291939
 13
0.0
 23
0.0
 14
1.0
 24
1.0
 15
0.0
 25
0.0
 16
0.0
 26
0.0
 36
1.0
 17
0.0
 27
0.0
 37
0.0
 40
46.6348583878
 41
0.7070707071
 42
50.0
 43
0.0
 44
0.0
 50
0.0
 51
0.0
 71
0
 72
100
 73
1
 74
1
 75
0
 76
0
 77
0
 78
0
  0
ENDTAB
  0
TABLE
  2
LTYPE
  5
5
100
AcDbSymbolTable
 70
6
  0
LTYPE
  5
14
100
AcDbSymbolTableRecord
100
AcDbLinetypeTableRecord
  2
BYBLOCK
 70
0
  3

 72
65
 73
0
 40
0.0
  0
LTYPE
  5
15
100
AcDbSymbolTableRecord
100
AcDbLinetypeTableRecord
  2
BYLAYER
 70
0
  3

 72
65
 73
0
 40
0.0
  0
LTYPE
  5
16
100
AcDbSymbolTableRecord
100
AcDbLinetypeTableRecord
  2
CONTINUOUS
 70
64
  3
Solid line
 72
65
 73
0
 40
0.0
  0
LTYPE
  5
1F5
100
AcDbSymbolTableRecord
100
AcDbLinetypeTableRecord
  2
CENTER
 70
64
  3
____ _ ____ _ ____ _ ____ _ ____ _ ____ _ ____
 72
65
 73
4
 40
0.6
 49
0.375
 74
0
 49
-0.075
 74
0
 49
0.075
 74
0
 49
-0.075
 74
0
  0
LTYPE
  5
1F6
100
AcDbSymbolTableRecord
100
AcDbLinetypeTableRecord
  2
HIDDEN
 70
64
  3
- - - - - - - - - - - - - - - - - - - -
 72
65
 73
2
 40
0.2
 49
0.1
 74
0
 49
-0.1
 74
0
  0
LTYPE
  5
1F7
100
AcDbSymbolTableRecord
100
AcDbLinetypeTableRecord
  2
PHANTOM
 70
64
  3
_____ _ _ _____ _ _ _____ _ _ _____
 72
65
 73
6
 40
0.8
 49
0.45
 74
0
 49
-0.05
 74
0
 49
0.1
 74
0
 49
-0.05
 74
0
 49
0.1
 74
0
 49
-0.05
 74
0
  0
LTYPE
  5
1F8
100
AcDbSymbolTableRecord
100
AcDbLinetypeTableRecord
  2
DOT
 70
64
  3
. . . . . . . . . . . . . . . . . . . .
 72
65
 73
2
 40
0.2
 49
0.1
 74
0
 49
-0.1
 74
0
  0
LTYPE
  5
1F9
100
AcDbSymbolTableRecord
100
AcDbLinetypeTableRecord
  2
DASHED
 70
64
  3
- - - - - - - - - - - - - - - - - - - -
 72
65
 73
2
 40
0.2
 49
0.1
 74
0
 49
-0.1
 74
0
  0
ENDTAB
  0
TABLE
  2
LAYER
  5
2
100
AcDbSymbolTable
 70
36
  0
LAYER
  5
10
100
AcDbSymbolTableRecord
100
AcDbLayerTableRecord
  2
0
 70
0
 62
7
  6
CONTINUOUS
370
-3
390
F
  0
LAYER
  5
1FA
100
AcDbSymbolTableRecord
100
AcDbLayerTableRecord
  2
DEFAULT_1
 70
0
 62
7
  6
CENTER
370
-3
390
F
  0
LAYER
  5
1FB
100
AcDbSymbolTableRecord
100
AcDbLayerTableRecord
  2
DEFAULT_2
 70
0
 62
7
  6
HIDDEN
370
-3
390
F
  0
LAYER
  5
1FC
100
AcDbSymbolTableRecord
100
AcDbLayerTableRecord
  2
DEFAULT_3
 70
0
 62
7
  6
PHANTOM
370
-3
390
F
  0
LAYER
  5
1FD
100
AcDbSymbolTableRecord
100
AcDbLayerTableRecord
  2
00_COMPONENTS
 70
0
 62
7
  6
CONTINUOUS
370
-3
390
F
  0
LAYER
  5
1FE
100
AcDbSymbolTableRecord
100
AcDbLayerTableRecord
  2
01_1_DEFAULT_DATUMS
 70
0
 62
7
  6
CONTINUOUS
370
-3
390
F
  0
LAYER
  5
1FF
100
AcDbSymbolTableRecord
100
AcDbLayerTableRecord
  2
01_PLANES
 70
0
 62
7
  6
CONTINUOUS
370
-3
390
F
  0
LAYER
  5
200
100
AcDbSymbolTableRecord
100
AcDbLayerTableRecord
  2
02_COORD_SYS
 70
0
 62
7
  6
CONTINUOUS
370
-3
390
F
  0
LAYER
  5
201
100
AcDbSymbolTableRecord
100
AcDbLayerTableRecord
  2
03_AXES
 70
0
 62
7
  6
CONTINUOUS
370
-3
390
F
  0
LAYER
  5
202
100
AcDbSymbolTableRecord
100
AcDbLayerTableRecord
  2
04_POINTS
 70
0
 62
7
  6
CONTINUOUS
370
-3
390
F
  0
LAYER
  5
203
100
AcDbSymbolTableRecord
100
AcDbLayerTableRecord
  2
05_CURVES
 70
0
 62
7
  6
CONTINUOUS
370
-3
390
F
  0
LAYER
  5
204
100
AcDbSymbolTableRecord
100
AcDbLayerTableRecord
  2
06_SURFS
 70
0
 62
7
  6
CONTINUOUS
370
-3
390
F
  0
LAYER
  5
205
100
AcDbSymbolTableRecord
100
AcDbLayerTableRecord
  2
07_COSMETICS
 70
0
 62
7
  6
CONTINUOUS
370
-3
390
F
  0
LAYER
  5
206
100
AcDbSymbolTableRecord
100
AcDbLayerTableRecord
  2
10_NOTES
 70
0
 62
7
  6
CONTINUOUS
370
-3
390
F
  0
LAYER
  5
207
100
AcDbSymbolTableRecord
100
AcDbLayerTableRecord
  2
11_NOTES_PUB
 70
0
 62
7
  6
CONTINUOUS
370
-3
390
F
  0
LAYER
  5
208
100
AcDbSymbolTableRecord
100
AcDbLayerTableRecord
  2
13_REF_GTOL
 70
0
 62
7
  6
CONTINUOUS
370
-3
390
F
  0
LAYER
  5
209
100
AcDbSymbolTableRecord
100
AcDbLayerTableRecord
  2
16_MISC
 70
0
 62
7
  6
CONTINUOUS
370
-3
390
F
  0
LAYER
  5
20A
100
AcDbSymbolTableRecord
100
AcDbLayerTableRecord
  2
17_NO_PRINT
 70
0
 62
7
  6
CONTINUOUS
370
-3
390
F
  0
LAYER
  5
20B
100
AcDbSymbolTableRecord
100
AcDbLayerTableRecord
  2
18_DATUM_CAMS_JOINTS
 70
0
 62
7
  6
CONTINUOUS
370
-3
390
F
  0
LAYER
  5
20C
100
AcDbSymbolTableRecord
100
AcDbLayerTableRecord
  2
19_DATUM_FUNCTIONAL
 70
0
 62
7
  6
CONTINUOUS
370
-3
390
F
  0
LAYER
  5
20D
100
AcDbSymbolTableRecord
100
AcDbLayerTableRecord
  2
20_DATUM_KINEMATIC_SCHEME
 70
0
 62
7
  6
CONTINUOUS
370
-3
390
F
  0
ENDTAB
  0
TABLE
  2
STYLE
  5
3
100
AcDbSymbolTable
 70
1
  0
STYLE
  5
11
100
AcDbSymbolTableRecord
100
AcDbTextStyleTableRecord
  2
STANDARD
 70
0
 40
0.0
 41
1.0
 50
0.0
 71
0
 42
0.2
  3
ARIAL.TTF
  4

  0
STYLE
  5
20E
100
AcDbSymbolTableRecord
100
AcDbTextStyleTableRecord
  2
TEXTSTYLE_1
 70
0
 40
0.0
 41
0.8
 50
0.0
 71
0
 42
0.2
  3
gdt
  4

  0
ENDTAB
  0
TABLE
  2
VIEW
  5
6
100
AcDbSymbolTable
 70
0
  0
ENDTAB
  0
TABLE
  2
UCS
  5
7
100
AcDbSymbolTable
 70
0
  0
ENDTAB
  0
TABLE
  2
APPID
  5
9
100
AcDbSymbolTable
 70
1
  0
APPID
  5
20F
100
AcDbSymbolTableRecord
100
AcDbRegAppTableRecord
  2
ACAD
 70
0
  0
ENDTAB
  0
TABLE
  2
BLOCK_RECORD
  5
1
100
AcDbSymbolTable
 70
0
  0
BLOCK_RECORD
  5
210
100
AcDbSymbolTableRecord
100
AcDbBlockTableRecord
  2
*Model_Space
  0
BLOCK_RECORD
  5
211
100
AcDbSymbolTableRecord
100
AcDbBlockTableRecord
  2
*Paper_Space
  0
BLOCK_RECORD
  5
212
100
AcDbSymbolTableRecord
100
AcDbBlockTableRecord
  2
_FILLED
  0
ENDTAB
  0
TABLE
  2
DIMSTYLE
  5
A
100
AcDbSymbolTable
 70
1
100
AcDbDimStyleTable
 71
0
  0
DIMSTYLE
105
213
100
AcDbSymbolTableRecord
100
AcDbDimStyleTableRecord
  2
STANDARD
 70
0
  3

  4

 40
1.0
 41
0.392549313
 42
1.0
 43
0.38
 44
1.0
 45
0.0
 46
0.0
 47
0.01
 48
0.01
140
0.5495690382
141
0.09
142
0.0
143
25.4
144
1.0
145
0.0
146
1.0
147
0.625
 71
1
 72
0
 73
0
 74
0
 75
0
 76
0
 77
1
 78
8
 79
2
170
0
171
1
172
0
173
0
174
0
175
0
176
0
177
0
178
0
270
2
179
2
271
2
272
2
273
2
274
2
275
0
280
0
281
0
282
0
283
1
284
8
285
0
286
0
287
3
288
0
340
11
278
46
341
212
342
212
343
212
344
212
  0
ENDTAB
  0
ENDSEC
  0
SECTION
  2
BLOCKS
  0
BLOCK
  5
20
100
AcDbEntity
  8
0
100
AcDbBlockBegin
  2
*Model_Space
 70
0
 10
0.0
 20
0.0
 30
0.0
  3
*Model_Space
  1

  0
ENDBLK
  5
21
100
AcDbEntity
  8
0
100
AcDbBlockEnd
  0
BLOCK
  5
1C
100
AcDbEntity
  8
0
100
AcDbBlockBegin
  2
*Paper_Space
 70
0
 10
0.0
 20
0.0
 30
0.0
  3
*Paper_Space
  1

  0
ENDBLK
  5
1D
100
AcDbEntity
  8
0
100
AcDbBlockEnd
  0
BLOCK
  5
214
100
AcDbEntity
  8
0
100
AcDbBlockBegin
  2
_FILLED
 70
64
 10
0.0
 20
0.0
  3
_FILLED
  1

  0
SOLID
  5
215
100
AcDbEntity
  8
0
  6
BYBLOCK
 62
0
100
AcDbTrace
 10
0.0
 20
0.0
 11
-1.0
 21
0.25
 12
-1.0
 22
-0.25
 13
-1.0
 23
-0.25
  0
ENDBLK
  5
216
100
AcDbEntity
  8
0
  6
BYBLOCK
 62
0
100
AcDbBlockEnd
  0
ENDSEC
  0
SECTION
  2
ENTITIES
  0
LINE
  5
217
100
AcDbEntity
  8
0
100
AcDbLine
 62
7
  6
BYLAYER
 10
3.6153935873
 20
10.3318468115
 11
3.6153935873
 21
36.1317537215
  0
LINE
  5
218
100
AcDbEntity
  8
0
100
AcDbLine
 62
7
  6
BYLAYER
 10
28.8653935873
 20
11.2929502731
 11
28.8220909093
 21
11.2882093825
  0
LINE
  5
219
100
AcDbEntity
  8
0
100
AcDbLine
 62
7
  6
BYLAYER
 10
28.8653935873
 20
11.0331991976
 11
28.8307568425
 21
11.030190008
  0
LINE
  5
21A
100
AcDbEntity
  8
0
100
AcDbLine
 62
7
  6
BYLAYER
 10
5.6153935873
 20
10.3318082789
 11
3.6153935873
 21
10.3318082789
  0
LINE
  5
21B
100
AcDbEntity
  8
0
100
AcDbLine
 62
7
  6
BYLAYER
 10
25.9653935873
 20
10.5818082789
 11
27.9653935873
 21
10.5818082789
  0
LINE
  5
21C
100
AcDbEntity
  8
0
100
AcDbLine
 62
7
  6
BYLAYER
 10
27.9653935873
 20
10.6193317457
 11
29.8153935873
 21
10.6193317457
  0
LINE
  5
21D
100
AcDbEntity
  8
0
100
AcDbLine
 62
7
  6
BYLAYER
 10
29.8153935873
 20
10.7006616821
 11
26.7653935873
 21
10.7006616821
  0
LINE
  5
21E
100
AcDbEntity
  8
0
100
AcDbLine
 62
7
  6
BYLAYER
 10
29.8153935873
 20
10.899869326
 11
26.9645407013
 21
10.899869326
  0
LINE
  5
21F
100
AcDbEntity
  8
0
100
AcDbLine
 62
7
  6
BYLAYER
 10
28.8309435119
 20
11.0301899248
 11
29.3998436626
 21
11.0301899248
  0
LINE
  5
220
100
AcDbEntity
  8
0
100
AcDbLine
 62
7
  6
BYLAYER
 10
28.8653935873
 20
11.0331991976
 11
29.3653935873
 21
11.0331991976
  0
LINE
  5
221
100
AcDbEntity
  8
0
100
AcDbLine
 62
7
  6
BYLAYER
 10
5.6153935873
 20
36.1318041008
 11
5.6153935873
 21
35.1318082789
  0
LINE
  5
222
100
AcDbEntity
  8
0
100
AcDbLine
 62
7
  6
BYLAYER
 10
5.6153935873
 20
28.2117681181
 11
5.6153935873
 21
18.2518484397
  0
LINE
  5
223
100
AcDbEntity
  8
0
100
AcDbLine
 62
7
  6
BYLAYER
 10
5.6153935873
 20
11.3318082789
 11
5.6153935873
 21
10.331812457
  0
LINE
  5
224
100
AcDbEntity
  8
0
100
AcDbLine
 62
7
  6
BYLAYER
 10
26.8510492827
 20
11.2882093265
 11
28.8222461351
 21
11.2882093265
  0
LINE
  5
225
100
AcDbEntity
  8
0
100
AcDbLine
 62
7
  6
BYLAYER
 10
26.7653935873
 20
11.2929502731
 11
28.8653935873
 21
11.2929502731
  0
LINE
  5
226
100
AcDbEntity
  8
0
100
AcDbLine
 62
7
  6
BYLAYER
 10
5.6153935873
 20
11.3318082789
 11
6.9653935873
 21
11.3318082789
  0
LINE
  5
227
100
AcDbEntity
  8
0
100
AcDbLine
 62
7
  6
BYLAYER
 10
8.9653935873
 20
11.3318082789
 11
12.7653935873
 21
11.3318082789
  0
LINE
  5
228
100
AcDbEntity
  8
0
100
AcDbLine
 62
7
  6
BYLAYER
 10
6.9653935873
 20
11.4318082789
 11
8.9653935873
 21
11.4318082789
  0
LINE
  5
229
100
AcDbEntity
  8
0
100
AcDbLine
 62
7
  6
BYLAYER
 10
29.3653935873
 20
11.483189832
 11
25.9653935873
 21
11.483189832
  0
LINE
  5
22A
100
AcDbEntity
  8
0
100
AcDbLine
 62
7
  6
BYLAYER
 10
29.5592255502
 20
11.6771806217
 11
25.9653935873
 21
11.6771806217
  0
LINE
  5
22B
100
AcDbEntity
  8
0
100
AcDbLine
 62
7
  6
BYLAYER
 10
22.6653935873
 20
11.6818082789
 11
21.3485345147
 21
11.6818082789
  0
LINE
  5
22C
100
AcDbEntity
  8
0
100
AcDbLine
 62
7
  6
BYLAYER
 10
14.2653935873
 20
11.6818082789
 11
13.1153935873
 21
11.6818082789
  0
LINE
  5
22D
100
AcDbEntity
  8
0
100
AcDbLine
 62
7
  6
BYLAYER
 10
25.7653935873
 20
11.6818082789
 11
25.9653935873
 21
11.6818082789
  0
LINE
  5
22E
100
AcDbEntity
  8
0
100
AcDbLine
 62
7
  6
BYLAYER
 10
25.9653935873
 20
11.9048084603
 11
25.7653935873
 21
11.9048084603
  0
LINE
  5
22F
100
AcDbEntity
  8
0
100
AcDbLine
 62
7
  6
BYLAYER
 10
25.9653935873
 20
12.1990162478
 11
25.4653935873
 21
12.1990162478
  0
LINE
  5
230
100
AcDbEntity
  8
0
100
AcDbLine
 62
7
  6
BYLAYER
 10
26.7653935873
 20
11.2929502731
 11
26.8510464233
 21
11.2882093266
  0
LINE
  5
231
100
AcDbEntity
  8
0
100
AcDbLine
 62
7
  6
BYLAYER
 10
29.3653935873
 20
11.0331991976
 11
29.4000304423
 21
11.0301900081
  0
LINE
  5
232
100
AcDbEntity
  8
0
100
AcDbLine
 62
7
  6
BYLAYER
 10
6.9653935873
 20
35.1318082789
 11
6.9653935873
 21
35.0318082789
  0
LINE
  5
233
100
AcDbEntity
  8
0
100
AcDbLine
 62
7
  6
BYLAYER
 10
6.9653935873
 20
11.4318082789
 11
6.9653935873
 21
11.3318082789
  0
LINE
  5
234
100
AcDbEntity
  8
0
100
AcDbLine
 62
7
  6
BYLAYER
 10
18.2999319748
 20
12.5318082789
 11
18.4671894527
 21
12.5318082789
  0
LINE
  5
235
100
AcDbEntity
  8
0
100
AcDbLine
 62
7
  6
BYLAYER
 10
23.0653935873
 20
13.4318082789
 11
25.3653935873
 21
13.4318082789
  0
LINE
  5
236
100
AcDbEntity
  8
0
100
AcDbLine
 62
7
  6
BYLAYER
 10
18.8417960507
 20
34.0046244261
 11
20.2247147345
 21
34.5633598426
  0
LINE
  5
237
100
AcDbEntity
  8
0
100
AcDbLine
 62
7
  6
BYLAYER
 10
20.2247147345
 20
34.5633598426
 11
20.2715015533
 21
34.5818082789
  0
LINE
  5
238
100
AcDbEntity
  8
0
100
AcDbLine
 62
7
  6
BYLAYER
 10
18.8417960507
 20
12.4589921316
 11
20.2247147691
 21
11.9002567012
  0
LINE
  5
239
100
AcDbEntity
  8
0
100
AcDbLine
 62
7
  6
BYLAYER
 10
8.9653935873
 20
11.3318082789
 11
8.9653935873
 21
11.4318082789
  0
LINE
  5
23A
100
AcDbEntity
  8
0
100
AcDbLine
 62
7
  6
BYLAYER
 10
8.9653935873
 20
35.0318082789
 11
8.9653935873
 21
35.1318082789
  0
LINE
  5
23B
100
AcDbEntity
  8
0
100
AcDbLine
 62
7
  6
BYLAYER
 10
25.9653935873
 20
15.5318082789
 11
29.8153935873
 21
15.5318082789
  0
LINE
  5
23C
100
AcDbEntity
  8
0
100
AcDbLine
 62
7
  6
BYLAYER
 10
25.9653935873
 20
15.7318082789
 11
29.8153935873
 21
15.7318082789
  0
LINE
  5
23D
100
AcDbEntity
  8
0
100
AcDbLine
 62
7
  6
BYLAYER
 10
11.7653935873
 20
35.1318082789
 11
11.7653935873
 21
28.2117681181
  0
LINE
  5
23E
100
AcDbEntity
  8
0
100
AcDbLine
 62
7
  6
BYLAYER
 10
11.7653935873
 20
18.2518484397
 11
11.7653935873
 21
11.3318082789
  0
LINE
  5
23F
100
AcDbEntity
  8
0
100
AcDbLine
 62
7
  6
BYLAYER
 10
11.7653935873
 20
18.2518484397
 11
5.6153935873
 21
18.2518484397
  0
LINE
  5
240
100
AcDbEntity
  8
0
100
AcDbLine
 62
7
  6
BYLAYER
 10
13.1153935873
 20
11.6818082789
 11
13.1153935873
 21
34.7818082789
  0
LINE
  5
241
100
AcDbEntity
  8
0
100
AcDbLine
 62
7
  6
BYLAYER
 10
14.2653935873
 20
34.7818082789
 11
14.2653935873
 21
11.6818082789
  0
LINE
  5
242
100
AcDbEntity
  8
0
100
AcDbLine
 62
7
  6
BYLAYER
 10
18.2999319748
 20
12.5318082789
 11
18.2999319748
 21
33.9318082789
  0
LINE
  5
243
100
AcDbEntity
  8
0
100
AcDbLine
 62
7
  6
BYLAYER
 10
18.4671894527
 20
33.9318082789
 11
18.4671894527
 21
12.5320185987
  0
LINE
  5
244
100
AcDbEntity
  8
0
100
AcDbLine
 62
7
  6
BYLAYER
 10
18.8417960507
 20
12.4589921316
 11
18.8417960507
 21
34.0046244261
  0
LINE
  5
245
100
AcDbEntity
  8
0
100
AcDbLine
 62
7
  6
BYLAYER
 10
20.2247147683
 20
34.5633598563
 11
20.2247147691
 21
11.9002567012
  0
LINE
  5
246
100
AcDbEntity
  8
0
100
AcDbLine
 62
7
  6
BYLAYER
 10
20.2715015533
 20
34.1950664072
 11
20.2715015533
 21
34.5816060491
  0
LINE
  5
247
100
AcDbEntity
  8
0
100
AcDbLine
 62
7
  6
BYLAYER
 10
21.3485345214
 20
11.6818082789
 11
21.3485345147
 21
34.3882515725
  0
LINE
  5
248
100
AcDbEntity
  8
0
100
AcDbLine
 62
7
  6
BYLAYER
 10
5.6153935873
 20
28.2117681181
 11
11.7653935873
 21
28.2117681181
  0
LINE
  5
249
100
AcDbEntity
  8
0
100
AcDbLine
 62
7
  6
BYLAYER
 10
22.6653935873
 20
34.5818052323
 11
22.6653935873
 21
11.6818436831
  0
LINE
  5
24A
100
AcDbEntity
  8
0
100
AcDbLine
 62
7
  6
BYLAYER
 10
12.7653935873
 20
11.3318082789
 11
13.1153935873
 21
11.6818082789
  0
LINE
  5
24B
100
AcDbEntity
  8
0
100
AcDbLine
 62
7
  6
BYLAYER
 10
12.7653935873
 20
35.1318082789
 11
13.1153935873
 21
34.7818082789
  0
LINE
  5
24C
100
AcDbEntity
  8
0
100
AcDbLine
 62
7
  6
BYLAYER
 10
23.0653935873
 20
13.4318082789
 11
23.0653935873
 21
33.0318082789
  0
LINE
  5
24D
100
AcDbEntity
  8
0
100
AcDbLine
 62
7
  6
BYLAYER
 10
25.9653935873
 20
30.7318082789
 11
29.8153935873
 21
30.7318082789
  0
LINE
  5
24E
100
AcDbEntity
  8
0
100
AcDbLine
 62
7
  6
BYLAYER
 10
25.3653935873
 20
33.0318082789
 11
25.3653935873
 21
13.4318082789
  0
LINE
  5
24F
100
AcDbEntity
  8
0
100
AcDbLine
 62
7
  6
BYLAYER
 10
25.9653935873
 20
30.9318082789
 11
29.8153935873
 21
30.9318082789
  0
LINE
  5
250
100
AcDbEntity
  8
0
100
AcDbLine
 62
7
  6
BYLAYER
 10
25.4653935873
 20
11.9818904919
 11
25.4653935873
 21
13.6733275392
  0
LINE
  5
251
100
AcDbEntity
  8
0
100
AcDbLine
 62
7
  6
BYLAYER
 10
25.4653935873
 20
32.7902890186
 11
25.4653935873
 21
34.4817260658
  0
LINE
  5
252
100
AcDbEntity
  8
0
100
AcDbLine
 62
7
  6
BYLAYER
 10
25.7653935873
 20
11.6818082789
 11
25.7653935873
 21
13.598119618
  0
LINE
  5
253
100
AcDbEntity
  8
0
100
AcDbLine
 62
7
  6
BYLAYER
 10
25.7653935873
 20
32.8654969397
 11
25.7653935873
 21
34.7818082789
  0
LINE
  5
254
100
AcDbEntity
  8
0
100
AcDbLine
 62
7
  6
BYLAYER
 10
25.9653935873
 20
10.5818082789
 11
25.9653935873
 21
35.8818082789
  0
LINE
  5
255
100
AcDbEntity
  8
0
100
AcDbLine
 62
7
  6
BYLAYER
 10
23.0653935873
 20
33.0318082789
 11
25.3653935873
 21
33.0318082789
  0
LINE
  5
256
100
AcDbEntity
  8
0
100
AcDbLine
 62
7
  6
BYLAYER
 10
26.7653935873
 20
35.7629548757
 11
26.7653935873
 21
35.1706672237
  0
LINE
  5
257
100
AcDbEntity
  8
0
100
AcDbLine
 62
7
  6
BYLAYER
 10
26.7653935873
 20
11.2929502731
 11
26.7653935873
 21
10.7006616821
  0
LINE
  5
258
100
AcDbEntity
  8
0
100
AcDbLine
 62
7
  6
BYLAYER
 10
26.9653935873
 20
35.5452116574
 11
26.9653935873
 21
35.1754072312
  0
LINE
  5
259
100
AcDbEntity
  8
0
100
AcDbLine
 62
7
  6
BYLAYER
 10
26.9653935873
 20
11.2882093265
 11
26.9653935873
 21
10.9184049003
  0
LINE
  5
25A
100
AcDbEntity
  8
0
100
AcDbLine
 62
7
  6
BYLAYER
 10
29.3653935873
 20
35.4304173601
 11
29.4000303321
 21
35.4334265497
  0
LINE
  5
25B
100
AcDbEntity
  8
0
100
AcDbLine
 62
7
  6
BYLAYER
 10
26.7653957452
 20
35.1706672236
 11
26.8301760622
 21
35.1754072312
  0
LINE
  5
25C
100
AcDbEntity
  8
0
100
AcDbLine
 62
7
  6
BYLAYER
 10
18.2999319748
 20
33.9318082789
 11
18.4671894527
 21
33.9318082789
  0
LINE
  5
25D
100
AcDbEntity
  8
0
100
AcDbLine
 62
7
  6
BYLAYER
 10
25.4653935873
 20
34.2646003099
 11
25.9653935873
 21
34.2646003099
  0
LINE
  5
25E
100
AcDbEntity
  8
0
100
AcDbLine
 62
7
  6
BYLAYER
 10
22.6653935873
 20
34.3882515725
 11
21.3485345147
 21
34.3882515725
  0
LINE
  5
25F
100
AcDbEntity
  8
0
100
AcDbLine
 62
7
  6
BYLAYER
 10
27.9653935873
 20
35.8818082789
 11
27.9653935873
 21
35.844284812
  0
LINE
  5
260
100
AcDbEntity
  8
0
100
AcDbLine
 62
7
  6
BYLAYER
 10
27.9653935873
 20
10.6193317457
 11
27.9653935873
 21
10.5818082789
  0
LINE
  5
261
100
AcDbEntity
  8
0
100
AcDbLine
 62
7
  6
BYLAYER
 10
28.6653935873
 20
11.1962874038
 11
28.6653935873
 21
11.2882093265
  0
LINE
  5
262
100
AcDbEntity
  8
0
100
AcDbLine
 62
7
  6
BYLAYER
 10
28.6653935873
 20
35.1754072312
 11
28.6653935873
 21
35.267329154
  0
LINE
  5
263
100
AcDbEntity
  8
0
100
AcDbLine
 62
7
  6
BYLAYER
 10
28.8653935873
 20
11.0331991976
 11
28.8653935873
 21
11.2929502731
  0
LINE
  5
264
100
AcDbEntity
  8
0
100
AcDbLine
 62
7
  6
BYLAYER
 10
28.8653935873
 20
35.1706672237
 11
28.8653935873
 21
35.4304173601
  0
LINE
  5
265
100
AcDbEntity
  8
0
100
AcDbLine
 62
7
  6
BYLAYER
 10
25.9653935873
 20
34.5588080974
 11
25.7653935873
 21
34.5588080974
  0
LINE
  5
266
100
AcDbEntity
  8
0
100
AcDbLine
 62
7
  6
BYLAYER
 10
22.6653935873
 20
34.5818082789
 11
20.2715015533
 21
34.5818082789
  0
LINE
  5
267
100
AcDbEntity
  8
0
100
AcDbLine
 62
7
  6
BYLAYER
 10
14.2653935873
 20
34.7818082789
 11
13.1153935873
 21
34.7818082789
  0
LINE
  5
268
100
AcDbEntity
  8
0
100
AcDbLine
 62
7
  6
BYLAYER
 10
25.7653935873
 20
34.7818082789
 11
25.9653935873
 21
34.7818082789
  0
LINE
  5
269
100
AcDbEntity
  8
0
100
AcDbLine
 62
7
  6
BYLAYER
 10
25.9653935873
 20
34.786435936
 11
29.5592255506
 21
34.786435936
  0
LINE
  5
26A
100
AcDbEntity
  8
0
100
AcDbLine
 62
7
  6
BYLAYER
 10
25.9653935873
 20
34.9804267257
 11
29.3653935873
 21
34.9804267257
  0
LINE
  5
26B
100
AcDbEntity
  8
0
100
AcDbLine
 62
7
  6
BYLAYER
 10
8.9653935873
 20
35.0318082789
 11
6.9653935873
 21
35.0318082789
  0
LINE
  5
26C
100
AcDbEntity
  8
0
100
AcDbLine
 62
7
  6
BYLAYER
 10
12.7653935873
 20
35.1318082789
 11
8.9653935873
 21
35.1318082789
  0
LINE
  5
26D
100
AcDbEntity
  8
0
100
AcDbLine
 62
7
  6
BYLAYER
 10
6.9653935873
 20
35.1318082789
 11
5.6153935873
 21
35.1318082789
  0
LINE
  5
26E
100
AcDbEntity
  8
0
100
AcDbLine
 62
7
  6
BYLAYER
 10
28.8653935873
 20
35.1706672237
 11
26.7653935873
 21
35.1706672237
  0
LINE
  5
26F
100
AcDbEntity
  8
0
100
AcDbLine
 62
7
  6
BYLAYER
 10
28.8222461351
 20
35.1754072312
 11
26.8301760622
 21
35.1754072312
  0
LINE
  5
270
100
AcDbEntity
  8
0
100
AcDbLine
 62
7
  6
BYLAYER
 10
29.3653935873
 20
35.4304173601
 11
28.8653935873
 21
35.4304173601
  0
LINE
  5
271
100
AcDbEntity
  8
0
100
AcDbLine
 62
7
  6
BYLAYER
 10
29.3998436626
 20
35.4334266329
 11
28.8309435119
 21
35.4334266329
  0
LINE
  5
272
100
AcDbEntity
  8
0
100
AcDbLine
 62
7
  6
BYLAYER
 10
26.9645407013
 20
35.5637472317
 11
29.8153935873
 21
35.5637472317
  0
LINE
  5
273
100
AcDbEntity
  8
0
100
AcDbLine
 62
7
  6
BYLAYER
 10
29.3653935873
 20
35.4304173601
 11
29.3653935873
 21
34.9804267257
  0
LINE
  5
274
100
AcDbEntity
  8
0
100
AcDbLine
 62
7
  6
BYLAYER
 10
29.3653935873
 20
11.483189832
 11
29.3653935873
 21
11.0331991976
  0
LINE
  5
275
100
AcDbEntity
  8
0
100
AcDbLine
 62
7
  6
BYLAYER
 10
29.5653935873
 20
35.267329154
 11
29.5653935873
 21
30.9318082789
  0
LINE
  5
276
100
AcDbEntity
  8
0
100
AcDbLine
 62
7
  6
BYLAYER
 10
29.5653935873
 20
11.1962874038
 11
29.5653935873
 21
15.5318082789
  0
LINE
  5
277
100
AcDbEntity
  8
0
100
AcDbLine
 62
7
  6
BYLAYER
 10
29.8153935873
 20
10.6193317457
 11
29.8153935873
 21
35.844284812
  0
LINE
  5
278
100
AcDbEntity
  8
0
100
AcDbLine
 62
7
  6
BYLAYER
 10
26.7653935873
 20
35.7629548757
 11
29.8153935873
 21
35.7629548757
  0
LINE
  5
279
100
AcDbEntity
  8
0
100
AcDbLine
 62
7
  6
BYLAYER
 10
29.8153935873
 20
35.844284812
 11
27.9653935873
 21
35.844284812
  0
LINE
  5
27A
100
AcDbEntity
  8
0
100
AcDbLine
 62
7
  6
BYLAYER
 10
27.9653935873
 20
35.8818082789
 11
25.9653935873
 21
35.8818082789
  0
LINE
  5
27B
100
AcDbEntity
  8
0
100
AcDbLine
 62
7
  6
BYLAYER
 10
5.6153935873
 20
36.1318082789
 11
3.6153935873
 21
36.1318082789
  0
LINE
  5
27C
100
AcDbEntity
  8
0
100
AcDbLine
 62
7
  6
BYLAYER
 10
28.8653935873
 20
35.4304173601
 11
28.8307567323
 21
35.4334265496
  0
LINE
  5
27D
100
AcDbEntity
  8
0
100
AcDbLine
 62
7
  6
BYLAYER
 10
28.8653893423
 20
35.1706672236
 11
28.8220910332
 21
35.1754071753
  0
LINE
  5
27E
100
AcDbEntity
  8
0
100
AcDbLine
 62
7
  6
BYLAYER
 10
29.5653935873
 20
15.5318082789
 11
29.8153935873
 21
15.7818082789
  0
LINE
  5
27F
100
AcDbEntity
  8
0
100
AcDbLine
 62
7
  6
BYLAYER
 10
29.5653935873
 20
30.9318082789
 11
29.8153935873
 21
30.6818082789
  0
ARC
  5
280
100
AcDbEntity
  8
0
100
AcDbCircle
 62
7
  6
BYLAYER
 10
18.2999319748
 20
2.5318082789
 40
10.0
100
AcDbArc
 50
90.0
 51
113.7942729505
  0
ARC
  5
281
100
AcDbEntity
  8
0
100
AcDbCircle
 62
7
  6
BYLAYER
 10
18.2999319748
 20
43.9318082789
 40
10.0
100
AcDbArc
 50
246.2057270495
 51
270.0
  0
ARC
  5
282
100
AcDbEntity
  8
0
100
AcDbCircle
 62
7
  6
BYLAYER
 10
21.3476069096
 20
31.2945295883
 40
3.0937221233
100
AcDbArc
 50
89.9828207391
 51
110.3549613932
  0
ARC
  5
283
100
AcDbEntity
  8
0
100
AcDbCircle
 62
7
  6
BYLAYER
 10
21.3485345147
 20
14.6818082789
 40
3.0
100
AcDbArc
 50
248.0
 51
270.0
  0
ARC
  5
284
100
AcDbEntity
  8
0
100
AcDbCircle
 62
7
  6
BYLAYER
 10
18.4671894527
 20
34.9318082789
 40
1.0
100
AcDbArc
 50
270.0
 51
292.0000002822
  0
ARC
  5
285
100
AcDbEntity
  8
0
100
AcDbCircle
 62
7
  6
BYLAYER
 10
18.4671894527
 20
11.5318082789
 40
1.0
100
AcDbArc
 50
67.9999997178
 51
90.0
  0
ARC
  5
286
100
AcDbEntity
  8
0
100
AcDbCircle
 62
7
  6
BYLAYER
 10
25.3653935873
 20
12.8318082789
 40
0.6
100
AcDbArc
 50
80.4059317731
 51
90.0
  0
ARC
  5
287
100
AcDbEntity
  8
0
100
AcDbCircle
 62
7
  6
BYLAYER
 10
25.3653935873
 20
33.6318082789
 40
0.6
100
AcDbArc
 50
270.0
 51
279.5940682269
  0
ARC
  5
288
100
AcDbEntity
  8
0
100
AcDbCircle
 62
7
  6
BYLAYER
 10
23.0653935873
 20
33.4318082789
 40
0.4
100
AcDbArc
 50
180.0
 51
270.0
  0
ARC
  5
289
100
AcDbEntity
  8
0
100
AcDbCircle
 62
7
  6
BYLAYER
 10
23.0653935873
 20
13.0318082789
 40
0.4
100
AcDbArc
 50
90.0
 51
180.0
  0
ARC
  5
28A
100
AcDbEntity
  8
0
100
AcDbCircle
 62
7
  6
BYLAYER
 10
25.7653935873
 20
34.4818082789
 40
0.3
100
AcDbArc
 50
90.0
 51
180.0
  0
ARC
  5
28B
100
AcDbEntity
  8
0
100
AcDbCircle
 62
7
  6
BYLAYER
 10
25.7653935873
 20
11.9818082789
 40
0.3
100
AcDbArc
 50
180.0
 51
270.0
  0
ARC
  5
28C
100
AcDbEntity
  8
0
100
AcDbCircle
 62
7
  6
BYLAYER
 10
25.7580933127
 20
12.2005534953
 40
0.2930097277
100
AcDbArc
 50
211.2389231551
 51
216.5474216242
  0
ARC
  5
28D
100
AcDbEntity
  8
0
100
AcDbCircle
 62
7
  6
BYLAYER
 10
25.7557914324
 20
34.2643435719
 40
0.2903979586
100
AcDbArc
 50
143.3888785083
 51
179.9493453468
  0
ARC
  5
28E
100
AcDbEntity
  8
0
100
AcDbCircle
 62
7
  6
BYLAYER
 10
25.7554968348
 20
12.1992298346
 40
0.2901033261
100
AcDbArc
 50
180.0421836617
 51
211.2813480528
  0
ARC
  5
28F
100
AcDbEntity
  8
0
100
AcDbCircle
 62
7
  6
BYLAYER
 10
29.3517409373
 20
34.7354693331
 40
0.2136526605
100
AcDbArc
 50
0.0180090907
 51
13.8009099355
  0
ARC
  5
290
100
AcDbEntity
  8
0
100
AcDbCircle
 62
7
  6
BYLAYER
 10
29.3517409587
 20
11.7281472235
 40
0.2136526392
100
AcDbArc
 50
346.1990889715
 51
359.9819898358
  0
ARC
  5
291
100
AcDbEntity
  8
0
100
AcDbCircle
 62
7
  6
BYLAYER
 10
26.7634503634
 20
35.5452069588
 40
0.2019432239
100
AcDbArc
 50
0.0013331125
 51
5.2677053243
  0
ARC
  5
292
100
AcDbEntity
  8
0
100
AcDbCircle
 62
7
  6
BYLAYER
 10
26.7634503635
 20
10.918409599
 40
0.2019432239
100
AcDbArc
 50
354.7322946751
 51
359.9986668864
  0
SPLINE
  5
293
100
AcDbEntity
  8
0
100
AcDbSpline
 62
7
  6
BYLAYER
 70
0
 71
3
 72
11
 73
7
 74
0
 42
0.0000001
 43
0.0000001
 44
0.0000000001
 40
0.0
 40
0.0
 40
0.0
 40
0.0
 40
0.2218631047
 40
0.4502772706
 40
0.704100896
 40
1.0
 40
1.0
 40
1.0
 40
1.0
 10
29.3998443307
 20
11.0301878453
 30
0.0
 10
29.4191152597
 20
11.0301893556
 30
0.0
 10
29.4585846365
 20
11.0361150857
 30
0.0
 10
29.5133710196
 20
11.0664647217
 30
0.0
 10
29.5556123661
 20
11.1219024095
 30
0.0
 10
29.5653935873
 20
11.1705857413
 30
0.0
 10
29.5653935873
 20
11.1962874038
 30
0.0
  0
SPLINE
  5
294
100
AcDbEntity
  8
0
100
AcDbSpline
 62
7
  6
BYLAYER
 70
0
 71
3
 72
11
 73
7
 74
0
 42
0.0000001
 43
0.0000001
 44
0.0000000001
 40
0.0
 40
0.0
 40
0.0
 40
0.0
 40
0.2218639553
 40
0.4502741205
 40
0.7041032549
 40
1.0
 40
1.0
 40
1.0
 40
1.0
 10
28.8309429911
 20
11.0301878854
 30
0.0
 10
28.8116719439
 20
11.0301894244
 30
0.0
 10
28.772202128
 20
11.0361141925
 30
0.0
 10
28.7174182336
 20
11.0664673519
 30
0.0
 10
28.6751701782
 20
11.1219002919
 30
0.0
 10
28.6653935873
 20
11.170585887
 30
0.0
 10
28.6653935873
 20
11.1962874038
 30
0.0
  0
SPLINE
  5
295
100
AcDbEntity
  8
0
100
AcDbSpline
 62
7
  6
BYLAYER
 70
0
 71
3
 72
11
 73
7
 74
0
 42
0.0000001
 43
0.0000001
 44
0.0000000001
 40
0.0
 40
0.0
 40
0.0
 40
0.0
 40
0.2218631047
 40
0.4502772706
 40
0.704100896
 40
1.0
 40
1.0
 40
1.0
 40
1.0
 10
28.8309428438
 20
35.4334287124
 30
0.0
 10
28.8116719149
 20
35.4334272021
 30
0.0
 10
28.772202538
 20
35.427501472
 30
0.0
 10
28.717416155
 20
35.397151836
 30
0.0
 10
28.6751748085
 20
35.3417141483
 30
0.0
 10
28.6653935873
 20
35.2930308164
 30
0.0
 10
28.6653935873
 20
35.267329154
 30
0.0
  0
SPLINE
  5
296
100
AcDbEntity
  8
0
100
AcDbSpline
 62
7
  6
BYLAYER
 70
0
 71
3
 72
11
 73
7
 74
0
 42
0.0000001
 43
0.0000001
 44
0.0000000001
 40
0.0
 40
0.0
 40
0.0
 40
0.0
 40
0.2218639553
 40
0.4502741205
 40
0.7041032549
 40
1.0
 40
1.0
 40
1.0
 40
1.0
 10
29.3998441835
 20
35.4334286723
 30
0.0
 10
29.4191152307
 20
35.4334271333
 30
0.0
 10
29.4585850466
 20
35.4275023653
 30
0.0
 10
29.513368941
 20
35.3971492058
 30
0.0
 10
29.5556169964
 20
35.3417162658
 30
0.0
 10
29.5653935873
 20
35.2930306708
 30
0.0
 10
29.5653935873
 20
35.267329154
 30
0.0
  0
SPLINE
  5
297
100
AcDbEntity
  8
0
100
AcDbSpline
 62
7
  6
BYLAYER
 70
0
 71
3
 72
13
 73
9
 74
0
 42
0.0000001
 43
0.0000001
 44
0.0000000001
 40
0.0
 40
0.0
 40
0.0
 40
0.0
 40
0.2174239418
 40
0.3334455117
 40
0.4548716851
 40
0.71570468
 40
0.8561309233
 40
1.0
 40
1.0
 40
1.0
 40
1.0
 10
29.3653935873
 20
34.9804267257
 30
0.0
 10
29.3855872619
 20
34.9754973764
 30
0.0
 10
29.4156351758
 20
34.9635675001
 30
0.0
 10
29.4525750128
 20
34.9404854685
 30
0.0
 10
29.4896634416
 20
34.9104415849
 30
0.0
 10
29.5223675999
 20
34.8717331702
 30
0.0
 10
29.546961837
 20
34.8256202536
 30
0.0
 10
29.555936553
 20
34.7997914691
 30
0.0
 10
29.5592251722
 20
34.786435936
 30
0.0
  0
SPLINE
  5
298
100
AcDbEntity
  8
0
100
AcDbSpline
 62
7
  6
BYLAYER
 70
0
 71
3
 72
11
 73
7
 74
0
 42
0.0000001
 43
0.0000001
 44
0.0000000001
 40
0.0
 40
0.0
 40
0.0
 40
0.0
 40
0.2163205346
 40
0.4492479657
 40
0.7094537105
 40
1.0
 40
1.0
 40
1.0
 40
1.0
 10
26.7653935873
 20
35.7629548757
 30
0.0
 10
26.7871739752
 20
35.7610115405
 30
0.0
 10
26.8320090824
 20
35.7495045951
 30
0.0
 10
26.8935570537
 20
35.7105173729
 30
0.0
 10
26.9444296582
 20
35.6478810939
 30
0.0
 10
26.9618435138
 20
35.5929931964
 30
0.0
 10
26.9645407013
 20
35.5637472317
 30
0.0
  0
SPLINE
  5
299
100
AcDbEntity
  8
0
100
AcDbSpline
 62
7
  6
BYLAYER
 70
0
 71
3
 72
11
 73
7
 74
0
 42
0.0000001
 43
0.0000001
 44
0.0000000001
 40
0.0
 40
0.0
 40
0.0
 40
0.0
 40
0.2510075843
 40
0.5017717933
 40
0.7514105381
 40
1.0
 40
1.0
 40
1.0
 40
1.0
 10
25.7653935873
 20
34.5588080974
 30
0.0
 10
25.7419029293
 20
34.5588080974
 30
0.0
 10
25.6947695278
 20
34.5533325848
 30
0.0
 10
25.6280517597
 20
34.529242245
 30
0.0
 10
25.568891335
 20
34.490504638
 30
0.0
 10
25.5365417446
 20
34.4562213489
 30
0.0
 10
25.522688489
 20
34.4375313085
 30
0.0
  0
SPLINE
  5
29A
100
AcDbEntity
  8
0
100
AcDbSpline
 62
7
  6
BYLAYER
 70
0
 71
3
 72
21
 73
17
 74
0
 42
0.0000001
 43
0.0000001
 44
0.0000000001
 40
0.0
 40
0.0
 40
0.0
 40
0.0
 40
0.0205027905
 40
0.0435566047
 40
0.0717485184
 40
0.1065820085
 40
0.1486933994
 40
0.1982871231
 40
0.2555150383
 40
0.3201370436
 40
0.4684810994
 40
0.5508335765
 40
0.6371157194
 40
0.7260901678
 40
0.8167395421
 40
1.0
 40
1.0
 40
1.0
 40
1.0
 10
25.4653935873
 20
32.7902890186
 30
0.0
 10
25.4653935873
 20
32.7879642848
 30
0.0
 10
25.466596889
 20
32.7829672836
 30
0.0
 10
25.4717716109
 20
32.7764614888
 30
0.0
 10
25.4799028508
 20
32.7708969595
 30
0.0
 10
25.4909499832
 20
32.766265323
 30
0.0
 10
25.5049054519
 20
32.7627526119
 30
0.0
 10
25.5217024152
 20
32.760683336
 30
0.0
 10
25.5411738219
 20
32.7603929607
 30
0.0
 10
25.5717459077
 20
32.7628744235
 30
0.0
 10
25.6046207449
 20
32.7702842174
 30
0.0
 10
25.6384396718
 20
32.7825248368
 30
0.0
 10
25.6650733499
 20
32.7945952197
 30
0.0
 10
25.6915144176
 20
32.809148845
 30
0.0
 10
25.7259580465
 20
32.8317084218
 30
0.0
 10
25.750132382
 20
32.8513947711
 30
0.0
 10
25.7653935873
 20
32.8654969397
 30
0.0
  0
SPLINE
  5
29B
100
AcDbEntity
  8
0
100
AcDbSpline
 62
7
  6
BYLAYER
 70
0
 71
3
 72
11
 73
7
 74
0
 42
0.0000001
 43
0.0000001
 44
0.0000000001
 40
0.0
 40
0.0
 40
0.0
 40
0.0
 40
0.249934552
 40
0.5000132721
 40
0.7500760313
 40
1.0
 40
1.0
 40
1.0
 40
1.0
 10
25.7653935873
 20
13.598119618
 30
0.0
 10
25.7969919534
 20
13.5689210403
 30
0.0
 10
25.8541185009
 20
13.5035420316
 30
0.0
 10
25.9176375267
 20
13.3901090345
 30
0.0
 10
25.9565799837
 20
13.2660930574
 30
0.0
 10
25.9653935873
 20
13.1797815745
 30
0.0
 10
25.9653935873
 20
13.1367599877
 30
0.0
  0
SPLINE
  5
29C
100
AcDbEntity
  8
0
100
AcDbSpline
 62
7
  6
BYLAYER
 70
0
 71
3
 72
11
 73
7
 74
0
 42
0.0000001
 43
0.0000001
 44
0.0000000001
 40
0.0
 40
0.0
 40
0.0
 40
0.0
 40
0.2499247122
 40
0.4999866923
 40
0.7500647195
 40
1.0
 40
1.0
 40
1.0
 40
1.0
 10
25.9653935873
 20
33.32685657
 30
0.0
 10
25.9653935873
 20
33.2838348568
 30
0.0
 10
25.9565797098
 20
33.1975234348
 30
0.0
 10
25.9176377839
 20
33.0735074167
 30
0.0
 10
25.8541183587
 20
32.9600747865
 30
0.0
 10
25.7969920444
 20
32.8946956015
 30
0.0
 10
25.7653935873
 20
32.8654969397
 30
0.0
  0
SPLINE
  5
29D
100
AcDbEntity
  8
0
100
AcDbSpline
 62
7
  6
BYLAYER
 70
0
 71
3
 72
11
 73
7
 74
0
 42
0.0000001
 43
0.0000001
 44
0.0000000001
 40
0.0
 40
0.0
 40
0.0
 40
0.0
 40
0.2485894067
 40
0.4982284147
 40
0.748992569
 40
1.0
 40
1.0
 40
1.0
 40
1.0
 10
25.522699766
 20
12.0260697461
 30
0.0
 10
25.5365533377
 20
12.0073819131
 30
0.0
 10
25.5689027368
 20
11.9731029156
 30
0.0
 10
25.628060697
 20
11.9343704732
 30
0.0
 10
25.694774381
 20
11.9102832828
 30
0.0
 10
25.741904539
 20
11.9048084603
 30
0.0
 10
25.7653935873
 20
11.9048084603
 30
0.0
  0
SPLINE
  5
29E
100
AcDbEntity
  8
0
100
AcDbSpline
 62
7
  6
BYLAYER
 70
0
 71
3
 72
9
 73
5
 74
0
 42
0.0000001
 43
0.0000001
 44
0.0000000001
 40
0.0
 40
0.0
 40
0.0
 40
0.0
 40
0.5113245257
 40
1.0
 40
1.0
 40
1.0
 40
1.0
 10
26.7653993907
 20
35.1706673239
 30
0.0
 10
26.782923821
 20
35.1763542743
 30
0.0
 10
26.8186739404
 20
35.1836135697
 30
0.0
 10
26.8553203727
 20
35.1798288544
 30
0.0
 10
26.87218633
 20
35.174771085
 30
0.0
  0
SPLINE
  5
29F
100
AcDbEntity
  8
0
100
AcDbSpline
 62
7
  6
BYLAYER
 70
0
 71
3
 72
21
 73
17
 74
0
 42
0.0000001
 43
0.0000001
 44
0.0000000001
 40
0.0
 40
0.0
 40
0.0
 40
0.0
 40
0.1832726472
 40
0.2739272684
 40
0.3629007267
 40
0.449183345
 40
0.5315389423
 40
0.6798778592
 40
0.7444944096
 40
0.8017228471
 40
0.8513145296
 40
0.8934231359
 40
0.9282558938
 40
0.9564464104
 40
0.9794981992
 40
1.0
 40
1.0
 40
1.0
 40
1.0
 10
25.7653935873
 20
13.598119618
 30
0.0
 10
25.7501313411
 20
13.6122227486
 30
0.0
 10
25.7259547968
 20
13.6319095756
 30
0.0
 10
25.6915102713
 20
13.654471194
 30
0.0
 10
25.6650692184
 20
13.6690262181
 30
0.0
 10
25.6384338065
 20
13.6810938112
 30
0.0
 10
25.6046143863
 20
13.6933321458
 30
0.0
 10
25.5717410866
 20
13.7007455375
 30
0.0
 10
25.5411698168
 20
13.7032246101
 30
0.0
 10
25.5216992159
 20
13.7029337377
 30
0.0
 10
25.5049027418
 20
13.700864228
 30
0.0
 10
25.490947966
 20
13.6973510853
 30
0.0
 10
25.4799017627
 20
13.6927186665
 30
0.0
 10
25.4717710166
 20
13.6871543208
 30
0.0
 10
25.4665966098
 20
13.6806488696
 30
0.0
 10
25.4653935873
 20
13.6756521647
 30
0.0
 10
25.4653935873
 20
13.6733275392
 30
0.0
  0
SPLINE
  5
2A0
100
AcDbEntity
  8
0
100
AcDbSpline
 62
7
  6
BYLAYER
 70
0
 71
3
 72
11
 73
7
 74
0
 42
0.0000001
 43
0.0000001
 44
0.0000000001
 40
0.0
 40
0.0
 40
0.0
 40
0.0
 40
0.2163217903
 40
0.4492427501
 40
0.7094597096
 40
1.0
 40
1.0
 40
1.0
 40
1.0
 10
26.7653935873
 20
10.7006616821
 30
0.0
 10
26.7871737667
 20
10.7026049986
 30
0.0
 10
26.8320082673
 20
10.7141103907
 30
0.0
 10
26.8935529046
 20
10.753103429
 30
0.0
 10
26.9444195123
 20
10.815740074
 30
0.0
 10
26.961843611
 20
10.8706244149
 30
0.0
 10
26.9645407013
 20
10.899869326
 30
0.0
  0
SPLINE
  5
2A1
100
AcDbEntity
  8
0
100
AcDbSpline
 62
7
  6
BYLAYER
 70
0
 71
3
 72
11
 73
7
 74
0
 42
0.0000001
 43
0.0000001
 44
0.0000000001
 40
0.0
 40
0.0
 40
0.0
 40
0.0
 40
0.260763486
 40
0.5100024816
 40
0.7531799668
 40
1.0
 40
1.0
 40
1.0
 40
1.0
 10
26.7653935873
 20
11.2929502731
 30
0.0
 10
26.7762291214
 20
11.2882587041
 30
0.0
 10
26.7981059739
 20
11.2805456454
 30
0.0
 10
26.8318745942
 20
11.2746138844
 30
0.0
 10
26.8655874926
 20
11.2754374791
 30
0.0
 10
26.8872744448
 20
11.2815503883
 30
0.0
 10
26.8974564251
 20
11.2861585913
 30
0.0
  0
SPLINE
  5
2A2
100
AcDbEntity
  8
0
100
AcDbSpline
 62
7
  6
BYLAYER
 70
0
 71
3
 72
13
 73
9
 74
0
 42
0.0000001
 43
0.0000001
 44
0.0000000001
 40
0.0
 40
0.0
 40
0.0
 40
0.0
 40
0.2174211567
 40
0.3334538766
 40
0.4548868333
 40
0.7157032747
 40
0.8561332217
 40
1.0
 40
1.0
 40
1.0
 40
1.0
 10
29.3653935873
 20
11.483189832
 30
0.0
 10
29.3855869689
 20
11.4881191098
 30
0.0
 10
29.415633452
 20
11.500053607
 30
0.0
 10
29.4525791585
 20
11.5231273666
 30
0.0
 10
29.4896784199
 20
11.5531600678
 30
0.0
 10
29.5223548388
 20
11.5918923656
 30
0.0
 10
29.5469520146
 20
11.6379992229
 30
0.0
 10
29.5559366111
 20
11.6638253247
 30
0.0
 10
29.5592251722
 20
11.6771806217
 30
0.0
  0
SPLINE
  5
2A3
100
AcDbEntity
  8
0
100
AcDbSpline
 62
7
  6
BYLAYER
 70
0
 71
3
 72
19
 73
15
 74
0
 42
0.0000001
 43
0.0000001
 44
0.0000000001
 40
0.0
 40
0.0
 40
0.0
 40
0.0
 40
0.1249796256
 40
0.2499645939
 40
0.3124692789
 40
0.3749797604
 40
0.4374889439
 40
0.4999999977
 40
0.5625110452
 40
0.6250202262
 40
0.68753072
 40
0.7500354135
 40
0.8750203622
 40
1.0
 40
1.0
 40
1.0
 40
1.0
 10
11.7653935873
 20
28.2117681181
 30
0.0
 10
11.9186635531
 20
27.814740306
 30
0.0
 10
12.1982752493
 20
27.0098624408
 30
0.0
 10
12.4645721832
 20
25.9781450765
 30
0.0
 10
12.6186299261
 20
25.1405850775
 30
0.0
 10
12.7027242398
 20
24.5072977747
 30
0.0
 10
12.753990025
 20
23.8704756532
 30
0.0
 10
12.7710471906
 20
23.2318083089
 30
0.0
 10
12.7539913716
 20
22.5931409079
 30
0.0
 10
12.7027246467
 20
21.9563188161
 30
0.0
 10
12.6186288718
 20
21.3230316601
 30
0.0
 10
12.4645715599
 20
20.4854716244
 30
0.0
 10
12.198276868
 20
19.4537536099
 30
0.0
 10
11.918663568
 20
18.6488762904
 30
0.0
 10
11.7653935873
 20
18.2518484397
 30
0.0
  0
ENDSEC
  0
SECTION
  2
OBJECTS
  0
DICTIONARY
  5
C
100
AcDbDictionary
280
0
281
1
  3
ACAD_GROUP
350
D
  3
ACAD_MLINESTYLE
350
17
  3
ACAD_LAYOUT
350
1A
  3
ACAD_PLOTSETTINGS
350
19
  3
ACAD_PLOTSTYLENAME
350
E
  0
DICTIONARY
  5
D
102
{ACAD_REACTORS
330
C
102
}
100
AcDbDictionary
280
0
281
1
  0
ACDBDICTIONARYWDFLT
  5
E
102
{ACAD_REACTORS
330
C
102
}
100
AcDbDictionary
281
1
  3
Normal
350
F
100
AcDbDictionaryWithDefault
340
F
  0
DICTIONARY
  5
17
102
{ACAD_REACTORS
330
C
102
}
100
AcDbDictionary
280
0
281
1
  3
Standard
350
18
  0
DICTIONARY
  5
19
102
{ACAD_REACTORS
330
C
102
}
100
AcDbDictionary
281
1
  0
DICTIONARY
  5
1A
102
{ACAD_REACTORS
330
C
102
}
100
AcDbDictionary
281
1
  3
Model
350
2A4
  3
Layout1
350
2A5
  0
ACDBPLACEHOLDER
  5
F
102
{ACAD_REACTORS
330
E
102
}
  0
MLINESTYLE
  5
18
102
{ACAD_REACTORS
330
17
102
}
100
AcDbMlineStyle
  2
STANDARD
 70
0
  3

 62
256
 51
90.0
 52
90.0
 71
2
 49
0.5
 62
256
  6
BYLAYER
 49
-0.5
 62
256
  6
BYLAYER
  0
LAYOUT
  5
2A4
102
{ACAD_REACTORS
330
1A
102
}
100
AcDbPlotSettings
  1

  2
none_device
  4

  6

 40
0.0
 41
0.0
 42
0.0
 43
0.0
 44
210.0
 45
297.0
 46
0.0
 47
0.0
 48
0.0
 49
0.0
140
0.0
141
0.0
142
1.0
143
1.0
 70
1024
 72
1
 73
0
 74
0
  7

 75
0
147
1.0
148
0.0
149
0.0
100
AcDbLayout
  1
Model
 70
0
 71
0
 10
0.0
 20
0.0
 11
210.0
 21
297.0
 12
0.0
 22
0.0
 32
0.0
 14
0.0
 24
0.0
 34
0.0
 15
0.0
 25
0.0
 35
0.0
146
0.0
 13
0.0
 23
0.0
 33
0.0
 16
1.0
 26
0.0
 36
0.0
 17
0.0
 27
1.0
 37
0.0
 76
0
330
210
345
0
346
0
  0
LAYOUT
  5
2A5
102
{ACAD_REACTORS
330
1A
102
}
100
AcDbPlotSettings
  1

  2
none_device
  4

  6

 40
0.0
 41
0.0
 42
0.0
 43
0.0
 44
210.0
 45
297.0
 46
0.0
 47
0.0
 48
0.0
 49
0.0
140
0.0
141
0.0
142
1.0
143
1.0
 70
0
 72
1
 73
0
 74
0
  7

 75
0
147
1.0
148
0.0
149
0.0
100
AcDbLayout
  1
Layout1
 70
0
 71
1
 10
0.0
 20
0.0
 11
210.0
 21
297.0
 12
0.0
 22
0.0
 32
0.0
 14
0.0
 24
0.0
 34
0.0
 15
0.0
 25
0.0
 35
0.0
146
0.0
 13
0.0
 23
0.0
 33
0.0
 16
1.0
 26
0.0
 36
0.0
 17
0.0
 27
1.0
 37
0.0
 76
0
330
211
345
0
346
0
  0
ENDSEC
  0
EOF
