999
DXF file: C:\Users\sesa63760\Dev\_Creo\CAD\MCADID0004742_3D-CAD\drw0001_3.dxf
999
Pro/ENGINEER 2019471 by Parametric Technology Corporation
  0
SECTION
  2
HEADER
  9
$ACADVER
  1
AC1024
  9
$DWGCODEPAGE
  3
ANSI_1252
  9
$EXTMAX
 10
38.3011073536
 20
54.1687089716
 30
0.0
  9
$EXTMIN
 10
0.0
 20
0.0
 30
0.0
  9
$LIMMIN
 10
0.0
 20
0.0
  9
$LIMMAX
 10
38.3011073536
 20
54.1687089716
  9
$VIEWCTR
 10
19.1505536768
 20
27.0843544858
  9
$VIEWSIZE
 40
54.1687089716
  9
$CLAYER
  8
0
  9
$LTSCALE
 40
3.5309973256
  9
$CELTYPE
  6
BYLAYER
  9
$DIMSCALE
 40
1.0
  9
$DIMASZ
 40
0.4559655637
  9
$DIMEXO
 40
1.0
  9
$DIMDLI
 40
2.4395981522
  9
$DIMEXE
 40
1.0
  9
$DIMCEN
 40
0.5777995624
  9
$DIMLFAC
 40
1.0
  9
$DIMBLK
  1
_FILLED
  9
$DIMALT
 70
0
  9
$DIMALTF
 40
0.0393700787
  9
$DIMTXT
 40
0.6383517892
  9
$DIMTOL
 70
1
  9
$DIMLIM
 70
0
  9
$DIMTFAC
 40
1.0
  9
$DIMTP
 40
0.01
  9
$DIMTM
 40
0.01
  9
$DIMGAP
 40
0.625
  9
$DIMDSEP
 70
46
  9
$AUNITS
 70
0
  9
$PDMODE
 70
3
  9
$PDSIZE
 40
0.3125
  9
$HANDSEED
  5
280
  9
$TILEMODE
 70
1
  9
$MEASUREMENT
 70
1
  9
$INSUNITS
 70
4
  0
ENDSEC
  0
SECTION
  2
CLASSES
  0
CLASS
  1
ACDBDICTIONARYWDFLT
  2
AcDbDictionaryWithDefault
  3
AutoCAD 2000
 90
0
 91
1
280
0
281
0
  0
CLASS
  1
ACDBPLACEHOLDER
  2
AcDbPlaceHolder
  3
AutoCAD 2000
 90
0
 91
1
280
0
281
0
  0
CLASS
  1
LAYOUT
  2
AcDbLayout
  3
AutoCAD 2000
 90
0
 91
0
280
0
281
0
  0
ENDSEC
  0
SECTION
  2
TABLES
  0
TABLE
  2
VPORT
  5
8
100
AcDbSymbolTable
 70
2
  0
VPORT
  5
1F4
100
AcDbSymbolTableRecord
100
AcDbViewportTableRecord
  2
*ACTIVE
 70
0
 10
0.0
 20
0.0
 11
1.0
 21
1.0
 12
19.1505536768
 22
27.0843544858
 13
0.0
 23
0.0
 14
1.0
 24
1.0
 15
0.0
 25
0.0
 16
0.0
 26
0.0
 36
1.0
 17
0.0
 27
0.0
 37
0.0
 40
54.1687089716
 41
0.7070707071
 42
50.0
 43
0.0
 44
0.0
 50
0.0
 51
0.0
 71
0
 72
100
 73
1
 74
1
 75
0
 76
0
 77
0
 78
0
  0
ENDTAB
  0
TABLE
  2
LTYPE
  5
5
100
AcDbSymbolTable
 70
6
  0
LTYPE
  5
14
100
AcDbSymbolTableRecord
100
AcDbLinetypeTableRecord
  2
BYBLOCK
 70
0
  3

 72
65
 73
0
 40
0.0
  0
LTYPE
  5
15
100
AcDbSymbolTableRecord
100
AcDbLinetypeTableRecord
  2
BYLAYER
 70
0
  3

 72
65
 73
0
 40
0.0
  0
LTYPE
  5
16
100
AcDbSymbolTableRecord
100
AcDbLinetypeTableRecord
  2
CONTINUOUS
 70
64
  3
Solid line
 72
65
 73
0
 40
0.0
  0
LTYPE
  5
1F5
100
AcDbSymbolTableRecord
100
AcDbLinetypeTableRecord
  2
CENTER
 70
64
  3
____ _ ____ _ ____ _ ____ _ ____ _ ____ _ ____
 72
65
 73
4
 40
0.6
 49
0.375
 74
0
 49
-0.075
 74
0
 49
0.075
 74
0
 49
-0.075
 74
0
  0
LTYPE
  5
1F6
100
AcDbSymbolTableRecord
100
AcDbLinetypeTableRecord
  2
HIDDEN
 70
64
  3
- - - - - - - - - - - - - - - - - - - -
 72
65
 73
2
 40
0.2
 49
0.1
 74
0
 49
-0.1
 74
0
  0
LTYPE
  5
1F7
100
AcDbSymbolTableRecord
100
AcDbLinetypeTableRecord
  2
PHANTOM
 70
64
  3
_____ _ _ _____ _ _ _____ _ _ _____
 72
65
 73
6
 40
0.8
 49
0.45
 74
0
 49
-0.05
 74
0
 49
0.1
 74
0
 49
-0.05
 74
0
 49
0.1
 74
0
 49
-0.05
 74
0
  0
LTYPE
  5
1F8
100
AcDbSymbolTableRecord
100
AcDbLinetypeTableRecord
  2
DOT
 70
64
  3
. . . . . . . . . . . . . . . . . . . .
 72
65
 73
2
 40
0.2
 49
0.1
 74
0
 49
-0.1
 74
0
  0
LTYPE
  5
1F9
100
AcDbSymbolTableRecord
100
AcDbLinetypeTableRecord
  2
DASHED
 70
64
  3
- - - - - - - - - - - - - - - - - - - -
 72
65
 73
2
 40
0.2
 49
0.1
 74
0
 49
-0.1
 74
0
  0
ENDTAB
  0
TABLE
  2
LAYER
  5
2
100
AcDbSymbolTable
 70
36
  0
LAYER
  5
10
100
AcDbSymbolTableRecord
100
AcDbLayerTableRecord
  2
0
 70
0
 62
7
  6
CONTINUOUS
370
-3
390
F
  0
LAYER
  5
1FA
100
AcDbSymbolTableRecord
100
AcDbLayerTableRecord
  2
DEFAULT_1
 70
0
 62
7
  6
CENTER
370
-3
390
F
  0
LAYER
  5
1FB
100
AcDbSymbolTableRecord
100
AcDbLayerTableRecord
  2
DEFAULT_2
 70
0
 62
7
  6
HIDDEN
370
-3
390
F
  0
LAYER
  5
1FC
100
AcDbSymbolTableRecord
100
AcDbLayerTableRecord
  2
DEFAULT_3
 70
0
 62
7
  6
PHANTOM
370
-3
390
F
  0
LAYER
  5
1FD
100
AcDbSymbolTableRecord
100
AcDbLayerTableRecord
  2
00_COMPONENTS
 70
0
 62
7
  6
CONTINUOUS
370
-3
390
F
  0
LAYER
  5
1FE
100
AcDbSymbolTableRecord
100
AcDbLayerTableRecord
  2
01_1_DEFAULT_DATUMS
 70
0
 62
7
  6
CONTINUOUS
370
-3
390
F
  0
LAYER
  5
1FF
100
AcDbSymbolTableRecord
100
AcDbLayerTableRecord
  2
01_PLANES
 70
0
 62
7
  6
CONTINUOUS
370
-3
390
F
  0
LAYER
  5
200
100
AcDbSymbolTableRecord
100
AcDbLayerTableRecord
  2
02_COORD_SYS
 70
0
 62
7
  6
CONTINUOUS
370
-3
390
F
  0
LAYER
  5
201
100
AcDbSymbolTableRecord
100
AcDbLayerTableRecord
  2
03_AXES
 70
0
 62
7
  6
CONTINUOUS
370
-3
390
F
  0
LAYER
  5
202
100
AcDbSymbolTableRecord
100
AcDbLayerTableRecord
  2
04_POINTS
 70
0
 62
7
  6
CONTINUOUS
370
-3
390
F
  0
LAYER
  5
203
100
AcDbSymbolTableRecord
100
AcDbLayerTableRecord
  2
05_CURVES
 70
0
 62
7
  6
CONTINUOUS
370
-3
390
F
  0
LAYER
  5
204
100
AcDbSymbolTableRecord
100
AcDbLayerTableRecord
  2
06_SURFS
 70
0
 62
7
  6
CONTINUOUS
370
-3
390
F
  0
LAYER
  5
205
100
AcDbSymbolTableRecord
100
AcDbLayerTableRecord
  2
07_COSMETICS
 70
0
 62
7
  6
CONTINUOUS
370
-3
390
F
  0
LAYER
  5
206
100
AcDbSymbolTableRecord
100
AcDbLayerTableRecord
  2
10_NOTES
 70
0
 62
7
  6
CONTINUOUS
370
-3
390
F
  0
LAYER
  5
207
100
AcDbSymbolTableRecord
100
AcDbLayerTableRecord
  2
11_NOTES_PUB
 70
0
 62
7
  6
CONTINUOUS
370
-3
390
F
  0
LAYER
  5
208
100
AcDbSymbolTableRecord
100
AcDbLayerTableRecord
  2
13_REF_GTOL
 70
0
 62
7
  6
CONTINUOUS
370
-3
390
F
  0
LAYER
  5
209
100
AcDbSymbolTableRecord
100
AcDbLayerTableRecord
  2
16_MISC
 70
0
 62
7
  6
CONTINUOUS
370
-3
390
F
  0
LAYER
  5
20A
100
AcDbSymbolTableRecord
100
AcDbLayerTableRecord
  2
17_NO_PRINT
 70
0
 62
7
  6
CONTINUOUS
370
-3
390
F
  0
LAYER
  5
20B
100
AcDbSymbolTableRecord
100
AcDbLayerTableRecord
  2
18_DATUM_CAMS_JOINTS
 70
0
 62
7
  6
CONTINUOUS
370
-3
390
F
  0
LAYER
  5
20C
100
AcDbSymbolTableRecord
100
AcDbLayerTableRecord
  2
19_DATUM_FUNCTIONAL
 70
0
 62
7
  6
CONTINUOUS
370
-3
390
F
  0
LAYER
  5
20D
100
AcDbSymbolTableRecord
100
AcDbLayerTableRecord
  2
20_DATUM_KINEMATIC_SCHEME
 70
0
 62
7
  6
CONTINUOUS
370
-3
390
F
  0
ENDTAB
  0
TABLE
  2
STYLE
  5
3
100
AcDbSymbolTable
 70
1
  0
STYLE
  5
11
100
AcDbSymbolTableRecord
100
AcDbTextStyleTableRecord
  2
STANDARD
 70
0
 40
0.0
 41
1.0
 50
0.0
 71
0
 42
0.2
  3
ARIAL.TTF
  4

  0
STYLE
  5
20E
100
AcDbSymbolTableRecord
100
AcDbTextStyleTableRecord
  2
TEXTSTYLE_1
 70
0
 40
0.0
 41
0.8
 50
0.0
 71
0
 42
0.2
  3
gdt
  4

  0
ENDTAB
  0
TABLE
  2
VIEW
  5
6
100
AcDbSymbolTable
 70
0
  0
ENDTAB
  0
TABLE
  2
UCS
  5
7
100
AcDbSymbolTable
 70
0
  0
ENDTAB
  0
TABLE
  2
APPID
  5
9
100
AcDbSymbolTable
 70
1
  0
APPID
  5
20F
100
AcDbSymbolTableRecord
100
AcDbRegAppTableRecord
  2
ACAD
 70
0
  0
ENDTAB
  0
TABLE
  2
BLOCK_RECORD
  5
1
100
AcDbSymbolTable
 70
0
  0
BLOCK_RECORD
  5
210
100
AcDbSymbolTableRecord
100
AcDbBlockTableRecord
  2
*Model_Space
  0
BLOCK_RECORD
  5
211
100
AcDbSymbolTableRecord
100
AcDbBlockTableRecord
  2
*Paper_Space
  0
BLOCK_RECORD
  5
212
100
AcDbSymbolTableRecord
100
AcDbBlockTableRecord
  2
_FILLED
  0
ENDTAB
  0
TABLE
  2
DIMSTYLE
  5
A
100
AcDbSymbolTable
 70
1
100
AcDbDimStyleTable
 71
0
  0
DIMSTYLE
105
213
100
AcDbSymbolTableRecord
100
AcDbDimStyleTableRecord
  2
STANDARD
 70
0
  3

  4

 40
1.0
 41
0.4559655637
 42
1.0
 43
0.38
 44
1.0
 45
0.0
 46
0.0
 47
0.01
 48
0.01
140
0.6383517892
141
0.09
142
0.0
143
25.4
144
1.0
145
0.0
146
1.0
147
0.625
 71
1
 72
0
 73
0
 74
0
 75
0
 76
0
 77
1
 78
8
 79
2
170
0
171
1
172
0
173
0
174
0
175
0
176
0
177
0
178
0
270
2
179
2
271
2
272
2
273
2
274
2
275
0
280
0
281
0
282
0
283
1
284
8
285
0
286
0
287
3
288
0
340
11
278
46
341
212
342
212
343
212
344
212
  0
ENDTAB
  0
ENDSEC
  0
SECTION
  2
BLOCKS
  0
BLOCK
  5
20
100
AcDbEntity
  8
0
100
AcDbBlockBegin
  2
*Model_Space
 70
0
 10
0.0
 20
0.0
 30
0.0
  3
*Model_Space
  1

  0
ENDBLK
  5
21
100
AcDbEntity
  8
0
100
AcDbBlockEnd
  0
BLOCK
  5
1C
100
AcDbEntity
  8
0
100
AcDbBlockBegin
  2
*Paper_Space
 70
0
 10
0.0
 20
0.0
 30
0.0
  3
*Paper_Space
  1

  0
ENDBLK
  5
1D
100
AcDbEntity
  8
0
100
AcDbBlockEnd
  0
BLOCK
  5
214
100
AcDbEntity
  8
0
100
AcDbBlockBegin
  2
_FILLED
 70
64
 10
0.0
 20
0.0
  3
_FILLED
  1

  0
SOLID
  5
215
100
AcDbEntity
  8
0
  6
BYBLOCK
 62
0
100
AcDbTrace
 10
0.0
 20
0.0
 11
-1.0
 21
0.25
 12
-1.0
 22
-0.25
 13
-1.0
 23
-0.25
  0
ENDBLK
  5
216
100
AcDbEntity
  8
0
  6
BYBLOCK
 62
0
100
AcDbBlockEnd
  0
ENDSEC
  0
SECTION
  2
ENTITIES
  0
LINE
  5
217
100
AcDbEntity
  8
0
100
AcDbLine
 62
7
  6
BYLAYER
 10
12.530971936
 20
19.2169584245
 11
32.5309694317
 21
19.2169584245
  0
LINE
  5
218
100
AcDbEntity
  8
0
100
AcDbLine
 62
7
  6
BYLAYER
 10
33.0309694317
 20
21.7169584245
 11
32.5309694317
 21
21.7169584245
  0
LINE
  5
219
100
AcDbEntity
  8
0
100
AcDbLine
 62
7
  6
BYLAYER
 10
33.0309694317
 20
22.2343477309
 11
34.6309694317
 21
22.2343477309
  0
LINE
  5
21A
100
AcDbEntity
  8
0
100
AcDbLine
 62
7
  6
BYLAYER
 10
34.6309694317
 20
22.2962911514
 11
33.0309694317
 21
22.2962911514
  0
LINE
  5
21B
100
AcDbEntity
  8
0
100
AcDbLine
 62
7
  6
BYLAYER
 10
33.0309694317
 20
22.5119609949
 11
34.6309694317
 21
22.5119609949
  0
LINE
  5
21C
100
AcDbEntity
  8
0
100
AcDbLine
 62
7
  6
BYLAYER
 10
34.6309694317
 20
22.6935699149
 11
33.0309694317
 21
22.6935699149
  0
LINE
  5
21D
100
AcDbEntity
  8
0
100
AcDbLine
 62
7
  6
BYLAYER
 10
33.0309694317
 20
23.1102120584
 11
34.6309694317
 21
23.1102120584
  0
LINE
  5
21E
100
AcDbEntity
  8
0
100
AcDbLine
 62
7
  6
BYLAYER
 10
34.6309694317
 20
23.39911013
 11
33.0309694317
 21
23.39911013
  0
LINE
  5
21F
100
AcDbEntity
  8
0
100
AcDbLine
 62
7
  6
BYLAYER
 10
33.0309694317
 20
23.9459280672
 11
34.8309694317
 21
23.9459280672
  0
LINE
  5
220
100
AcDbEntity
  8
0
100
AcDbLine
 62
7
  6
BYLAYER
 10
33.0309694317
 20
23.9883311001
 11
34.6309694317
 21
23.9883311001
  0
LINE
  5
221
100
AcDbEntity
  8
0
100
AcDbLine
 62
7
  6
BYLAYER
 10
34.6309694317
 20
24.3648303971
 11
33.0309694317
 21
24.3648303971
  0
LINE
  5
222
100
AcDbEntity
  8
0
100
AcDbLine
 62
7
  6
BYLAYER
 10
33.0309694317
 20
24.8045801449
 11
34.8309694317
 21
24.8045801449
  0
LINE
  5
223
100
AcDbEntity
  8
0
100
AcDbLine
 62
7
  6
BYLAYER
 10
34.8309694317
 20
25.0538556421
 11
33.0309694317
 21
25.0538556421
  0
LINE
  5
224
100
AcDbEntity
  8
0
100
AcDbLine
 62
7
  6
BYLAYER
 10
33.0309694317
 20
25.0864757583
 11
34.6309694317
 21
25.0864757583
  0
LINE
  5
225
100
AcDbEntity
  8
0
100
AcDbLine
 62
7
  6
BYLAYER
 10
34.6309694317
 20
25.5249184759
 11
33.0309694317
 21
25.5249184759
  0
LINE
  5
226
100
AcDbEntity
  8
0
100
AcDbLine
 62
7
  6
BYLAYER
 10
33.0309694317
 20
25.8276318157
 11
34.8309694317
 21
25.8276318157
  0
LINE
  5
227
100
AcDbEntity
  8
0
100
AcDbLine
 62
7
  6
BYLAYER
 10
34.8309694317
 20
26.0593456003
 11
33.0309694317
 21
26.0593456003
  0
LINE
  5
228
100
AcDbEntity
  8
0
100
AcDbLine
 62
7
  6
BYLAYER
 10
33.0309694317
 20
26.2008217919
 11
34.8309694317
 21
26.2008217919
  0
LINE
  5
229
100
AcDbEntity
  8
0
100
AcDbLine
 62
7
  6
BYLAYER
 10
33.0309694317
 20
26.3298092895
 11
34.6309694317
 21
26.3298092895
  0
LINE
  5
22A
100
AcDbEntity
  8
0
100
AcDbLine
 62
7
  6
BYLAYER
 10
34.6309694317
 20
26.8003162809
 11
33.0309694317
 21
26.8003162809
  0
LINE
  5
22B
100
AcDbEntity
  8
0
100
AcDbLine
 62
7
  6
BYLAYER
 10
33.0309694317
 20
26.945363799
 11
34.8309694317
 21
26.945363799
  0
LINE
  5
22C
100
AcDbEntity
  8
0
100
AcDbLine
 62
7
  6
BYLAYER
 10
34.8309694317
 20
27.1437249594
 11
33.0309694317
 21
27.1437249594
  0
LINE
  5
22D
100
AcDbEntity
  8
0
100
AcDbLine
 62
7
  6
BYLAYER
 10
33.0309694317
 20
27.2901918906
 11
34.8309694317
 21
27.2901918906
  0
LINE
  5
22E
100
AcDbEntity
  8
0
100
AcDbLine
 62
7
  6
BYLAYER
 10
34.8309694317
 20
27.4885530501
 11
33.0309694317
 21
27.4885530501
  0
LINE
  5
22F
100
AcDbEntity
  8
0
100
AcDbLine
 62
7
  6
BYLAYER
 10
33.0309694317
 20
27.6336005681
 11
34.6309694317
 21
27.6336005681
  0
LINE
  5
230
100
AcDbEntity
  8
0
100
AcDbLine
 62
7
  6
BYLAYER
 10
34.6309694317
 20
28.1041075596
 11
33.0309694317
 21
28.1041075596
  0
LINE
  5
231
100
AcDbEntity
  8
0
100
AcDbLine
 62
7
  6
BYLAYER
 10
34.8309694317
 20
28.2330950586
 11
33.0309694317
 21
28.2330950586
  0
LINE
  5
232
100
AcDbEntity
  8
0
100
AcDbLine
 62
7
  6
BYLAYER
 10
33.0309694317
 20
28.3745712489
 11
34.8309694317
 21
28.3745712489
  0
LINE
  5
233
100
AcDbEntity
  8
0
100
AcDbLine
 62
7
  6
BYLAYER
 10
34.8309694317
 20
28.6062850333
 11
33.0309694317
 21
28.6062850333
  0
LINE
  5
234
100
AcDbEntity
  8
0
100
AcDbLine
 62
7
  6
BYLAYER
 10
33.0309694317
 20
28.9089983731
 11
34.6309694317
 21
28.9089983731
  0
LINE
  5
235
100
AcDbEntity
  8
0
100
AcDbLine
 62
7
  6
BYLAYER
 10
34.6309694317
 20
29.3474410907
 11
33.0309694317
 21
29.3474410907
  0
LINE
  5
236
100
AcDbEntity
  8
0
100
AcDbLine
 62
7
  6
BYLAYER
 10
33.0309694317
 20
29.3800612068
 11
34.8309694317
 21
29.3800612068
  0
LINE
  5
237
100
AcDbEntity
  8
0
100
AcDbLine
 62
7
  6
BYLAYER
 10
34.8309694317
 20
29.6293367041
 11
33.0309694317
 21
29.6293367041
  0
LINE
  5
238
100
AcDbEntity
  8
0
100
AcDbLine
 62
7
  6
BYLAYER
 10
33.0309694317
 20
30.0690864519
 11
34.6309694317
 21
30.0690864519
  0
LINE
  5
239
100
AcDbEntity
  8
0
100
AcDbLine
 62
7
  6
BYLAYER
 10
34.6309694317
 20
30.4455857489
 11
33.0309694317
 21
30.4455857489
  0
LINE
  5
23A
100
AcDbEntity
  8
0
100
AcDbLine
 62
7
  6
BYLAYER
 10
34.8309694317
 20
30.4879887818
 11
33.0309694317
 21
30.4879887818
  0
LINE
  5
23B
100
AcDbEntity
  8
0
100
AcDbLine
 62
7
  6
BYLAYER
 10
33.0309694317
 20
31.034806719
 11
34.6309694317
 21
31.034806719
  0
LINE
  5
23C
100
AcDbEntity
  8
0
100
AcDbLine
 62
7
  6
BYLAYER
 10
34.6309694317
 20
31.3237047906
 11
33.0309694317
 21
31.3237047906
  0
LINE
  5
23D
100
AcDbEntity
  8
0
100
AcDbLine
 62
7
  6
BYLAYER
 10
33.0309694317
 20
31.7403469341
 11
34.6309694317
 21
31.7403469341
  0
LINE
  5
23E
100
AcDbEntity
  8
0
100
AcDbLine
 62
7
  6
BYLAYER
 10
34.6309694317
 20
31.9219558541
 11
33.0309694317
 21
31.9219558541
  0
LINE
  5
23F
100
AcDbEntity
  8
0
100
AcDbLine
 62
7
  6
BYLAYER
 10
33.0309694317
 20
32.1376256976
 11
34.6309694317
 21
32.1376256976
  0
LINE
  5
240
100
AcDbEntity
  8
0
100
AcDbLine
 62
7
  6
BYLAYER
 10
34.6309694317
 20
32.1995691181
 11
33.0309694317
 21
32.1995691181
  0
LINE
  5
241
100
AcDbEntity
  8
0
100
AcDbLine
 62
7
  6
BYLAYER
 10
33.0309694317
 20
32.7169584245
 11
32.5309694317
 21
32.7169584245
  0
LINE
  5
242
100
AcDbEntity
  8
0
100
AcDbLine
 62
7
  6
BYLAYER
 10
32.5309694317
 20
35.2169584245
 11
12.5309694317
 21
35.2169584245
  0
LINE
  5
243
100
AcDbEntity
  8
0
100
AcDbLine
 62
7
  6
BYLAYER
 10
32.5309694317
 20
35.2169584245
 11
32.5309694317
 21
19.2169584245
  0
LINE
  5
244
100
AcDbEntity
  8
0
100
AcDbLine
 62
7
  6
BYLAYER
 10
33.0309694317
 20
32.7169261825
 11
33.0309694317
 21
21.7169906665
  0
LINE
  5
245
100
AcDbEntity
  8
0
100
AcDbLine
 62
7
  6
BYLAYER
 10
34.6309694317
 20
32.1995691181
 11
34.6309694317
 21
32.1376256976
  0
LINE
  5
246
100
AcDbEntity
  8
0
100
AcDbLine
 62
7
  6
BYLAYER
 10
34.6309694317
 20
31.9219558541
 11
34.6309694317
 21
31.7403469341
  0
LINE
  5
247
100
AcDbEntity
  8
0
100
AcDbLine
 62
7
  6
BYLAYER
 10
34.6309694317
 20
31.3237047906
 11
34.6309694317
 21
31.034806719
  0
LINE
  5
248
100
AcDbEntity
  8
0
100
AcDbLine
 62
7
  6
BYLAYER
 10
34.6309694317
 20
30.4455857489
 11
34.6309694317
 21
30.0690864519
  0
LINE
  5
249
100
AcDbEntity
  8
0
100
AcDbLine
 62
7
  6
BYLAYER
 10
34.6309694317
 20
29.3474410907
 11
34.6309694317
 21
28.9089983731
  0
LINE
  5
24A
100
AcDbEntity
  8
0
100
AcDbLine
 62
7
  6
BYLAYER
 10
34.6309694317
 20
28.1041075596
 11
34.6309694317
 21
27.6336005681
  0
LINE
  5
24B
100
AcDbEntity
  8
0
100
AcDbLine
 62
7
  6
BYLAYER
 10
34.6309694317
 20
26.8003162809
 11
34.6309694317
 21
26.3298092895
  0
LINE
  5
24C
100
AcDbEntity
  8
0
100
AcDbLine
 62
7
  6
BYLAYER
 10
34.6309694317
 20
25.5249184759
 11
34.6309694317
 21
25.0864757583
  0
LINE
  5
24D
100
AcDbEntity
  8
0
100
AcDbLine
 62
7
  6
BYLAYER
 10
34.6309694317
 20
24.3648303971
 11
34.6309694317
 21
23.9883311001
  0
LINE
  5
24E
100
AcDbEntity
  8
0
100
AcDbLine
 62
7
  6
BYLAYER
 10
34.6309694317
 20
23.39911013
 11
34.6309694317
 21
23.1102120584
  0
LINE
  5
24F
100
AcDbEntity
  8
0
100
AcDbLine
 62
7
  6
BYLAYER
 10
34.6309694317
 20
22.6935699149
 11
34.6309694317
 21
22.5119609949
  0
LINE
  5
250
100
AcDbEntity
  8
0
100
AcDbLine
 62
7
  6
BYLAYER
 10
34.6309694317
 20
22.2962911514
 11
34.6309694317
 21
22.2343477309
  0
LINE
  5
251
100
AcDbEntity
  8
0
100
AcDbLine
 62
7
  6
BYLAYER
 10
34.8309694317
 20
32.0025865385
 11
34.8309694317
 21
28.1217562937
  0
LINE
  5
252
100
AcDbEntity
  8
0
100
AcDbLine
 62
7
  6
BYLAYER
 10
34.8309694317
 20
28.0970521366
 11
34.8309694317
 21
26.3368647124
  0
LINE
  5
253
100
AcDbEntity
  8
0
100
AcDbLine
 62
7
  6
BYLAYER
 10
34.8309694317
 20
26.3121603725
 11
34.8309694317
 21
25.1455828006
  0
LINE
  5
254
100
AcDbEntity
  8
0
100
AcDbLine
 62
7
  6
BYLAYER
 10
34.8309694317
 20
25.1381359395
 11
34.8309694317
 21
22.4983320293
  0
CIRCLE
  5
255
100
AcDbEntity
  8
0
100
AcDbCircle
 62
7
  6
BYLAYER
 10
12.5309694317
 20
27.2169584245
 40
8.0
  0
CIRCLE
  5
256
100
AcDbEntity
  8
0
100
AcDbCircle
 62
7
  6
BYLAYER
 10
12.5309694317
 20
27.2169584245
 40
6.7
  0
CIRCLE
  5
257
100
AcDbEntity
  8
0
100
AcDbCircle
 62
7
  6
BYLAYER
 10
12.5309694317
 20
27.2169584245
 40
6.35
  0
CIRCLE
  5
258
100
AcDbEntity
  8
0
100
AcDbCircle
 62
7
  6
BYLAYER
 10
12.5309694317
 20
27.2169584245
 40
5.55
  0
ARC
  5
259
100
AcDbEntity
  8
0
100
AcDbCircle
 62
7
  6
BYLAYER
 10
12.5309694317
 20
27.2169584245
 40
5.475
100
AcDbArc
 50
49.7955447969
 51
130.0929257343
  0
ARC
  5
25A
100
AcDbEntity
  8
0
100
AcDbCircle
 62
7
  6
BYLAYER
 10
12.5309694317
 20
27.2169584245
 40
5.475
100
AcDbArc
 50
131.4837548554
 51
228.5419602248
  0
ARC
  5
25B
100
AcDbEntity
  8
0
100
AcDbCircle
 62
7
  6
BYLAYER
 10
12.5309694317
 20
27.2169584245
 40
5.475
100
AcDbArc
 50
229.7955447969
 51
310.0929257343
  0
ARC
  5
25C
100
AcDbEntity
  8
0
100
AcDbCircle
 62
7
  6
BYLAYER
 10
12.5309694317
 20
27.2169584245
 40
5.475
100
AcDbArc
 50
311.4837548554
 51
48.5419602248
  0
CIRCLE
  5
25D
100
AcDbEntity
  8
0
100
AcDbCircle
 62
7
  6
BYLAYER
 10
12.5309694317
 20
27.2169584245
 40
4.7331536978
  0
CIRCLE
  5
25E
100
AcDbEntity
  8
0
100
AcDbCircle
 62
7
  6
BYLAYER
 10
12.5309694317
 20
27.2169584245
 40
4.4101826839
  0
CIRCLE
  5
25F
100
AcDbEntity
  8
0
100
AcDbCircle
 62
7
  6
BYLAYER
 10
12.5309694317
 20
27.2169584245
 40
3.3898170838
  0
CIRCLE
  5
260
100
AcDbEntity
  8
0
100
AcDbCircle
 62
7
  6
BYLAYER
 10
12.5309694317
 20
27.2169584245
 40
3.0668459195
  0
CIRCLE
  5
261
100
AcDbEntity
  8
0
100
AcDbCircle
 62
7
  6
BYLAYER
 10
12.5309694317
 20
27.2169584245
 40
1.815
  0
CIRCLE
  5
262
100
AcDbEntity
  8
0
100
AcDbCircle
 62
7
  6
BYLAYER
 10
12.5309694317
 20
27.2169584245
 40
1.75
  0
CIRCLE
  5
263
100
AcDbEntity
  8
0
100
AcDbCircle
 62
7
  6
BYLAYER
 10
12.5309694317
 20
27.2169584245
 40
1.2154698338
  0
CIRCLE
  5
264
100
AcDbEntity
  8
0
100
AcDbCircle
 62
7
  6
BYLAYER
 10
12.5309694317
 20
27.2169584245
 40
1.0422649247
  0
CIRCLE
  5
265
100
AcDbEntity
  8
0
100
AcDbCircle
 62
7
  6
BYLAYER
 10
12.5309694317
 20
27.2169584245
 40
0.75
  0
SPLINE
  5
266
100
AcDbEntity
  8
0
100
AcDbSpline
 62
7
  6
BYLAYER
 70
0
 71
3
 72
11
 73
7
 74
0
 42
0.0000001
 43
0.0000001
 44
0.0000000001
 40
0.0
 40
0.0
 40
0.0
 40
0.0
 40
0.2529849483
 40
0.5041878768
 40
0.7529305806
 40
1.0
 40
1.0
 40
1.0
 40
1.0
 10
34.6309694317
 20
22.2343477309
 30
0.0
 10
34.657094514
 20
22.2343477309
 30
0.0
 10
34.7097295386
 20
22.244619377
 30
0.0
 10
34.7761962557
 20
22.2885872432
 30
0.0
 10
34.8206103205
 20
22.3540437375
 30
0.0
 10
34.8309694317
 20
22.4058161092
 30
0.0
 10
34.8309694317
 20
22.4313303106
 30
0.0
  0
SPLINE
  5
267
100
AcDbEntity
  8
0
100
AcDbSpline
 62
7
  6
BYLAYER
 70
0
 71
3
 72
13
 73
9
 74
0
 42
0.0000001
 43
0.0000001
 44
0.0000000001
 40
0.0
 40
0.0
 40
0.0
 40
0.0
 40
0.2635414332
 40
0.5188559489
 40
0.6426731575
 40
0.7636253193
 40
0.8825151437
 40
1.0
 40
1.0
 40
1.0
 40
1.0
 10
34.6309694317
 20
22.5119609949
 30
0.0
 10
34.6570072516
 20
22.5119609949
 30
0.0
 10
34.708726571
 20
22.5209495054
 30
0.0
 10
34.7647360218
 20
22.5540887752
 30
0.0
 10
34.798369688
 20
22.5906814503
 30
0.0
 10
34.8169631761
 20
22.6217425722
 30
0.0
 10
34.828372786
 20
22.655424156
 30
0.0
 10
34.8309694317
 20
22.6788537683
 30
0.0
 10
34.8309694317
 20
22.6904612392
 30
0.0
  0
SPLINE
  5
268
100
AcDbEntity
  8
0
100
AcDbSpline
 62
7
  6
BYLAYER
 70
0
 71
3
 72
13
 73
9
 74
0
 42
0.0000001
 43
0.0000001
 44
0.0000000001
 40
0.0
 40
0.0
 40
0.0
 40
0.0
 40
0.2838799929
 40
0.5485235363
 40
0.6705631607
 40
0.7853190388
 40
0.8943780386
 40
1.0
 40
1.0
 40
1.0
 40
1.0
 10
34.6309694317
 20
23.1102120584
 30
0.0
 10
34.6568809712
 20
23.1102120584
 30
0.0
 10
34.7072424589
 20
23.1173254782
 30
0.0
 10
34.7636097125
 20
23.1442646557
 30
0.0
 10
34.7979493191
 20
23.1749494452
 30
0.0
 10
34.816708139
 20
23.2006797655
 30
0.0
 10
34.8283081645
 20
23.2287410417
 30
0.0
 10
34.8309694317
 20
23.2484246798
 30
0.0
 10
34.8309694317
 20
23.2580654706
 30
0.0
  0
SPLINE
  5
269
100
AcDbEntity
  8
0
100
AcDbSpline
 62
7
  6
BYLAYER
 70
0
 71
3
 72
15
 73
11
 74
0
 42
0.0000001
 43
0.0000001
 44
0.0000000001
 40
0.0
 40
0.0
 40
0.0
 40
0.0
 40
0.1592906349
 40
0.314372953
 40
0.4606629413
 40
0.5949973818
 40
0.7152589167
 40
0.8209663235
 40
0.9142778552
 40
1.0
 40
1.0
 40
1.0
 40
1.0
 10
34.6309694317
 20
23.9883311001
 30
0.0
 10
34.6440511502
 20
23.9883311001
 30
0.0
 10
34.6698898377
 20
23.9896905241
 30
0.0
 10
34.7073164415
 20
23.9956983458
 30
0.0
 10
34.7418350811
 20
24.0054708722
 30
0.0
 10
34.7721411662
 20
24.0186240643
 30
0.0
 10
34.797196001
 20
24.034656955
 30
0.0
 10
34.81612681
 20
24.0531452012
 30
0.0
 10
34.8281198207
 20
24.0736164685
 30
0.0
 10
34.8309694317
 20
24.0884217968
 30
0.0
 10
34.8309694317
 20
24.0954617145
 30
0.0
  0
SPLINE
  5
26A
100
AcDbEntity
  8
0
100
AcDbSpline
 62
7
  6
BYLAYER
 70
0
 71
3
 72
17
 73
13
 74
0
 42
0.0000001
 43
0.0000001
 44
0.0000000001
 40
0.0
 40
0.0
 40
0.0
 40
0.0
 40
0.1792755284
 40
0.3524043822
 40
0.5127648239
 40
0.655234585
 40
0.7757157837
 40
0.8716930304
 40
0.9106508513
 40
0.9441614041
 40
0.973346618
 40
1.0
 40
1.0
 40
1.0
 40
1.0
 10
34.6309694317
 20
25.0864757583
 30
0.0
 10
34.6440383485
 20
25.0864757583
 30
0.0
 10
34.6697343138
 20
25.0872190608
 30
0.0
 10
34.7069930289
 20
25.0905045689
 30
0.0
 10
34.7413057447
 20
25.0958349987
 30
0.0
 10
34.7713751526
 20
25.1029767905
 30
0.0
 10
34.7961200392
 20
25.1116052154
 30
0.0
 10
34.812749529
 20
25.1203031196
 30
0.0
 10
34.822324147
 20
25.128062797
 30
0.0
 10
34.8272078054
 20
25.1337036858
 30
0.0
 10
34.8302510215
 20
25.1395463246
 30
0.0
 10
34.8309694317
 20
25.1436398091
 30
0.0
 10
34.8309694317
 20
25.1455828006
 30
0.0
  0
SPLINE
  5
26B
100
AcDbEntity
  8
0
100
AcDbSpline
 62
7
  6
BYLAYER
 70
0
 71
3
 72
20
 73
16
 74
0
 42
0.0000001
 43
0.0000001
 44
0.0000000001
 40
0.0
 40
0.0
 40
0.0
 40
0.0
 40
0.1954595668
 40
0.3835484777
 40
0.5563260701
 40
0.707359925
 40
0.7729527263
 40
0.8310493847
 40
0.8811121284
 40
0.9227500207
 40
0.9555878887
 40
0.979343034
 40
0.9939525145
 40
0.9979125823
 40
1.0
 40
1.0
 40
1.0
 40
1.0
 10
34.6309694317
 20
26.3298092895
 30
0.0
 10
34.6440328222
 20
26.3298092895
 30
0.0
 10
34.6696670801
 20
26.3298977136
 30
0.0
 10
34.7068469896
 20
26.3302881482
 30
0.0
 10
34.741054017
 20
26.3309214254
 30
0.0
 10
34.7670697696
 20
26.3316547259
 30
0.0
 10
34.78541735
 20
26.3323642748
 30
0.0
 10
34.7970167337
 20
26.3329110389
 30
0.0
 10
34.8070131841
 20
26.333493171
 30
0.0
 10
34.8153106483
 20
26.3340980414
 30
0.0
 10
34.8218580349
 20
26.3347272181
 30
0.0
 10
34.8265518585
 20
26.3353384513
 30
0.0
 10
34.829371928
 20
26.3359308136
 30
0.0
 10
34.8306269141
 20
26.3363969069
 30
0.0
 10
34.8309694317
 20
26.3367252014
 30
0.0
 10
34.8309694317
 20
26.3368647124
 30
0.0
  0
SPLINE
  5
26C
100
AcDbEntity
  8
0
100
AcDbSpline
 62
7
  6
BYLAYER
 70
0
 71
3
 72
20
 73
16
 74
0
 42
0.0000001
 43
0.0000001
 44
0.0000000001
 40
0.0
 40
0.0
 40
0.0
 40
0.0
 40
0.0020872546
 40
0.0060466977
 40
0.0206543106
 40
0.0444079867
 40
0.0772448011
 40
0.1188807576
 40
0.168942426
 40
0.2270398711
 40
0.2926330817
 40
0.4436692162
 40
0.6164511344
 40
0.8045412392
 40
1.0
 40
1.0
 40
1.0
 40
1.0
 10
34.8309694317
 20
28.0970521366
 30
0.0
 10
34.8309694317
 20
28.0971916367
 30
0.0
 10
34.8306270191
 20
28.0975199275
 30
0.0
 10
34.8293721834
 20
28.0979860364
 30
0.0
 10
34.826552411
 20
28.098578369
 30
0.0
 10
34.8218588586
 20
28.0991895579
 30
0.0
 10
34.8153117738
 20
28.0998186911
 30
0.0
 10
34.8070145796
 20
28.1004235833
 30
0.0
 10
34.7970182779
 20
28.1010057293
 30
0.0
 10
34.7854188839
 20
28.1015524955
 30
0.0
 10
34.7670710697
 20
28.1022620862
 30
0.0
 10
34.741054844
 20
28.1029954067
 30
0.0
 10
34.7068472896
 20
28.1036286933
 30
0.0
 10
34.6696670588
 20
28.1040191406
 30
0.0
 10
34.6440327705
 20
28.1041075596
 30
0.0
 10
34.6309694317
 20
28.1041075596
 30
0.0
  0
SPLINE
  5
26D
100
AcDbEntity
  8
0
100
AcDbSpline
 62
7
  6
BYLAYER
 70
0
 71
3
 72
17
 73
13
 74
0
 42
0.0000001
 43
0.0000001
 44
0.0000000001
 40
0.0
 40
0.0
 40
0.0
 40
0.0
 40
0.0266528047
 40
0.0558362885
 40
0.089344911
 40
0.1283013078
 40
0.2242762823
 40
0.3447589521
 40
0.487230968
 40
0.6475953792
 40
0.8207252812
 40
1.0
 40
1.0
 40
1.0
 40
1.0
 10
34.8309694317
 20
29.2883340484
 30
0.0
 10
34.8309694317
 20
29.2902769989
 30
0.0
 10
34.8302512376
 20
29.294370326
 30
0.0
 10
34.8272084232
 20
29.3002128513
 30
0.0
 10
34.8223249691
 20
29.3058534542
 30
0.0
 10
34.8127505952
 20
29.3136127633
 30
0.0
 10
34.796121536
 20
29.3223111001
 30
0.0
 10
34.7713765112
 20
29.3309396148
 30
0.0
 10
34.7413066014
 20
29.3380817388
 30
0.0
 10
34.7069933268
 20
29.3434122063
 30
0.0
 10
34.6697342967
 20
29.3466978347
 30
0.0
 10
34.6440382966
 20
29.3474410907
 30
0.0
 10
34.6309694317
 20
29.3474410907
 30
0.0
  0
SPLINE
  5
26E
100
AcDbEntity
  8
0
100
AcDbSpline
 62
7
  6
BYLAYER
 70
0
 71
3
 72
15
 73
11
 74
0
 42
0.0000001
 43
0.0000001
 44
0.0000000001
 40
0.0
 40
0.0
 40
0.0
 40
0.0
 40
0.0857193605
 40
0.179026469
 40
0.2847325638
 40
0.4049961657
 40
0.5393330538
 40
0.685626728
 40
0.8407100518
 40
1.0
 40
1.0
 40
1.0
 40
1.0
 10
34.8309694317
 20
30.3384551345
 30
0.0
 10
34.8309694317
 20
30.3454948257
 30
0.0
 10
34.8281206513
 20
30.3602997223
 30
0.0
 10
34.8161275056
 20
30.3807701628
 30
0.0
 10
34.7971975847
 20
30.3992587638
 30
0.0
 10
34.7721425581
 20
30.4152919896
 30
0.0
 10
34.7418359863
 20
30.4284457443
 30
0.0
 10
34.7073167391
 20
30.4382183745
 30
0.0
 10
34.6698898285
 20
30.4442264061
 30
0.0
 10
34.6440510978
 20
30.4455857489
 30
0.0
 10
34.6309694317
 20
30.4455857489
 30
0.0
  0
SPLINE
  5
26F
100
AcDbEntity
  8
0
100
AcDbSpline
 62
7
  6
BYLAYER
 70
0
 71
3
 72
13
 73
9
 74
0
 42
0.0000001
 43
0.0000001
 44
0.0000000001
 40
0.0
 40
0.0
 40
0.0
 40
0.0
 40
0.1056187544
 40
0.2146725784
 40
0.3294278001
 40
0.4514700254
 40
0.7161196396
 40
1.0
 40
1.0
 40
1.0
 40
1.0
 10
34.8309694317
 20
31.1758513784
 30
0.0
 10
34.8309694317
 20
31.1854918766
 30
0.0
 10
34.8283090039
 20
31.2051748731
 30
0.0
 10
34.8167087552
 20
31.2332351806
 30
0.0
 10
34.7979509164
 20
31.2589657556
 30
0.0
 10
34.7636109879
 20
31.2896514109
 30
0.0
 10
34.7072430896
 20
31.3165912282
 30
0.0
 10
34.656881005
 20
31.3237047906
 30
0.0
 10
34.6309694317
 20
31.3237047906
 30
0.0
  0
SPLINE
  5
270
100
AcDbEntity
  8
0
100
AcDbSpline
 62
7
  6
BYLAYER
 70
0
 71
3
 72
13
 73
9
 74
0
 42
0.0000001
 43
0.0000001
 44
0.0000000001
 40
0.0
 40
0.0
 40
0.0
 40
0.0
 40
0.1174813762
 40
0.2363655525
 40
0.3573174271
 40
0.4811375841
 40
0.7364581862
 40
1.0
 40
1.0
 40
1.0
 40
1.0
 10
34.8309694317
 20
31.7434556098
 30
0.0
 10
34.8309694317
 20
31.7550627359
 30
0.0
 10
34.8283736317
 20
31.7784915512
 30
0.0
 10
34.8169637529
 20
31.8121720629
 30
0.0
 10
34.7983712864
 20
31.8432333698
 30
0.0
 10
34.7647373569
 20
31.879827071
 30
0.0
 10
34.7087272474
 20
31.9129671559
 30
0.0
 10
34.657007287
 20
31.9219558541
 30
0.0
 10
34.6309694317
 20
31.9219558541
 30
0.0
  0
SPLINE
  5
271
100
AcDbEntity
  8
0
100
AcDbSpline
 62
7
  6
BYLAYER
 70
0
 71
3
 72
11
 73
7
 74
0
 42
0.0000001
 43
0.0000001
 44
0.0000000001
 40
0.0
 40
0.0
 40
0.0
 40
0.0
 40
0.2470598091
 40
0.4958055254
 40
0.7470146201
 40
1.0
 40
1.0
 40
1.0
 40
1.0
 10
34.8309694317
 20
32.0025865385
 30
0.0
 10
34.8309694317
 20
32.0280997395
 30
0.0
 10
34.8206107213
 20
32.0798713058
 30
0.0
 10
34.7761976593
 20
32.1453284554
 30
0.0
 10
34.7097302179
 20
32.1892972388
 30
0.0
 10
34.6570945505
 20
32.1995691181
 30
0.0
 10
34.6309694317
 20
32.1995691181
 30
0.0
  0
SPLINE
  5
272
100
AcDbEntity
  8
0
100
AcDbSpline
 62
7
  6
BYLAYER
 70
0
 71
3
 72
11
 73
7
 74
0
 42
0.0000001
 43
0.0000001
 44
0.0000000001
 40
0.0
 40
0.0
 40
0.0
 40
0.0
 40
0.2499782149
 40
0.4999460329
 40
0.7499530723
 40
1.0
 40
1.0
 40
1.0
 40
1.0
 10
34.8309694317
 20
22.4983320293
 30
0.0
 10
34.8309694317
 20
22.4721887714
 30
0.0
 10
34.8207017078
 20
22.4193397625
 30
0.0
 10
34.7764822947
 20
22.3522137975
 30
0.0
 10
34.7100077344
 20
22.3069208441
 30
0.0
 10
34.6571198757
 20
22.2962911514
 30
0.0
 10
34.6309694317
 20
22.2962911514
 30
0.0
  0
SPLINE
  5
273
100
AcDbEntity
  8
0
100
AcDbSpline
 62
7
  6
BYLAYER
 70
0
 71
3
 72
11
 73
7
 74
0
 42
0.0000001
 43
0.0000001
 44
0.0000000001
 40
0.0
 40
0.0
 40
0.0
 40
0.0
 40
0.2448972199
 40
0.4927502955
 40
0.7448554635
 40
1.0
 40
1.0
 40
1.0
 40
1.0
 10
34.8309694317
 20
22.8869003389
 30
0.0
 10
34.8309694317
 20
22.8618416596
 30
0.0
 10
34.8205403985
 20
22.8108460064
 30
0.0
 10
34.7759865901
 20
22.7466018653
 30
0.0
 10
34.7095323449
 20
22.7035879708
 30
0.0
 10
34.6570766498
 20
22.6935699149
 30
0.0
 10
34.6309694317
 20
22.6935699149
 30
0.0
  0
SPLINE
  5
274
100
AcDbEntity
  8
0
100
AcDbSpline
 62
7
  6
BYLAYER
 70
0
 71
3
 72
13
 73
9
 74
0
 42
0.0000001
 43
0.0000001
 44
0.0000000001
 40
0.0
 40
0.0
 40
0.0
 40
0.0
 40
0.1149507473
 40
0.2317140037
 40
0.3512949946
 40
0.4746835799
 40
0.7319783402
 40
1.0
 40
1.0
 40
1.0
 40
1.0
 10
34.8309694317
 20
23.5705549513
 30
0.0
 10
34.8309694317
 20
23.5594010244
 30
0.0
 10
34.828361848
 20
23.5368386773
 30
0.0
 10
34.816914481
 20
23.5044492047
 30
0.0
 10
34.7982847929
 20
23.4746083662
 30
0.0
 10
34.7644889332
 20
23.4393555548
 30
0.0
 10
34.7083678226
 20
23.4076459876
 30
0.0
 10
34.6569761702
 20
23.39911013
 30
0.0
 10
34.6309694317
 20
23.39911013
 30
0.0
  0
SPLINE
  5
275
100
AcDbEntity
  8
0
100
AcDbSpline
 62
7
  6
BYLAYER
 70
0
 71
3
 72
13
 73
9
 74
0
 42
0.0000001
 43
0.0000001
 44
0.0000000001
 40
0.0
 40
0.0
 40
0.0
 40
0.0
 40
0.1012296878
 40
0.2067248356
 40
0.3193412073
 40
0.4408803601
 40
0.7090099601
 40
1.0
 40
1.0
 40
1.0
 40
1.0
 10
34.8309694317
 20
24.5027059345
 30
0.0
 10
34.8309694317
 20
24.4937043716
 30
0.0
 10
34.8282778381
 20
24.4752290854
 30
0.0
 10
34.8165977897
 20
24.4490094221
 30
0.0
 10
34.7977873736
 20
24.4250339357
 30
0.0
 10
34.7632226461
 20
24.3963204145
 30
0.0
 10
34.7068076982
 20
24.3713815174
 30
0.0
 10
34.6568448957
 20
24.3648303971
 30
0.0
 10
34.6309694317
 20
24.3648303971
 30
0.0
  0
SPLINE
  5
276
100
AcDbEntity
  8
0
100
AcDbSpline
 62
7
  6
BYLAYER
 70
0
 71
3
 72
15
 73
11
 74
0
 42
0.0000001
 43
0.0000001
 44
0.0000000001
 40
0.0
 40
0.0
 40
0.0
 40
0.0
 40
0.0787452363
 40
0.1668469129
 40
0.2698882854
 40
0.389958068
 40
0.5261784937
 40
0.6759557675
 40
0.8356080372
 40
1.0
 40
1.0
 40
1.0
 40
1.0
 10
34.8309694317
 20
25.6198287393
 30
0.0
 10
34.8309694317
 20
25.6135643988
 30
0.0
 10
34.8280138944
 20
25.6001922405
 30
0.0
 10
34.815870133
 20
25.582065978
 30
0.0
 10
34.7969337662
 20
25.5657854396
 30
0.0
 10
34.7719288134
 20
25.5516612488
 30
0.0
 10
34.7416812198
 20
25.5400571835
 30
0.0
 10
34.7072184653
 20
25.5314278801
 30
0.0
 10
34.6698419186
 20
25.5261194107
 30
0.0
 10
34.6440471401
 20
25.5249184759
 30
0.0
 10
34.6309694317
 20
25.5249184759
 30
0.0
  0
SPLINE
  5
277
100
AcDbEntity
  8
0
100
AcDbSpline
 62
7
  6
BYLAYER
 70
0
 71
3
 72
18
 73
14
 74
0
 42
0.0000001
 43
0.0000001
 44
0.0000000001
 40
0.0
 40
0.0
 40
0.0
 40
0.0
 40
0.0213174733
 40
0.0459825081
 40
0.0760904524
 40
0.112719869
 40
0.1562705767
 40
0.2067820131
 40
0.3279183163
 40
0.47297975
 40
0.6373316222
 40
0.8153710353
 40
1.0
 40
1.0
 40
1.0
 40
1.0
 10
34.8309694317
 20
26.8457932928
 30
0.0
 10
34.8309694317
 20
26.8442846106
 30
0.0
 10
34.8301959713
 20
26.8410101648
 30
0.0
 10
34.8270825939
 20
26.8365207215
 30
0.0
 10
34.8221941315
 20
26.8322221652
 30
0.0
 10
34.8155440482
 20
26.8280905321
 30
0.0
 10
34.807173791
 20
26.8241227366
 30
0.0
 10
34.7929036934
 20
26.8187639741
 30
0.0
 10
34.771199753
 20
26.8129823468
 30
0.0
 10
34.7412072809
 20
26.8075014921
 30
0.0
 10
34.7069324333
 20
26.8034114989
 30
0.0
 10
34.6697067624
 20
26.8008870831
 30
0.0
 10
34.6440360095
 20
26.8003162809
 30
0.0
 10
34.6309694317
 20
26.8003162809
 30
0.0
  0
SPLINE
  5
278
100
AcDbEntity
  8
0
100
AcDbSpline
 62
7
  6
BYLAYER
 70
0
 71
3
 72
18
 73
14
 74
0
 42
0.0000001
 43
0.0000001
 44
0.0000000001
 40
0.0
 40
0.0
 40
0.0
 40
0.0
 40
0.1846298095
 40
0.3626681625
 40
0.5270159836
 40
0.6720751957
 40
0.7932101637
 40
0.8437224447
 40
0.8872748507
 40
0.9239055642
 40
0.9540152767
 40
0.9786819957
 40
1.0
 40
1.0
 40
1.0
 40
1.0
 10
34.6309694317
 20
27.6336005681
 30
0.0
 10
34.6440360613
 20
27.6336005681
 30
0.0
 10
34.6697067815
 20
27.6330297306
 30
0.0
 10
34.7069321335
 20
27.630505405
 30
0.0
 10
34.7412064398
 20
27.6264154477
 30
0.0
 10
34.7711983849
 20
27.620934821
 30
0.0
 10
34.7929021525
 20
27.6151533514
 30
0.0
 10
34.8071723783
 20
27.6097947347
 30
0.0
 10
34.8155429829
 20
27.6058270381
 30
0.0
 10
34.8221933102
 20
27.6016951456
 30
0.0
 10
34.8270819846
 20
27.5973963492
 30
0.0
 10
34.8301957346
 20
27.5929068562
 30
0.0
 10
34.8309694317
 20
27.589632275
 30
0.0
 10
34.8309694317
 20
27.5881235562
 30
0.0
  0
SPLINE
  5
279
100
AcDbEntity
  8
0
100
AcDbSpline
 62
7
  6
BYLAYER
 70
0
 71
3
 72
15
 73
11
 74
0
 42
0.0000001
 43
0.0000001
 44
0.0000000001
 40
0.0
 40
0.0
 40
0.0
 40
0.0
 40
0.1643926799
 40
0.3240439335
 40
0.4738174519
 40
0.6100354876
 40
0.7301033625
 40
0.8331462764
 40
0.9212521201
 40
1.0
 40
1.0
 40
1.0
 40
1.0
 10
34.6309694317
 20
28.9089983731
 30
0.0
 10
34.6440471923
 20
28.9089983731
 30
0.0
 10
34.6698419301
 20
28.9077973658
 30
0.0
 10
34.707218168
 20
28.9024890836
 30
0.0
 10
34.7416803275
 20
28.8938598655
 30
0.0
 10
34.7719274329
 20
28.8822563021
 30
0.0
 10
34.7969321935
 20
28.8681323863
 30
0.0
 10
34.8158694058
 20
28.8518522255
 30
0.0
 10
34.8280130653
 20
28.8337251838
 30
0.0
 10
34.8309694317
 20
28.8203526582
 30
0.0
 10
34.8309694317
 20
28.8140881097
 30
0.0
  0
SPLINE
  5
27A
100
AcDbEntity
  8
0
100
AcDbSpline
 62
7
  6
BYLAYER
 70
0
 71
3
 72
13
 73
9
 74
0
 42
0.0000001
 43
0.0000001
 44
0.0000000001
 40
0.0
 40
0.0
 40
0.0
 40
0.0
 40
0.2909896794
 40
0.5591132082
 40
0.6806498823
 40
0.7932670514
 40
0.8987672034
 40
1.0
 40
1.0
 40
1.0
 40
1.0
 10
34.6309694317
 20
30.0690864519
 30
0.0
 10
34.6568448623
 20
30.0690864519
 30
0.0
 10
34.7068070807
 20
30.062535461
 30
0.0
 10
34.7632213934
 20
30.0375971493
 30
0.0
 10
34.7977857784
 20
30.0088844364
 30
0.0
 10
34.8165971571
 20
29.9849092283
 30
0.0
 10
34.828277001
 20
29.9586886303
 30
0.0
 10
34.8309694317
 20
29.9402127534
 30
0.0
 10
34.8309694317
 20
29.9312109145
 30
0.0
  0
SPLINE
  5
27B
100
AcDbEntity
  8
0
100
AcDbSpline
 62
7
  6
BYLAYER
 70
0
 71
3
 72
13
 73
9
 74
0
 42
0.0000001
 43
0.0000001
 44
0.0000000001
 40
0.0
 40
0.0
 40
0.0
 40
0.0
 40
0.2680212812
 40
0.5253099608
 40
0.6486956738
 40
0.7682770291
 40
0.8850458317
 40
1.0
 40
1.0
 40
1.0
 40
1.0
 10
34.6309694317
 20
31.034806719
 30
0.0
 10
34.6569761352
 20
31.034806719
 30
0.0
 10
34.7083671573
 20
31.026271038
 30
0.0
 10
34.7644876105
 20
30.994562245
 30
0.0
 10
34.7982831942
 20
30.9593104246
 30
0.0
 10
34.8169138964
 20
30.9294697866
 30
0.0
 10
34.8283610037
 20
30.8970792658
 30
0.0
 10
34.8309694317
 20
30.8745161573
 30
0.0
 10
34.8309694317
 20
30.8633618977
 30
0.0
  0
SPLINE
  5
27C
100
AcDbEntity
  8
0
100
AcDbSpline
 62
7
  6
BYLAYER
 70
0
 71
3
 72
11
 73
7
 74
0
 42
0.0000001
 43
0.0000001
 44
0.0000000001
 40
0.0
 40
0.0
 40
0.0
 40
0.0
 40
0.2551441038
 40
0.5072431083
 40
0.7550932419
 40
1.0
 40
1.0
 40
1.0
 40
1.0
 10
34.6309694317
 20
31.7403469341
 30
0.0
 10
34.6570766135
 20
31.7403469341
 30
0.0
 10
34.7095316722
 20
31.7303291055
 30
0.0
 10
34.7759851924
 20
31.6873161013
 30
0.0
 10
34.82053999
 20
31.6230726243
 30
0.0
 10
34.8309694317
 20
31.5720761731
 30
0.0
 10
34.8309694317
 20
31.5470165101
 30
0.0
  0
SPLINE
  5
27D
100
AcDbEntity
  8
0
100
AcDbSpline
 62
7
  6
BYLAYER
 70
0
 71
3
 72
11
 73
7
 74
0
 42
0.0000001
 43
0.0000001
 44
0.0000000001
 40
0.0
 40
0.0
 40
0.0
 40
0.0
 40
0.2500464975
 40
0.5000473667
 40
0.7500120773
 40
1.0
 40
1.0
 40
1.0
 40
1.0
 10
34.6309694317
 20
32.1376256976
 30
0.0
 10
34.6571198389
 20
32.1376256976
 30
0.0
 10
34.710007046
 20
32.1269962465
 30
0.0
 10
34.7764808835
 20
32.0817042473
 30
0.0
 10
34.8207013173
 20
32.0145789254
 30
0.0
 10
34.8309694317
 20
31.961729101
 30
0.0
 10
34.8309694317
 20
31.9355848197
 30
0.0
  0
ENDSEC
  0
SECTION
  2
OBJECTS
  0
DICTIONARY
  5
C
100
AcDbDictionary
280
0
281
1
  3
ACAD_GROUP
350
D
  3
ACAD_MLINESTYLE
350
17
  3
ACAD_LAYOUT
350
1A
  3
ACAD_PLOTSETTINGS
350
19
  3
ACAD_PLOTSTYLENAME
350
E
  0
DICTIONARY
  5
D
102
{ACAD_REACTORS
330
C
102
}
100
AcDbDictionary
280
0
281
1
  0
ACDBDICTIONARYWDFLT
  5
E
102
{ACAD_REACTORS
330
C
102
}
100
AcDbDictionary
281
1
  3
Normal
350
F
100
AcDbDictionaryWithDefault
340
F
  0
DICTIONARY
  5
17
102
{ACAD_REACTORS
330
C
102
}
100
AcDbDictionary
280
0
281
1
  3
Standard
350
18
  0
DICTIONARY
  5
19
102
{ACAD_REACTORS
330
C
102
}
100
AcDbDictionary
281
1
  0
DICTIONARY
  5
1A
102
{ACAD_REACTORS
330
C
102
}
100
AcDbDictionary
281
1
  3
Model
350
27E
  3
Layout1
350
27F
  0
ACDBPLACEHOLDER
  5
F
102
{ACAD_REACTORS
330
E
102
}
  0
MLINESTYLE
  5
18
102
{ACAD_REACTORS
330
17
102
}
100
AcDbMlineStyle
  2
STANDARD
 70
0
  3

 62
256
 51
90.0
 52
90.0
 71
2
 49
0.5
 62
256
  6
BYLAYER
 49
-0.5
 62
256
  6
BYLAYER
  0
LAYOUT
  5
27E
102
{ACAD_REACTORS
330
1A
102
}
100
AcDbPlotSettings
  1

  2
none_device
  4

  6

 40
0.0
 41
0.0
 42
0.0
 43
0.0
 44
210.0
 45
297.0
 46
0.0
 47
0.0
 48
0.0
 49
0.0
140
0.0
141
0.0
142
1.0
143
1.0
 70
1024
 72
1
 73
0
 74
0
  7

 75
0
147
1.0
148
0.0
149
0.0
100
AcDbLayout
  1
Model
 70
0
 71
0
 10
0.0
 20
0.0
 11
210.0
 21
297.0
 12
0.0
 22
0.0
 32
0.0
 14
0.0
 24
0.0
 34
0.0
 15
0.0
 25
0.0
 35
0.0
146
0.0
 13
0.0
 23
0.0
 33
0.0
 16
1.0
 26
0.0
 36
0.0
 17
0.0
 27
1.0
 37
0.0
 76
0
330
210
345
0
346
0
  0
LAYOUT
  5
27F
102
{ACAD_REACTORS
330
1A
102
}
100
AcDbPlotSettings
  1

  2
none_device
  4

  6

 40
0.0
 41
0.0
 42
0.0
 43
0.0
 44
210.0
 45
297.0
 46
0.0
 47
0.0
 48
0.0
 49
0.0
140
0.0
141
0.0
142
1.0
143
1.0
 70
0
 72
1
 73
0
 74
0
  7

 75
0
147
1.0
148
0.0
149
0.0
100
AcDbLayout
  1
Layout1
 70
0
 71
1
 10
0.0
 20
0.0
 11
210.0
 21
297.0
 12
0.0
 22
0.0
 32
0.0
 14
0.0
 24
0.0
 34
0.0
 15
0.0
 25
0.0
 35
0.0
146
0.0
 13
0.0
 23
0.0
 33
0.0
 16
1.0
 26
0.0
 36
0.0
 17
0.0
 27
1.0
 37
0.0
 76
0
330
211
345
0
346
0
  0
ENDSEC
  0
EOF
