999
DXF file: C:\Users\sesa63760\Dev\_Creo\CAD\MCADID0004518_3D-CAD\drw0001_1.dxf
999
Pro/ENGINEER 2019471 by Parametric Technology Corporation
  0
SECTION
  2
HEADER
  9
$ACADVER
  1
AC1024
  9
$DWGCODEPAGE
  3
ANSI_1252
  9
$EXTMAX
 10
63.0723459972
 20
89.2023179103
 30
0.0
  9
$EXTMIN
 10
0.0
 20
0.0
 30
0.0
  9
$LIMMIN
 10
0.0
 20
0.0
  9
$LIMMAX
 10
63.0723459972
 20
89.2023179103
  9
$VIEWCTR
 10
31.5361729986
 20
44.6011589552
  9
$VIEWSIZE
 40
89.2023179103
  9
$CLAYER
  8
0
  9
$LTSCALE
 40
5.8146696119
  9
$CELTYPE
  6
BYLAYER
  9
$DIMSCALE
 40
1.0
  9
$DIMASZ
 40
0.7508612619
  9
$DIMEXO
 40
1.0
  9
$DIMDLI
 40
4.0174080955
  9
$DIMEXE
 40
1.0
  9
$DIMCEN
 40
0.951491391
  9
$DIMLFAC
 40
1.0
  9
$DIMBLK
  1
_FILLED
  9
$DIMALT
 70
0
  9
$DIMALTF
 40
0.0393700787
  9
$DIMTXT
 40
1.0512057666
  9
$DIMTOL
 70
1
  9
$DIMLIM
 70
0
  9
$DIMTFAC
 40
1.0
  9
$DIMTP
 40
0.01
  9
$DIMTM
 40
0.01
  9
$DIMGAP
 40
0.625
  9
$DIMDSEP
 70
46
  9
$AUNITS
 70
0
  9
$PDMODE
 70
3
  9
$PDSIZE
 40
0.3125
  9
$HANDSEED
  5
25D
  9
$TILEMODE
 70
1
  9
$MEASUREMENT
 70
1
  9
$INSUNITS
 70
4
  0
ENDSEC
  0
SECTION
  2
CLASSES
  0
CLASS
  1
ACDBDICTIONARYWDFLT
  2
AcDbDictionaryWithDefault
  3
AutoCAD 2000
 90
0
 91
1
280
0
281
0
  0
CLASS
  1
ACDBPLACEHOLDER
  2
AcDbPlaceHolder
  3
AutoCAD 2000
 90
0
 91
1
280
0
281
0
  0
CLASS
  1
LAYOUT
  2
AcDbLayout
  3
AutoCAD 2000
 90
0
 91
0
280
0
281
0
  0
ENDSEC
  0
SECTION
  2
TABLES
  0
TABLE
  2
VPORT
  5
8
100
AcDbSymbolTable
 70
2
  0
VPORT
  5
1F4
100
AcDbSymbolTableRecord
100
AcDbViewportTableRecord
  2
*ACTIVE
 70
0
 10
0.0
 20
0.0
 11
1.0
 21
1.0
 12
31.5361729986
 22
44.6011589552
 13
0.0
 23
0.0
 14
1.0
 24
1.0
 15
0.0
 25
0.0
 16
0.0
 26
0.0
 36
1.0
 17
0.0
 27
0.0
 37
0.0
 40
89.2023179103
 41
0.7070707071
 42
50.0
 43
0.0
 44
0.0
 50
0.0
 51
0.0
 71
0
 72
100
 73
1
 74
1
 75
0
 76
0
 77
0
 78
0
  0
ENDTAB
  0
TABLE
  2
LTYPE
  5
5
100
AcDbSymbolTable
 70
6
  0
LTYPE
  5
14
100
AcDbSymbolTableRecord
100
AcDbLinetypeTableRecord
  2
BYBLOCK
 70
0
  3

 72
65
 73
0
 40
0.0
  0
LTYPE
  5
15
100
AcDbSymbolTableRecord
100
AcDbLinetypeTableRecord
  2
BYLAYER
 70
0
  3

 72
65
 73
0
 40
0.0
  0
LTYPE
  5
16
100
AcDbSymbolTableRecord
100
AcDbLinetypeTableRecord
  2
CONTINUOUS
 70
64
  3
Solid line
 72
65
 73
0
 40
0.0
  0
LTYPE
  5
1F5
100
AcDbSymbolTableRecord
100
AcDbLinetypeTableRecord
  2
CENTER
 70
64
  3
____ _ ____ _ ____ _ ____ _ ____ _ ____ _ ____
 72
65
 73
4
 40
0.6
 49
0.375
 74
0
 49
-0.075
 74
0
 49
0.075
 74
0
 49
-0.075
 74
0
  0
LTYPE
  5
1F6
100
AcDbSymbolTableRecord
100
AcDbLinetypeTableRecord
  2
HIDDEN
 70
64
  3
- - - - - - - - - - - - - - - - - - - -
 72
65
 73
2
 40
0.2
 49
0.1
 74
0
 49
-0.1
 74
0
  0
LTYPE
  5
1F7
100
AcDbSymbolTableRecord
100
AcDbLinetypeTableRecord
  2
PHANTOM
 70
64
  3
_____ _ _ _____ _ _ _____ _ _ _____
 72
65
 73
6
 40
0.8
 49
0.45
 74
0
 49
-0.05
 74
0
 49
0.1
 74
0
 49
-0.05
 74
0
 49
0.1
 74
0
 49
-0.05
 74
0
  0
LTYPE
  5
1F8
100
AcDbSymbolTableRecord
100
AcDbLinetypeTableRecord
  2
DOT
 70
64
  3
. . . . . . . . . . . . . . . . . . . .
 72
65
 73
2
 40
0.2
 49
0.1
 74
0
 49
-0.1
 74
0
  0
LTYPE
  5
1F9
100
AcDbSymbolTableRecord
100
AcDbLinetypeTableRecord
  2
DASHED
 70
64
  3
- - - - - - - - - - - - - - - - - - - -
 72
65
 73
2
 40
0.2
 49
0.1
 74
0
 49
-0.1
 74
0
  0
ENDTAB
  0
TABLE
  2
LAYER
  5
2
100
AcDbSymbolTable
 70
36
  0
LAYER
  5
10
100
AcDbSymbolTableRecord
100
AcDbLayerTableRecord
  2
0
 70
0
 62
7
  6
CONTINUOUS
370
-3
390
F
  0
LAYER
  5
1FA
100
AcDbSymbolTableRecord
100
AcDbLayerTableRecord
  2
DEFAULT_1
 70
0
 62
7
  6
CENTER
370
-3
390
F
  0
LAYER
  5
1FB
100
AcDbSymbolTableRecord
100
AcDbLayerTableRecord
  2
DEFAULT_2
 70
0
 62
7
  6
HIDDEN
370
-3
390
F
  0
LAYER
  5
1FC
100
AcDbSymbolTableRecord
100
AcDbLayerTableRecord
  2
DEFAULT_3
 70
0
 62
7
  6
PHANTOM
370
-3
390
F
  0
LAYER
  5
1FD
100
AcDbSymbolTableRecord
100
AcDbLayerTableRecord
  2
00_COMPONENTS
 70
0
 62
7
  6
CONTINUOUS
370
-3
390
F
  0
LAYER
  5
1FE
100
AcDbSymbolTableRecord
100
AcDbLayerTableRecord
  2
01_1_DEFAULT_DATUMS
 70
0
 62
7
  6
CONTINUOUS
370
-3
390
F
  0
LAYER
  5
1FF
100
AcDbSymbolTableRecord
100
AcDbLayerTableRecord
  2
01_PLANES
 70
0
 62
7
  6
CONTINUOUS
370
-3
390
F
  0
LAYER
  5
200
100
AcDbSymbolTableRecord
100
AcDbLayerTableRecord
  2
02_COORD_SYS
 70
0
 62
7
  6
CONTINUOUS
370
-3
390
F
  0
LAYER
  5
201
100
AcDbSymbolTableRecord
100
AcDbLayerTableRecord
  2
03_AXES
 70
0
 62
7
  6
CONTINUOUS
370
-3
390
F
  0
LAYER
  5
202
100
AcDbSymbolTableRecord
100
AcDbLayerTableRecord
  2
04_POINTS
 70
0
 62
7
  6
CONTINUOUS
370
-3
390
F
  0
LAYER
  5
203
100
AcDbSymbolTableRecord
100
AcDbLayerTableRecord
  2
05_CURVES
 70
0
 62
7
  6
CONTINUOUS
370
-3
390
F
  0
LAYER
  5
204
100
AcDbSymbolTableRecord
100
AcDbLayerTableRecord
  2
06_SURFS
 70
0
 62
7
  6
CONTINUOUS
370
-3
390
F
  0
LAYER
  5
205
100
AcDbSymbolTableRecord
100
AcDbLayerTableRecord
  2
07_COSMETICS
 70
0
 62
7
  6
CONTINUOUS
370
-3
390
F
  0
LAYER
  5
206
100
AcDbSymbolTableRecord
100
AcDbLayerTableRecord
  2
10_NOTES
 70
0
 62
7
  6
CONTINUOUS
370
-3
390
F
  0
LAYER
  5
207
100
AcDbSymbolTableRecord
100
AcDbLayerTableRecord
  2
11_NOTES_PUB
 70
0
 62
7
  6
CONTINUOUS
370
-3
390
F
  0
LAYER
  5
208
100
AcDbSymbolTableRecord
100
AcDbLayerTableRecord
  2
13_REF_GTOL
 70
0
 62
7
  6
CONTINUOUS
370
-3
390
F
  0
LAYER
  5
209
100
AcDbSymbolTableRecord
100
AcDbLayerTableRecord
  2
16_MISC
 70
0
 62
7
  6
CONTINUOUS
370
-3
390
F
  0
LAYER
  5
20A
100
AcDbSymbolTableRecord
100
AcDbLayerTableRecord
  2
17_NO_PRINT
 70
0
 62
7
  6
CONTINUOUS
370
-3
390
F
  0
LAYER
  5
20B
100
AcDbSymbolTableRecord
100
AcDbLayerTableRecord
  2
18_DATUM_CAMS_JOINTS
 70
0
 62
7
  6
CONTINUOUS
370
-3
390
F
  0
LAYER
  5
20C
100
AcDbSymbolTableRecord
100
AcDbLayerTableRecord
  2
19_DATUM_FUNCTIONAL
 70
0
 62
7
  6
CONTINUOUS
370
-3
390
F
  0
LAYER
  5
20D
100
AcDbSymbolTableRecord
100
AcDbLayerTableRecord
  2
20_DATUM_KINEMATIC_SCHEME
 70
0
 62
7
  6
CONTINUOUS
370
-3
390
F
  0
ENDTAB
  0
TABLE
  2
STYLE
  5
3
100
AcDbSymbolTable
 70
1
  0
STYLE
  5
11
100
AcDbSymbolTableRecord
100
AcDbTextStyleTableRecord
  2
STANDARD
 70
0
 40
0.0
 41
1.0
 50
0.0
 71
0
 42
0.2
  3
ARIAL.TTF
  4

  0
STYLE
  5
20E
100
AcDbSymbolTableRecord
100
AcDbTextStyleTableRecord
  2
TEXTSTYLE_1
 70
0
 40
0.0
 41
0.8
 50
0.0
 71
0
 42
0.2
  3
gdt
  4

  0
ENDTAB
  0
TABLE
  2
VIEW
  5
6
100
AcDbSymbolTable
 70
0
  0
ENDTAB
  0
TABLE
  2
UCS
  5
7
100
AcDbSymbolTable
 70
0
  0
ENDTAB
  0
TABLE
  2
APPID
  5
9
100
AcDbSymbolTable
 70
1
  0
APPID
  5
20F
100
AcDbSymbolTableRecord
100
AcDbRegAppTableRecord
  2
ACAD
 70
0
  0
ENDTAB
  0
TABLE
  2
BLOCK_RECORD
  5
1
100
AcDbSymbolTable
 70
0
  0
BLOCK_RECORD
  5
210
100
AcDbSymbolTableRecord
100
AcDbBlockTableRecord
  2
*Model_Space
  0
BLOCK_RECORD
  5
211
100
AcDbSymbolTableRecord
100
AcDbBlockTableRecord
  2
*Paper_Space
  0
BLOCK_RECORD
  5
212
100
AcDbSymbolTableRecord
100
AcDbBlockTableRecord
  2
_FILLED
  0
ENDTAB
  0
TABLE
  2
DIMSTYLE
  5
A
100
AcDbSymbolTable
 70
1
100
AcDbDimStyleTable
 71
0
  0
DIMSTYLE
105
213
100
AcDbSymbolTableRecord
100
AcDbDimStyleTableRecord
  2
STANDARD
 70
0
  3

  4

 40
1.0
 41
0.7508612619
 42
1.0
 43
0.38
 44
1.0
 45
0.0
 46
0.0
 47
0.01
 48
0.01
140
1.0512057666
141
0.09
142
0.0
143
25.4
144
1.0
145
0.0
146
1.0
147
0.625
 71
1
 72
0
 73
0
 74
0
 75
0
 76
0
 77
1
 78
8
 79
2
170
0
171
1
172
0
173
0
174
0
175
0
176
0
177
0
178
0
270
2
179
2
271
2
272
2
273
2
274
2
275
0
280
0
281
0
282
0
283
1
284
8
285
0
286
0
287
3
288
0
340
11
278
46
341
212
342
212
343
212
344
212
  0
ENDTAB
  0
ENDSEC
  0
SECTION
  2
BLOCKS
  0
BLOCK
  5
20
100
AcDbEntity
  8
0
100
AcDbBlockBegin
  2
*Model_Space
 70
0
 10
0.0
 20
0.0
 30
0.0
  3
*Model_Space
  1

  0
ENDBLK
  5
21
100
AcDbEntity
  8
0
100
AcDbBlockEnd
  0
BLOCK
  5
1C
100
AcDbEntity
  8
0
100
AcDbBlockBegin
  2
*Paper_Space
 70
0
 10
0.0
 20
0.0
 30
0.0
  3
*Paper_Space
  1

  0
ENDBLK
  5
1D
100
AcDbEntity
  8
0
100
AcDbBlockEnd
  0
BLOCK
  5
214
100
AcDbEntity
  8
0
100
AcDbBlockBegin
  2
_FILLED
 70
64
 10
0.0
 20
0.0
  3
_FILLED
  1

  0
SOLID
  5
215
100
AcDbEntity
  8
0
  6
BYBLOCK
 62
0
100
AcDbTrace
 10
0.0
 20
0.0
 11
-1.0
 21
0.25
 12
-1.0
 22
-0.25
 13
-1.0
 23
-0.25
  0
ENDBLK
  5
216
100
AcDbEntity
  8
0
  6
BYBLOCK
 62
0
100
AcDbBlockEnd
  0
ENDSEC
  0
SECTION
  2
ENTITIES
  0
LINE
  5
217
100
AcDbEntity
  8
0
100
AcDbLine
 62
7
  6
BYLAYER
 10
17.7879619067
 20
82.3123883165
 11
15.3130984765
 21
80.883533778
  0
LINE
  5
218
100
AcDbEntity
  8
0
100
AcDbLine
 62
7
  6
BYLAYER
 10
17.8130872843
 20
80.6359123829
 11
20.2879507145
 21
82.0647669215
  0
LINE
  5
219
100
AcDbEntity
  8
0
100
AcDbLine
 62
7
  6
BYLAYER
 10
14.2775386585
 20
75.3285944014
 11
10.8834402399
 21
73.3690224628
  0
LINE
  5
21A
100
AcDbEntity
  8
0
100
AcDbLine
 62
7
  6
BYLAYER
 10
17.2827549904
 20
75.6348272375
 11
19.7576184207
 21
77.063681776
  0
LINE
  5
21B
100
AcDbEntity
  8
0
100
AcDbLine
 62
7
  6
BYLAYER
 10
24.3538644609
 20
73.1854033624
 11
22.9396327916
 21
72.3689012013
  0
LINE
  5
21C
100
AcDbEntity
  8
0
100
AcDbLine
 62
7
  6
BYLAYER
 10
17.8130872843
 20
24.297245601
 11
47.1581408779
 21
7.3552542884
  0
LINE
  5
21D
100
AcDbEntity
  8
0
100
AcDbLine
 62
7
  6
BYLAYER
 10
42.0315953706
 20
12.3562558015
 11
47.6884731717
 21
9.0903297653
  0
LINE
  5
21E
100
AcDbEntity
  8
0
100
AcDbLine
 62
7
  6
BYLAYER
 10
10.8834402399
 20
73.3690224628
 11
10.8834402399
 21
31.7273991892
  0
LINE
  5
21F
100
AcDbEntity
  8
0
100
AcDbLine
 62
7
  6
BYLAYER
 10
47.299591085
 20
10.7030003314
 11
10.8834402399
 21
31.7273991892
  0
LINE
  5
220
100
AcDbEntity
  8
0
100
AcDbLine
 62
7
  6
BYLAYER
 10
12.2976596902
 20
32.5439225144
 11
45.8853716347
 21
13.1524866747
  0
LINE
  5
221
100
AcDbEntity
  8
0
100
AcDbLine
 62
7
  6
BYLAYER
 10
12.5097908414
 20
32.6663957605
 11
45.8853716347
 21
13.3974311274
  0
LINE
  5
222
100
AcDbEntity
  8
0
100
AcDbLine
 62
7
  6
BYLAYER
 10
12.2976596902
 20
70.9195361195
 11
12.2976596902
 21
32.5439225144
  0
LINE
  5
223
100
AcDbEntity
  8
0
100
AcDbLine
 62
7
  6
BYLAYER
 10
12.5097908414
 20
70.7970649129
 11
12.5097908414
 21
32.6663957605
  0
LINE
  5
224
100
AcDbEntity
  8
0
100
AcDbLine
 62
7
  6
BYLAYER
 10
14.2775386585
 20
78.5946040699
 11
14.2775386585
 21
75.3285944014
  0
LINE
  5
225
100
AcDbEntity
  8
0
100
AcDbLine
 62
7
  6
BYLAYER
 10
49.6330043081
 20
65.1227756089
 11
47.1581408779
 21
63.6939210703
  0
LINE
  5
226
100
AcDbEntity
  8
0
100
AcDbLine
 62
7
  6
BYLAYER
 10
50.6936895036
 20
57.5702052121
 11
53.1685529339
 21
58.9990597506
  0
LINE
  5
227
100
AcDbEntity
  8
0
100
AcDbLine
 62
7
  6
BYLAYER
 10
12.5097908414
 20
32.6663957605
 11
12.2976596902
 21
32.5439225144
  0
LINE
  5
228
100
AcDbEntity
  8
0
100
AcDbLine
 62
7
  6
BYLAYER
 10
47.299591085
 20
52.344623605
 11
50.6936895036
 21
54.3041955436
  0
LINE
  5
229
100
AcDbEntity
  8
0
100
AcDbLine
 62
7
  6
BYLAYER
 10
45.8853716347
 20
13.1524866747
 11
45.8853716347
 21
51.5281002798
  0
LINE
  5
22A
100
AcDbEntity
  8
0
100
AcDbLine
 62
7
  6
BYLAYER
 10
45.8853716347
 20
51.5281002798
 11
12.2976596902
 21
70.9195361195
  0
LINE
  5
22B
100
AcDbEntity
  8
0
100
AcDbLine
 62
7
  6
BYLAYER
 10
47.299591085
 20
52.344623605
 11
10.8834402399
 21
73.3690224628
  0
LINE
  5
22C
100
AcDbEntity
  8
0
100
AcDbLine
 62
7
  6
BYLAYER
 10
47.299591085
 20
10.7030003314
 11
47.299591085
 21
52.344623605
  0
LINE
  5
22D
100
AcDbEntity
  8
0
100
AcDbLine
 62
7
  6
BYLAYER
 10
50.6936895036
 20
54.3041955436
 11
14.2775386585
 21
75.3285944014
  0
LINE
  5
22E
100
AcDbEntity
  8
0
100
AcDbLine
 62
7
  6
BYLAYER
 10
50.6936895036
 20
9.3965626014
 11
50.6936895036
 21
12.6625722699
  0
LINE
  5
22F
100
AcDbEntity
  8
0
100
AcDbLine
 62
7
  6
BYLAYER
 10
50.6936895036
 20
54.3041955436
 11
50.6936895036
 21
57.5702052121
  0
LINE
  5
230
100
AcDbEntity
  8
0
100
AcDbLine
 62
7
  6
BYLAYER
 10
17.2827549904
 20
75.6348272375
 11
22.9396327916
 21
72.3689012013
  0
LINE
  5
231
100
AcDbEntity
  8
0
100
AcDbLine
 62
7
  6
BYLAYER
 10
53.1685529339
 20
58.9990597506
 11
53.1685529339
 21
10.82541714
  0
LINE
  5
232
100
AcDbEntity
  8
0
100
AcDbLine
 62
7
  6
BYLAYER
 10
23.8111858423
 20
74.723406478
 11
19.7576184207
 21
77.063681776
  0
LINE
  5
233
100
AcDbEntity
  8
0
100
AcDbLine
 62
7
  6
BYLAYER
 10
22.9396327916
 20
75.6349108698
 11
17.2827549904
 21
78.900836906
  0
LINE
  5
234
100
AcDbEntity
  8
0
100
AcDbLine
 62
7
  6
BYLAYER
 10
47.1581408779
 20
63.6939210703
 11
17.8130872843
 21
80.6359123829
  0
LINE
  5
235
100
AcDbEntity
  8
0
100
AcDbLine
 62
7
  6
BYLAYER
 10
20.2879507145
 20
82.0647669215
 11
49.6330043081
 21
65.1227756089
  0
LINE
  5
236
100
AcDbEntity
  8
0
100
AcDbLine
 62
7
  6
BYLAYER
 10
42.0315953706
 20
12.3562558015
 11
43.2337895904
 21
13.0503388148
  0
LINE
  5
237
100
AcDbEntity
  8
0
100
AcDbLine
 62
7
  6
BYLAYER
 10
50.6936895036
 20
12.6625722699
 11
47.299591085
 21
10.7030003314
  0
LINE
  5
238
100
AcDbEntity
  8
0
100
AcDbLine
 62
7
  6
BYLAYER
 10
49.1027048411
 20
9.9068319264
 11
47.6884731717
 21
9.0903297653
  0
LINE
  5
239
100
AcDbEntity
  8
0
100
AcDbLine
 62
7
  6
BYLAYER
 10
53.1685529339
 20
10.82541714
 11
50.6936895036
 21
9.3965626014
  0
LINE
  5
23A
100
AcDbEntity
  8
0
100
AcDbLine
 62
7
  6
BYLAYER
 10
52.1329931159
 20
8.5364874319
 11
49.6581296857
 21
7.1076328933
  0
SPLINE
  5
23B
100
AcDbEntity
  8
0
100
AcDbSpline
 62
7
  6
BYLAYER
 70
0
 71
3
 72
14
 73
10
 74
0
 42
0.0000001
 43
0.0000001
 44
0.0000000001
 40
0.0
 40
0.0
 40
0.0
 40
0.0
 40
0.2892720607
 40
0.422554976
 40
0.5484985194
 40
0.6678874407
 40
0.781868291
 40
0.8919528621
 40
1.0
 40
1.0
 40
1.0
 40
1.0
 10
47.1581408779
 20
7.3552542884
 30
0.0
 10
47.3776120137
 20
7.2285454356
 30
0.0
 10
47.7145755457
 20
7.0681677474
 30
0.0
 10
48.1766772049
 20
6.9334423128
 30
0.0
 10
48.5046708269
 20
6.8784060538
 30
0.0
 10
48.8202572783
 20
6.8674913159
 30
0.0
 10
49.120479186
 20
6.9009105433
 30
0.0
 10
49.402089171
 20
6.9788402746
 30
0.0
 10
49.576150233
 20
7.0603121833
 30
0.0
 10
49.6581254177
 20
7.1076402857
 30
0.0
  0
SPLINE
  5
23C
100
AcDbEntity
  8
0
100
AcDbSpline
 62
7
  6
BYLAYER
 70
0
 71
3
 72
15
 73
11
 74
0
 42
0.0000001
 43
0.0000001
 44
0.0000000001
 40
0.0
 40
0.0
 40
0.0
 40
0.0
 40
0.1201289466
 40
0.246650875
 40
0.377245516
 40
0.5092833969
 40
0.6400630082
 40
0.7669450684
 40
0.8875765283
 40
1.0
 40
1.0
 40
1.0
 40
1.0
 10
14.3248531546
 20
29.7280910112
 30
0.0
 10
14.3597275499
 20
29.4640445976
 30
0.0
 10
14.4679539403
 20
28.9263304037
 30
0.0
 10
14.7262335603
 20
28.1291878871
 30
0.0
 10
15.0777843092
 20
27.3395500991
 30
0.0
 10
15.5120261997
 20
26.5813906081
 30
0.0
 10
16.0158128346
 20
25.87760312
 30
0.0
 10
16.5740068503
 20
25.249326846
 30
0.0
 10
17.1697132816
 20
24.7156751697
 30
0.0
 10
17.5972243879
 20
24.4218712829
 30
0.0
 10
17.8130872843
 20
24.297245601
 30
0.0
  0
SPLINE
  5
23D
100
AcDbEntity
  8
0
100
AcDbSpline
 62
7
  6
BYLAYER
 70
0
 71
3
 72
12
 73
8
 74
0
 42
0.0000001
 43
0.0000001
 44
0.0000000001
 40
0.0
 40
0.0
 40
0.0
 40
0.0
 40
0.2894847231
 40
0.5486751865
 40
0.7816263484
 40
0.8918293154
 40
1.0
 40
1.0
 40
1.0
 40
1.0
 10
49.102692622
 20
9.9068530905
 30
0.0
 10
49.102692622
 20
9.8055168018
 30
0.0
 10
49.0872797551
 20
9.6127702984
 30
0.0
 10
49.0094243945
 20
9.3480877127
 30
0.0
 10
48.897382934
 20
9.1654640523
 30
0.0
 10
48.7842802219
 20
9.0542594534
 30
0.0
 10
48.7212566399
 20
9.0102227323
 30
0.0
 10
48.688463705
 20
8.99128985
 30
0.0
  0
SPLINE
  5
23E
100
AcDbEntity
  8
0
100
AcDbSpline
 62
7
  6
BYLAYER
 70
0
 71
3
 72
11
 73
7
 74
0
 42
0.0000001
 43
0.0000001
 44
0.0000000001
 40
0.0
 40
0.0
 40
0.0
 40
0.0
 40
0.2649531989
 40
0.5249570356
 40
0.7722248212
 40
1.0
 40
1.0
 40
1.0
 40
1.0
 10
48.5931651601
 20
11.4561382673
 30
0.0
 10
48.6726384767
 20
11.3338962385
 30
0.0
 10
48.8148913458
 20
11.081433951
 30
0.0
 10
48.9757426606
 20
10.6868277425
 30
0.0
 10
49.0768959919
 20
10.2938792697
 30
0.0
 10
49.102692622
 20
10.0321989197
 30
0.0
 10
49.102692622
 20
9.9068530905
 30
0.0
  0
SPLINE
  5
23F
100
AcDbEntity
  8
0
100
AcDbSpline
 62
7
  6
BYLAYER
 70
0
 71
3
 72
11
 73
7
 74
0
 42
0.0000001
 43
0.0000001
 44
0.0000000001
 40
0.0
 40
0.0
 40
0.0
 40
0.0
 40
0.2815525317
 40
0.5379654638
 40
0.7745293873
 40
1.0
 40
1.0
 40
1.0
 40
1.0
 10
34.0615812025
 20
18.3391042587
 30
0.0
 10
34.0503473699
 20
18.2517569129
 30
0.0
 10
34.0160511794
 20
18.0859911187
 30
0.0
 10
33.9212246786
 20
17.8610743146
 30
0.0
 10
33.7869588524
 20
17.6780178214
 30
0.0
 10
33.6716790086
 20
17.5872243142
 30
0.0
 10
33.6106052063
 20
17.5519573949
 30
0.0
  0
SPLINE
  5
240
100
AcDbEntity
  8
0
100
AcDbSpline
 62
7
  6
BYLAYER
 70
0
 71
3
 72
11
 73
7
 74
0
 42
0.0000001
 43
0.0000001
 44
0.0000000001
 40
0.0
 40
0.0
 40
0.0
 40
0.0
 40
0.2815525317
 40
0.5379654638
 40
0.7745293873
 40
1.0
 40
1.0
 40
1.0
 40
1.0
 10
21.6871610124
 20
25.4833174628
 30
0.0
 10
21.6759271798
 20
25.395970117
 30
0.0
 10
21.6416309893
 20
25.2302043228
 30
0.0
 10
21.5468044886
 20
25.0052875187
 30
0.0
 10
21.4125386624
 20
24.8222310255
 30
0.0
 10
21.2972588186
 20
24.7314375183
 30
0.0
 10
21.2361850162
 20
24.696170599
 30
0.0
  0
SPLINE
  5
241
100
AcDbEntity
  8
0
100
AcDbSpline
 62
7
  6
BYLAYER
 70
0
 71
3
 72
15
 73
11
 74
0
 42
0.0000001
 43
0.0000001
 44
0.0000000001
 40
0.0
 40
0.0
 40
0.0
 40
0.0
 40
0.1141546703
 40
0.2373261017
 40
0.3669753162
 40
0.4999989361
 40
0.6330227034
 40
0.7626723508
 40
0.8858444607
 40
1.0
 40
1.0
 40
1.0
 40
1.0
 10
49.6330043081
 20
65.1227756089
 30
0.0
 10
49.8750409125
 20
64.9830388714
 30
0.0
 10
50.353106662
 20
64.6479233297
 30
0.0
 10
51.0108994933
 20
64.0325131356
 30
0.0
 10
51.6170911269
 20
63.3050515204
 30
0.0
 10
52.1488490377
 20
62.4928279012
 30
0.0
 10
52.586380933
 20
61.6262013547
 30
0.0
 10
52.9132910497
 20
60.7374920298
 30
0.0
 10
53.1173621438
 20
59.8601182351
 30
0.0
 10
53.1685529339
 20
59.2785400951
 30
0.0
 10
53.1685529339
 20
58.9990597506
 30
0.0
  0
SPLINE
  5
242
100
AcDbEntity
  8
0
100
AcDbSpline
 62
7
  6
BYLAYER
 70
0
 71
3
 72
14
 73
10
 74
0
 42
0.0000001
 43
0.0000001
 44
0.0000000001
 40
0.0
 40
0.0
 40
0.0
 40
0.0
 40
0.2892730352
 40
0.4225562199
 40
0.5484998506
 40
0.6678886669
 40
0.7818692291
 40
0.8919533702
 40
1.0
 40
1.0
 40
1.0
 40
1.0
 10
53.1685529339
 20
10.82541714
 30
0.0
 10
53.1685529339
 20
10.5719874918
 30
0.0
 10
53.1389649817
 20
10.1999682905
 30
0.0
 10
53.0245903751
 20
9.7323991641
 30
0.0
 10
52.9082554313
 20
9.4208208073
 30
0.0
 10
52.75991237
 20
9.142049456
 30
0.0
 10
52.5808559444
 20
8.8987526983
 30
0.0
 10
52.3725570474
 20
8.6938313258
 30
0.0
 10
52.2149658388
 20
8.5838239796
 30
0.0
 10
52.1329888479
 20
8.5364948243
 30
0.0
  0
SPLINE
  5
243
100
AcDbEntity
  8
0
100
AcDbSpline
 62
7
  6
BYLAYER
 70
0
 71
3
 72
10
 73
6
 74
0
 42
0.0000001
 43
0.0000001
 44
0.0000000001
 40
0.0
 40
0.0
 40
0.0
 40
0.0
 40
0.5245747158
 40
0.770632008
 40
1.0
 40
1.0
 40
1.0
 40
1.0
 10
18.8597619031
 20
77.9534106475
 30
0.0
 10
18.9818148788
 20
77.7671592243
 30
0.0
 10
19.1882280309
 20
77.5091947349
 30
0.0
 10
19.5061440433
 20
77.2268607586
 30
0.0
 10
19.6732965236
 20
77.1123639446
 30
0.0
 10
19.7576184207
 20
77.063681776
 30
0.0
  0
SPLINE
  5
244
100
AcDbEntity
  8
0
100
AcDbSpline
 62
7
  6
BYLAYER
 70
0
 71
3
 72
19
 73
15
 74
0
 42
0.0000001
 43
0.0000001
 44
0.0000000001
 40
0.0
 40
0.0
 40
0.0
 40
0.0
 40
0.0428394104
 40
0.0874448899
 40
0.1352571039
 40
0.1871950253
 40
0.2436735499
 40
0.3046656819
 40
0.4382689093
 40
0.5825434307
 40
0.7296392143
 40
0.871166535
 40
0.9376088396
 40
1.0
 40
1.0
 40
1.0
 40
1.0
 10
31.3606229558
 20
70.4392092764
 30
0.0
 10
31.4160903938
 20
70.4712388141
 30
0.0
 10
31.5383777084
 20
70.5220162502
 30
0.0
 10
31.7402057455
 20
70.5516441802
 30
0.0
 10
31.9569487375
 20
70.5356583891
 30
0.0
 10
32.1837810842
 20
70.4754078791
 30
0.0
 10
32.4162742329
 20
70.3726835011
 30
0.0
 10
32.73719887
 20
70.1762314791
 30
0.0
 10
33.1195220529
 20
69.8376570978
 30
0.0
 10
33.5124762752
 20
69.3345664586
 30
0.0
 10
33.8218979161
 20
68.7627873118
 30
0.0
 10
33.9931130523
 20
68.2567535738
 30
0.0
 10
34.0639007138
 20
67.8581548332
 30
0.0
 10
34.0766109627
 20
67.6653977634
 30
0.0
 10
34.0766109627
 20
67.5721141519
 30
0.0
  0
SPLINE
  5
245
100
AcDbEntity
  8
0
100
AcDbSpline
 62
7
  6
BYLAYER
 70
0
 71
3
 72
19
 73
15
 74
0
 42
0.0000001
 43
0.0000001
 44
0.0000000001
 40
0.0
 40
0.0
 40
0.0
 40
0.0
 40
0.0428394104
 40
0.0874448899
 40
0.1352571039
 40
0.1871950253
 40
0.2436735499
 40
0.3046656819
 40
0.4382689093
 40
0.5825434307
 40
0.7296392143
 40
0.871166535
 40
0.9376088396
 40
1.0
 40
1.0
 40
1.0
 40
1.0
 10
43.7350431459
 20
63.2949960723
 30
0.0
 10
43.7905105839
 20
63.3270256099
 30
0.0
 10
43.9127978985
 20
63.377803046
 30
0.0
 10
44.1146259356
 20
63.4074309761
 30
0.0
 10
44.3313689276
 20
63.391445185
 30
0.0
 10
44.5582012743
 20
63.331194675
 30
0.0
 10
44.790694423
 20
63.228470297
 30
0.0
 10
45.1116190601
 20
63.032018275
 30
0.0
 10
45.493942243
 20
62.6934438937
 30
0.0
 10
45.8868964653
 20
62.1903532545
 30
0.0
 10
46.1963181062
 20
61.6185741077
 30
0.0
 10
46.3675332424
 20
61.1125403697
 30
0.0
 10
46.4383209039
 20
60.7139416291
 30
0.0
 10
46.4510311527
 20
60.5211845593
 30
0.0
 10
46.4510311527
 20
60.4279009478
 30
0.0
  0
SPLINE
  5
246
100
AcDbEntity
  8
0
100
AcDbSpline
 62
7
  6
BYLAYER
 70
0
 71
3
 72
12
 73
8
 74
0
 42
0.0000001
 43
0.0000001
 44
0.0000000001
 40
0.0
 40
0.0
 40
0.0
 40
0.0
 40
0.1081711684
 40
0.2183745344
 40
0.4513260781
 40
0.710516265
 40
1.0
 40
1.0
 40
1.0
 40
1.0
 10
16.2827644571
 20
78.9998768213
 30
0.0
 10
16.3155566609
 20
79.0188092815
 30
0.0
 10
16.385203872
 20
79.051369969
 30
0.0
 10
16.538057516
 20
79.0937165812
 30
0.0
 10
16.7522292919
 20
79.0994364331
 30
0.0
 10
17.0203718253
 20
79.0345238683
 30
0.0
 10
17.1949973423
 20
78.9515026615
 30
0.0
 10
17.2827549904
 20
78.900836906
 30
0.0
  0
SPLINE
  5
247
100
AcDbEntity
  8
0
100
AcDbSpline
 62
7
  6
BYLAYER
 70
0
 71
3
 72
14
 73
10
 74
0
 42
0.0000001
 43
0.0000001
 44
0.0000000001
 40
0.0
 40
0.0
 40
0.0
 40
0.0
 40
0.1080466357
 40
0.2181307812
 40
0.3321113461
 40
0.4515001674
 40
0.5774437985
 40
0.7107269735
 40
1.0
 40
1.0
 40
1.0
 40
1.0
 10
15.3131027445
 20
80.8835263856
 30
0.0
 10
15.2311257447
 20
80.8361972351
 30
0.0
 10
15.0735345348
 20
80.7261898725
 30
0.0
 10
14.8652356278
 20
80.5212684955
 30
0.0
 10
14.6861791967
 20
80.2779717271
 30
0.0
 10
14.5378361446
 20
79.9992003626
 30
0.0
 10
14.4215012052
 20
79.6876220084
 30
0.0
 10
14.3071266025
 20
79.2200528966
 30
0.0
 10
14.2775386585
 20
78.8480337107
 30
0.0
 10
14.2775386585
 20
78.5946040699
 30
0.0
  0
SPLINE
  5
248
100
AcDbEntity
  8
0
100
AcDbSpline
 62
7
  6
BYLAYER
 70
0
 71
3
 72
14
 73
10
 74
0
 42
0.0000001
 43
0.0000001
 44
0.0000000001
 40
0.0
 40
0.0
 40
0.0
 40
0.0
 40
0.1080471438
 40
0.2181317193
 40
0.3321125724
 40
0.4515014986
 40
0.5774450424
 40
0.710727948
 40
1.0
 40
1.0
 40
1.0
 40
1.0
 10
17.7879661747
 20
82.3123809241
 30
0.0
 10
17.8699413596
 20
82.3597090367
 30
0.0
 10
18.0440024364
 20
82.4411809382
 30
0.0
 10
18.3256124304
 20
82.5191106761
 30
0.0
 10
18.6258343501
 20
82.5525299027
 30
0.0
 10
18.9414208084
 20
82.5416151504
 30
0.0
 10
19.2694144259
 20
82.4865788888
 30
0.0
 10
19.7315160705
 20
82.3518534582
 30
0.0
 10
20.0684795851
 20
82.1914757706
 30
0.0
 10
20.2879507145
 20
82.0647669215
 30
0.0
  0
SPLINE
  5
249
100
AcDbEntity
  8
0
100
AcDbSpline
 62
7
  6
BYLAYER
 70
0
 71
3
 72
12
 73
8
 74
0
 42
0.0000001
 43
0.0000001
 44
0.0000000001
 40
0.0
 40
0.0
 40
0.0
 40
0.0
 40
0.2894847231
 40
0.5486751865
 40
0.7816263484
 40
0.8918293154
 40
1.0
 40
1.0
 40
1.0
 40
1.0
 10
24.3538522419
 20
73.1854245265
 30
0.0
 10
24.3538522419
 20
73.0840882377
 30
0.0
 10
24.3384393749
 20
72.8913417343
 30
0.0
 10
24.2605840144
 20
72.6266591487
 30
0.0
 10
24.1485425539
 20
72.4440354882
 30
0.0
 10
24.0354398418
 20
72.3328308894
 30
0.0
 10
23.9724162598
 20
72.2887941683
 30
0.0
 10
23.9396233249
 20
72.269861286
 30
0.0
  0
SPLINE
  5
24A
100
AcDbEntity
  8
0
100
AcDbSpline
 62
7
  6
BYLAYER
 70
0
 71
3
 72
15
 73
11
 74
0
 42
0.0000001
 43
0.0000001
 44
0.0000000001
 40
0.0
 40
0.0
 40
0.0
 40
0.0
 40
0.1141232787
 40
0.2373467935
 40
0.3669716251
 40
0.4999988493
 40
0.6330262331
 40
0.7626515288
 40
0.885875802
 40
1.0
 40
1.0
 40
1.0
 40
1.0
 10
22.9396327916
 20
75.6349108698
 30
0.0
 10
23.036420405
 20
75.5790317793
 30
0.0
 10
23.2276361872
 20
75.4449402064
 30
0.0
 10
23.4907936424
 20
75.198827075
 30
0.0
 10
23.7332532079
 20
74.9077889429
 30
0.0
 10
23.9459787945
 20
74.5829367526
 30
0.0
 10
24.1209481387
 20
74.2362853427
 30
0.0
 10
24.2517671455
 20
73.8807895729
 30
0.0
 10
24.3333313368
 20
73.5298304538
 30
0.0
 10
24.3538522419
 20
73.297185504
 30
0.0
 10
24.3538522419
 20
73.1854245265
 30
0.0
  0
SPLINE
  5
24B
100
AcDbEntity
  8
0
100
AcDbSpline
 62
7
  6
BYLAYER
 70
0
 71
3
 72
12
 73
8
 74
0
 42
0.0000001
 43
0.0000001
 44
0.0000000001
 40
0.0
 40
0.0
 40
0.0
 40
0.0
 40
0.2894832083
 40
0.5486755374
 40
0.7816290778
 40
0.8918324007
 40
1.0
 40
1.0
 40
1.0
 40
1.0
 10
46.4510311527
 20
60.4279009478
 30
0.0
 10
46.4510311527
 20
60.3138980244
 30
0.0
 10
46.4336919665
 20
60.0970578627
 30
0.0
 10
46.3461087174
 20
59.7992872632
 30
0.0
 10
46.2200598207
 20
59.593833041
 30
0.0
 10
46.092813943
 20
59.4687331106
 30
0.0
 10
46.0219148424
 20
59.4191909399
 30
0.0
 10
45.9850253964
 20
59.3978892186
 30
0.0
  0
SPLINE
  5
24C
100
AcDbEntity
  8
0
100
AcDbSpline
 62
7
  6
BYLAYER
 70
0
 71
3
 72
12
 73
8
 74
0
 42
0.0000001
 43
0.0000001
 44
0.0000000001
 40
0.0
 40
0.0
 40
0.0
 40
0.0
 40
0.2894832083
 40
0.5486755374
 40
0.7816290778
 40
0.8918324007
 40
1.0
 40
1.0
 40
1.0
 40
1.0
 10
34.0766109627
 20
67.5721141519
 30
0.0
 10
34.0766109627
 20
67.4581112285
 30
0.0
 10
34.0592717764
 20
67.2412710668
 30
0.0
 10
33.9716885274
 20
66.9435004673
 30
0.0
 10
33.8456396306
 20
66.7380462451
 30
0.0
 10
33.718393753
 20
66.6129463147
 30
0.0
 10
33.6474946523
 20
66.563404144
 30
0.0
 10
33.6106052063
 20
66.5421024227
 30
0.0
  0
SPLINE
  5
24D
100
AcDbEntity
  8
0
100
AcDbSpline
 62
7
  6
BYLAYER
 70
0
 71
3
 72
14
 73
10
 74
0
 42
0.0000001
 43
0.0000001
 44
0.0000000001
 40
0.0
 40
0.0
 40
0.0
 40
0.0
 40
0.2892720607
 40
0.422554976
 40
0.5484985194
 40
0.6678874407
 40
0.781868291
 40
0.8919528621
 40
1.0
 40
1.0
 40
1.0
 40
1.0
 10
17.8130872843
 20
80.6359123829
 30
0.0
 10
17.5936161485
 20
80.7626212357
 30
0.0
 10
17.2566526165
 20
80.9229989239
 30
0.0
 10
16.7945509572
 20
81.0577243585
 30
0.0
 10
16.4665573353
 20
81.1127606175
 30
0.0
 10
16.1509708838
 20
81.1236753554
 30
0.0
 10
15.8507489762
 20
81.090256128
 30
0.0
 10
15.5691389911
 20
81.0123263967
 30
0.0
 10
15.3950779291
 20
80.930854488
 30
0.0
 10
15.3131027445
 20
80.8835263856
 30
0.0
  0
SPLINE
  5
24E
100
AcDbEntity
  8
0
100
AcDbSpline
 62
7
  6
BYLAYER
 70
0
 71
3
 72
15
 73
11
 74
0
 42
0.0000001
 43
0.0000001
 44
0.0000000001
 40
0.0
 40
0.0
 40
0.0
 40
0.0
 40
0.1141555516
 40
0.2373276756
 40
0.3669773296
 40
0.5000011
 40
0.6330247168
 40
0.7626739247
 40
0.885845342
 40
1.0
 40
1.0
 40
1.0
 40
1.0
 10
50.6936895036
 20
57.5702052121
 30
0.0
 10
50.6936895036
 20
57.8496855867
 30
0.0
 10
50.6424986968
 20
58.4312637906
 30
0.0
 10
50.438427573
 20
59.3086376618
 30
0.0
 10
50.1115174064
 20
60.1973470308
 30
0.0
 10
49.6739854818
 20
61.0639735803
 30
0.0
 10
49.142227559
 20
61.8761971727
 30
0.0
 10
48.5360359386
 20
62.6036587226
 30
0.0
 10
47.8782431586
 20
63.2190688528
 30
0.0
 10
47.4001774562
 20
63.554184348
 30
0.0
 10
47.1581408779
 20
63.6939210703
 30
0.0
  0
SPLINE
  5
24F
100
AcDbEntity
  8
0
100
AcDbSpline
 62
7
  6
BYLAYER
 70
0
 71
3
 72
19
 73
15
 74
0
 42
0.0000001
 43
0.0000001
 44
0.0000000001
 40
0.0
 40
0.0
 40
0.0
 40
0.0
 40
0.0428394104
 40
0.0874448899
 40
0.1352571039
 40
0.1871950253
 40
0.2436735499
 40
0.3046656819
 40
0.4382689093
 40
0.5825434307
 40
0.7296392143
 40
0.871166535
 40
0.9376088396
 40
1.0
 40
1.0
 40
1.0
 40
1.0
 10
33.6106052063
 20
66.5421024227
 30
0.0
 10
33.5551377684
 20
66.510072885
 30
0.0
 10
33.4328504537
 20
66.4592954489
 30
0.0
 10
33.2310224166
 20
66.4296675189
 30
0.0
 10
33.0142794247
 20
66.4456533099
 30
0.0
 10
32.7874470779
 20
66.5059038199
 30
0.0
 10
32.5549539292
 20
66.608628198
 30
0.0
 10
32.2340292921
 20
66.8050802199
 30
0.0
 10
31.8517061092
 20
67.1436546012
 30
0.0
 10
31.4587518869
 20
67.6467452405
 30
0.0
 10
31.149330246
 20
68.2185243873
 30
0.0
 10
30.9781151099
 20
68.7245581253
 30
0.0
 10
30.9073274483
 20
69.1231568659
 30
0.0
 10
30.8946171995
 20
69.3159139356
 30
0.0
 10
30.8946171995
 20
69.4091975472
 30
0.0
  0
SPLINE
  5
250
100
AcDbEntity
  8
0
100
AcDbSpline
 62
7
  6
BYLAYER
 70
0
 71
3
 72
12
 73
8
 74
0
 42
0.0000001
 43
0.0000001
 44
0.0000000001
 40
0.0
 40
0.0
 40
0.0
 40
0.0
 40
0.2894847231
 40
0.5486751865
 40
0.7816263484
 40
0.8918293154
 40
1.0
 40
1.0
 40
1.0
 40
1.0
 10
15.8685355401
 20
78.0843135808
 30
0.0
 10
15.8685355401
 20
78.1856498695
 30
0.0
 10
15.8839484071
 20
78.3783963729
 30
0.0
 10
15.9618037676
 20
78.6430789586
 30
0.0
 10
16.0738452281
 20
78.825702619
 30
0.0
 10
16.1869479402
 20
78.9369072179
 30
0.0
 10
16.2499715222
 20
78.980943939
 30
0.0
 10
16.2827644571
 20
78.9998768213
 30
0.0
  0
SPLINE
  5
251
100
AcDbEntity
  8
0
100
AcDbSpline
 62
7
  6
BYLAYER
 70
0
 71
3
 72
15
 73
11
 74
0
 42
0.0000001
 43
0.0000001
 44
0.0000000001
 40
0.0
 40
0.0
 40
0.0
 40
0.0
 40
0.1141232787
 40
0.2373467935
 40
0.3669716251
 40
0.4999988493
 40
0.6330262331
 40
0.7626515288
 40
0.885875802
 40
1.0
 40
1.0
 40
1.0
 40
1.0
 10
17.2827549904
 20
75.6348272375
 30
0.0
 10
17.185967377
 20
75.6907063279
 30
0.0
 10
16.9947515948
 20
75.8247979009
 30
0.0
 10
16.7315941396
 20
76.0709110323
 30
0.0
 10
16.4891345741
 20
76.3619491644
 30
0.0
 10
16.2764089875
 20
76.6868013546
 30
0.0
 10
16.1014396433
 20
77.0334527645
 30
0.0
 10
15.9706206365
 20
77.3889485344
 30
0.0
 10
15.8890564452
 20
77.7399076535
 30
0.0
 10
15.8685355401
 20
77.9725526033
 30
0.0
 10
15.8685355401
 20
78.0843135808
 30
0.0
  0
SPLINE
  5
252
100
AcDbEntity
  8
0
100
AcDbSpline
 62
7
  6
BYLAYER
 70
0
 71
3
 72
12
 73
8
 74
0
 42
0.0000001
 43
0.0000001
 44
0.0000000001
 40
0.0
 40
0.0
 40
0.0
 40
0.0
 40
0.2894832083
 40
0.5486755374
 40
0.7816290778
 40
0.8918324007
 40
1.0
 40
1.0
 40
1.0
 40
1.0
 10
43.2690373896
 20
62.2649843431
 30
0.0
 10
43.2690373896
 20
62.3789872665
 30
0.0
 10
43.2863765758
 20
62.5958274282
 30
0.0
 10
43.3739598249
 20
62.8935980276
 30
0.0
 10
43.5000087216
 20
63.0990522499
 30
0.0
 10
43.6272545993
 20
63.2241521803
 30
0.0
 10
43.6981536999
 20
63.273694351
 30
0.0
 10
43.7350431459
 20
63.2949960723
 30
0.0
  0
SPLINE
  5
253
100
AcDbEntity
  8
0
100
AcDbSpline
 62
7
  6
BYLAYER
 70
0
 71
3
 72
15
 73
11
 74
0
 42
0.0000001
 43
0.0000001
 44
0.0000000001
 40
0.0
 40
0.0
 40
0.0
 40
0.0
 40
0.1124544441
 40
0.2332592195
 40
0.3602518503
 40
0.4911327702
 40
0.6232250982
 40
0.7537645127
 40
0.8801095628
 40
1.0
 40
1.0
 40
1.0
 40
1.0
 10
42.0315953706
 20
12.3562558015
 30
0.0
 10
41.9447270826
 20
12.4064080963
 30
0.0
 10
41.7726623854
 20
12.5248416211
 30
0.0
 10
41.532992413
 20
12.7399543958
 30
0.0
 10
41.3086318074
 20
12.993375374
 30
0.0
 10
41.1064536022
 20
13.2771753681
 30
0.0
 10
40.9325666415
 20
13.5827684011
 30
0.0
 10
40.7922760131
 20
13.9007915174
 30
0.0
 10
40.6898821688
 20
14.221552965
 30
0.0
 10
40.6476713183
 20
14.4377832058
 30
0.0
 10
40.6343626339
 20
14.5438908276
 30
0.0
  0
SPLINE
  5
254
100
AcDbEntity
  8
0
100
AcDbSpline
 62
7
  6
BYLAYER
 70
0
 71
3
 72
12
 73
8
 74
0
 42
0.0000001
 43
0.0000001
 44
0.0000000001
 40
0.0
 40
0.0
 40
0.0
 40
0.0
 40
0.2894832083
 40
0.5486755374
 40
0.7816290778
 40
0.8918324007
 40
1.0
 40
1.0
 40
1.0
 40
1.0
 10
30.8946171995
 20
69.4091975472
 30
0.0
 10
30.8946171995
 20
69.5232004706
 30
0.0
 10
30.9119563857
 20
69.7400406323
 30
0.0
 10
30.9995396348
 20
70.0378112318
 30
0.0
 10
31.1255885315
 20
70.243265454
 30
0.0
 10
31.2528344092
 20
70.3683653844
 30
0.0
 10
31.3237335098
 20
70.4179075551
 30
0.0
 10
31.3606229558
 20
70.4392092764
 30
0.0
  0
SPLINE
  5
255
100
AcDbEntity
  8
0
100
AcDbSpline
 62
7
  6
BYLAYER
 70
0
 71
3
 72
19
 73
15
 74
0
 42
0.0000001
 43
0.0000001
 44
0.0000000001
 40
0.0
 40
0.0
 40
0.0
 40
0.0
 40
0.0427987578
 40
0.0871700885
 40
0.1344288276
 40
0.1854553305
 40
0.2407113422
 40
0.3002575242
 40
0.363861659
 40
0.4310386566
 40
0.573211454
 40
0.7203142374
 40
0.864894285
 40
1.0
 40
1.0
 40
1.0
 40
1.0
 10
33.6106052063
 20
17.5519573949
 30
0.0
 10
33.5584010155
 20
17.5218122114
 30
0.0
 10
33.4440971966
 20
17.4733068938
 30
0.0
 10
33.2559259479
 20
17.4415135029
 30
0.0
 10
33.0538809651
 20
17.4501924447
 30
0.0
 10
32.8420145923
 20
17.498265533
 30
0.0
 10
32.6241189888
 20
17.5845447542
 30
0.0
 10
32.4040164565
 20
17.707059213
 30
0.0
 10
32.1856995209
 20
17.863534788
 30
0.0
 10
31.8969925359
 20
18.1182187435
 30
0.0
 10
31.5682252018
 20
18.5012570049
 30
0.0
 10
31.2479895316
 20
19.0246109015
 30
0.0
 10
31.017512772
 20
19.5824440278
 30
0.0
 10
30.9308378332
 20
19.9696491912
 30
0.0
 10
30.9096549208
 20
20.1587651377
 30
0.0
  0
SPLINE
  5
256
100
AcDbEntity
  8
0
100
AcDbSpline
 62
7
  6
BYLAYER
 70
0
 71
3
 72
14
 73
10
 74
0
 42
0.0000001
 43
0.0000001
 44
0.0000000001
 40
0.0
 40
0.0
 40
0.0
 40
0.0
 40
0.1080466357
 40
0.2181307812
 40
0.3321113461
 40
0.4515001674
 40
0.5774437985
 40
0.7107269735
 40
1.0
 40
1.0
 40
1.0
 40
1.0
 10
49.6581254177
 20
7.1076402857
 30
0.0
 10
49.7401024175
 20
7.1549694362
 30
0.0
 10
49.8976936273
 20
7.2649767987
 30
0.0
 10
50.1059925344
 20
7.4698981758
 30
0.0
 10
50.2850489654
 20
7.7131949442
 30
0.0
 10
50.4333920176
 20
7.9919663087
 30
0.0
 10
50.5497269569
 20
8.3035446629
 30
0.0
 10
50.6641015596
 20
8.7711137747
 30
0.0
 10
50.6936895036
 20
9.1431329606
 30
0.0
 10
50.6936895036
 20
9.3965626014
 30
0.0
  0
SPLINE
  5
257
100
AcDbEntity
  8
0
100
AcDbSpline
 62
7
  6
BYLAYER
 70
0
 71
3
 72
12
 73
8
 74
0
 42
0.0000001
 43
0.0000001
 44
0.0000000001
 40
0.0
 40
0.0
 40
0.0
 40
0.0
 40
0.1081711684
 40
0.2183745344
 40
0.4513260781
 40
0.710516265
 40
1.0
 40
1.0
 40
1.0
 40
1.0
 10
23.9396233249
 20
72.269861286
 30
0.0
 10
23.9068311211
 20
72.2509288258
 30
0.0
 10
23.83718391
 20
72.2183681383
 30
0.0
 10
23.684330266
 20
72.176021526
 30
0.0
 10
23.4701584901
 20
72.1703016742
 30
0.0
 10
23.2020159567
 20
72.235214239
 30
0.0
 10
23.0273904397
 20
72.3182354457
 30
0.0
 10
22.9396327916
 20
72.3689012013
 30
0.0
  0
SPLINE
  5
258
100
AcDbEntity
  8
0
100
AcDbSpline
 62
7
  6
BYLAYER
 70
0
 71
3
 72
19
 73
15
 74
0
 42
0.0000001
 43
0.0000001
 44
0.0000000001
 40
0.0
 40
0.0
 40
0.0
 40
0.0
 40
0.0427987578
 40
0.0871700885
 40
0.1344288276
 40
0.1854553305
 40
0.2407113422
 40
0.3002575242
 40
0.363861659
 40
0.4310386566
 40
0.573211454
 40
0.7203142374
 40
0.864894285
 40
1.0
 40
1.0
 40
1.0
 40
1.0
 10
21.2361850162
 20
24.696170599
 30
0.0
 10
21.1839808254
 20
24.6660254155
 30
0.0
 10
21.0696770066
 20
24.6175200979
 30
0.0
 10
20.8815057578
 20
24.585726707
 30
0.0
 10
20.6794607751
 20
24.5944056488
 30
0.0
 10
20.4675944022
 20
24.6424787371
 30
0.0
 10
20.2496987987
 20
24.7287579583
 30
0.0
 10
20.0295962664
 20
24.8512724171
 30
0.0
 10
19.8112793308
 20
25.0077479921
 30
0.0
 10
19.5225723458
 20
25.2624319476
 30
0.0
 10
19.1938050117
 20
25.645470209
 30
0.0
 10
18.8735693415
 20
26.1688241057
 30
0.0
 10
18.6430925819
 20
26.7266572319
 30
0.0
 10
18.5564176432
 20
27.1138623953
 30
0.0
 10
18.5352347307
 20
27.3029783418
 30
0.0
  0
SPLINE
  5
259
100
AcDbEntity
  8
0
100
AcDbSpline
 62
7
  6
BYLAYER
 70
0
 71
3
 72
12
 73
8
 74
0
 42
0.0000001
 43
0.0000001
 44
0.0000000001
 40
0.0
 40
0.0
 40
0.0
 40
0.0
 40
0.1081711684
 40
0.2183745344
 40
0.4513260781
 40
0.710516265
 40
1.0
 40
1.0
 40
1.0
 40
1.0
 10
48.688463705
 20
8.99128985
 30
0.0
 10
48.6556715013
 20
8.9723573898
 30
0.0
 10
48.5860242901
 20
8.9397967023
 30
0.0
 10
48.4331706462
 20
8.8974500901
 30
0.0
 10
48.2189988702
 20
8.8917302382
 30
0.0
 10
47.9508563369
 20
8.956642803
 30
0.0
 10
47.7762308199
 20
9.0396640098
 30
0.0
 10
47.6884731717
 20
9.0903297653
 30
0.0
  0
SPLINE
  5
25A
100
AcDbEntity
  8
0
100
AcDbSpline
 62
7
  6
BYLAYER
 70
0
 71
3
 72
19
 73
15
 74
0
 42
0.0000001
 43
0.0000001
 44
0.0000000001
 40
0.0
 40
0.0
 40
0.0
 40
0.0
 40
0.0428394104
 40
0.0874448899
 40
0.1352571039
 40
0.1871950253
 40
0.2436735499
 40
0.3046656819
 40
0.4382689093
 40
0.5825434307
 40
0.7296392143
 40
0.871166535
 40
0.9376088396
 40
1.0
 40
1.0
 40
1.0
 40
1.0
 10
45.9850253964
 20
59.3978892186
 30
0.0
 10
45.9295579584
 20
59.3658596809
 30
0.0
 10
45.8072706438
 20
59.3150822448
 30
0.0
 10
45.6054426067
 20
59.2854543148
 30
0.0
 10
45.3886996147
 20
59.3014401058
 30
0.0
 10
45.161867268
 20
59.3616906158
 30
0.0
 10
44.9293741193
 20
59.4644149939
 30
0.0
 10
44.6084494822
 20
59.6608670158
 30
0.0
 10
44.2261262993
 20
59.9994413971
 30
0.0
 10
43.833172077
 20
60.5025320364
 30
0.0
 10
43.5237504361
 20
61.0743111832
 30
0.0
 10
43.3525352999
 20
61.5803449212
 30
0.0
 10
43.2817476384
 20
61.9789436618
 30
0.0
 10
43.2690373896
 20
62.1717007315
 30
0.0
 10
43.2690373896
 20
62.2649843431
 30
0.0
  0
ENDSEC
  0
SECTION
  2
OBJECTS
  0
DICTIONARY
  5
C
100
AcDbDictionary
280
0
281
1
  3
ACAD_GROUP
350
D
  3
ACAD_MLINESTYLE
350
17
  3
ACAD_LAYOUT
350
1A
  3
ACAD_PLOTSETTINGS
350
19
  3
ACAD_PLOTSTYLENAME
350
E
  0
DICTIONARY
  5
D
102
{ACAD_REACTORS
330
C
102
}
100
AcDbDictionary
280
0
281
1
  0
ACDBDICTIONARYWDFLT
  5
E
102
{ACAD_REACTORS
330
C
102
}
100
AcDbDictionary
281
1
  3
Normal
350
F
100
AcDbDictionaryWithDefault
340
F
  0
DICTIONARY
  5
17
102
{ACAD_REACTORS
330
C
102
}
100
AcDbDictionary
280
0
281
1
  3
Standard
350
18
  0
DICTIONARY
  5
19
102
{ACAD_REACTORS
330
C
102
}
100
AcDbDictionary
281
1
  0
DICTIONARY
  5
1A
102
{ACAD_REACTORS
330
C
102
}
100
AcDbDictionary
281
1
  3
Model
350
25B
  3
Layout1
350
25C
  0
ACDBPLACEHOLDER
  5
F
102
{ACAD_REACTORS
330
E
102
}
  0
MLINESTYLE
  5
18
102
{ACAD_REACTORS
330
17
102
}
100
AcDbMlineStyle
  2
STANDARD
 70
0
  3

 62
256
 51
90.0
 52
90.0
 71
2
 49
0.5
 62
256
  6
BYLAYER
 49
-0.5
 62
256
  6
BYLAYER
  0
LAYOUT
  5
25B
102
{ACAD_REACTORS
330
1A
102
}
100
AcDbPlotSettings
  1

  2
none_device
  4

  6

 40
0.0
 41
0.0
 42
0.0
 43
0.0
 44
210.0
 45
297.0
 46
0.0
 47
0.0
 48
0.0
 49
0.0
140
0.0
141
0.0
142
1.0
143
1.0
 70
1024
 72
1
 73
0
 74
0
  7

 75
0
147
1.0
148
0.0
149
0.0
100
AcDbLayout
  1
Model
 70
0
 71
0
 10
0.0
 20
0.0
 11
210.0
 21
297.0
 12
0.0
 22
0.0
 32
0.0
 14
0.0
 24
0.0
 34
0.0
 15
0.0
 25
0.0
 35
0.0
146
0.0
 13
0.0
 23
0.0
 33
0.0
 16
1.0
 26
0.0
 36
0.0
 17
0.0
 27
1.0
 37
0.0
 76
0
330
210
345
0
346
0
  0
LAYOUT
  5
25C
102
{ACAD_REACTORS
330
1A
102
}
100
AcDbPlotSettings
  1

  2
none_device
  4

  6

 40
0.0
 41
0.0
 42
0.0
 43
0.0
 44
210.0
 45
297.0
 46
0.0
 47
0.0
 48
0.0
 49
0.0
140
0.0
141
0.0
142
1.0
143
1.0
 70
0
 72
1
 73
0
 74
0
  7

 75
0
147
1.0
148
0.0
149
0.0
100
AcDbLayout
  1
Layout1
 70
0
 71
1
 10
0.0
 20
0.0
 11
210.0
 21
297.0
 12
0.0
 22
0.0
 32
0.0
 14
0.0
 24
0.0
 34
0.0
 15
0.0
 25
0.0
 35
0.0
146
0.0
 13
0.0
 23
0.0
 33
0.0
 16
1.0
 26
0.0
 36
0.0
 17
0.0
 27
1.0
 37
0.0
 76
0
330
211
345
0
346
0
  0
ENDSEC
  0
EOF
