999
DXF file: C:\Users\sesa63760\Dev\_Creo\CAD\MCADID0003597_3D-CAD\drw0001_7.dxf
999
Pro/ENGINEER 2019471 by Parametric Technology Corporation
  0
SECTION
  2
HEADER
  9
$ACADVER
  1
AC1024
  9
$DWGCODEPAGE
  3
ANSI_1252
  9
$EXTMAX
 10
95.2341414141
 20
134.6882857143
 30
0.0
  9
$EXTMIN
 10
0.0
 20
0.0
 30
0.0
  9
$LIMMIN
 10
0.0
 20
0.0
  9
$LIMMAX
 10
95.2341414141
 20
134.6882857143
  9
$VIEWCTR
 10
47.6170707071
 20
67.3441428571
  9
$VIEWSIZE
 40
134.6882857143
  9
$CLAYER
  8
0
  9
$LTSCALE
 40
8.7796808466
  9
$CELTYPE
  6
BYLAYER
  9
$DIMSCALE
 40
1.0
  9
$DIMASZ
 40
1.1337397787
  9
$DIMEXO
 40
1.0
  9
$DIMDLI
 40
6.0659613122
  9
$DIMEXE
 40
1.0
  9
$DIMCEN
 40
1.4366750476
  9
$DIMLFAC
 40
1.0
  9
$DIMBLK
  1
_FILLED
  9
$DIMALT
 70
0
  9
$DIMALTF
 40
0.0393700787
  9
$DIMTXT
 40
1.5872356902
  9
$DIMTOL
 70
1
  9
$DIMLIM
 70
0
  9
$DIMTFAC
 40
1.0
  9
$DIMTP
 40
0.01
  9
$DIMTM
 40
0.01
  9
$DIMGAP
 40
0.625
  9
$DIMDSEP
 70
46
  9
$AUNITS
 70
0
  9
$PDMODE
 70
3
  9
$PDSIZE
 40
0.3125
  9
$HANDSEED
  5
2B0
  9
$TILEMODE
 70
1
  9
$MEASUREMENT
 70
1
  9
$INSUNITS
 70
4
  0
ENDSEC
  0
SECTION
  2
CLASSES
  0
CLASS
  1
ACDBDICTIONARYWDFLT
  2
AcDbDictionaryWithDefault
  3
AutoCAD 2000
 90
0
 91
1
280
0
281
0
  0
CLASS
  1
ACDBPLACEHOLDER
  2
AcDbPlaceHolder
  3
AutoCAD 2000
 90
0
 91
1
280
0
281
0
  0
CLASS
  1
LAYOUT
  2
AcDbLayout
  3
AutoCAD 2000
 90
0
 91
0
280
0
281
0
  0
ENDSEC
  0
SECTION
  2
TABLES
  0
TABLE
  2
VPORT
  5
8
100
AcDbSymbolTable
 70
2
  0
VPORT
  5
1F4
100
AcDbSymbolTableRecord
100
AcDbViewportTableRecord
  2
*ACTIVE
 70
0
 10
0.0
 20
0.0
 11
1.0
 21
1.0
 12
47.6170707071
 22
67.3441428571
 13
0.0
 23
0.0
 14
1.0
 24
1.0
 15
0.0
 25
0.0
 16
0.0
 26
0.0
 36
1.0
 17
0.0
 27
0.0
 37
0.0
 40
134.6882857143
 41
0.7070707071
 42
50.0
 43
0.0
 44
0.0
 50
0.0
 51
0.0
 71
0
 72
100
 73
1
 74
1
 75
0
 76
0
 77
0
 78
0
  0
ENDTAB
  0
TABLE
  2
LTYPE
  5
5
100
AcDbSymbolTable
 70
6
  0
LTYPE
  5
14
100
AcDbSymbolTableRecord
100
AcDbLinetypeTableRecord
  2
BYBLOCK
 70
0
  3

 72
65
 73
0
 40
0.0
  0
LTYPE
  5
15
100
AcDbSymbolTableRecord
100
AcDbLinetypeTableRecord
  2
BYLAYER
 70
0
  3

 72
65
 73
0
 40
0.0
  0
LTYPE
  5
16
100
AcDbSymbolTableRecord
100
AcDbLinetypeTableRecord
  2
CONTINUOUS
 70
64
  3
Solid line
 72
65
 73
0
 40
0.0
  0
LTYPE
  5
1F5
100
AcDbSymbolTableRecord
100
AcDbLinetypeTableRecord
  2
CENTER
 70
64
  3
____ _ ____ _ ____ _ ____ _ ____ _ ____ _ ____
 72
65
 73
4
 40
0.6
 49
0.375
 74
0
 49
-0.075
 74
0
 49
0.075
 74
0
 49
-0.075
 74
0
  0
LTYPE
  5
1F6
100
AcDbSymbolTableRecord
100
AcDbLinetypeTableRecord
  2
HIDDEN
 70
64
  3
- - - - - - - - - - - - - - - - - - - -
 72
65
 73
2
 40
0.2
 49
0.1
 74
0
 49
-0.1
 74
0
  0
LTYPE
  5
1F7
100
AcDbSymbolTableRecord
100
AcDbLinetypeTableRecord
  2
PHANTOM
 70
64
  3
_____ _ _ _____ _ _ _____ _ _ _____
 72
65
 73
6
 40
0.8
 49
0.45
 74
0
 49
-0.05
 74
0
 49
0.1
 74
0
 49
-0.05
 74
0
 49
0.1
 74
0
 49
-0.05
 74
0
  0
LTYPE
  5
1F8
100
AcDbSymbolTableRecord
100
AcDbLinetypeTableRecord
  2
DOT
 70
64
  3
. . . . . . . . . . . . . . . . . . . .
 72
65
 73
2
 40
0.2
 49
0.1
 74
0
 49
-0.1
 74
0
  0
LTYPE
  5
1F9
100
AcDbSymbolTableRecord
100
AcDbLinetypeTableRecord
  2
DASHED
 70
64
  3
- - - - - - - - - - - - - - - - - - - -
 72
65
 73
2
 40
0.2
 49
0.1
 74
0
 49
-0.1
 74
0
  0
ENDTAB
  0
TABLE
  2
LAYER
  5
2
100
AcDbSymbolTable
 70
36
  0
LAYER
  5
10
100
AcDbSymbolTableRecord
100
AcDbLayerTableRecord
  2
0
 70
0
 62
7
  6
CONTINUOUS
370
-3
390
F
  0
LAYER
  5
1FA
100
AcDbSymbolTableRecord
100
AcDbLayerTableRecord
  2
DEFAULT_1
 70
0
 62
7
  6
CENTER
370
-3
390
F
  0
LAYER
  5
1FB
100
AcDbSymbolTableRecord
100
AcDbLayerTableRecord
  2
DEFAULT_2
 70
0
 62
7
  6
HIDDEN
370
-3
390
F
  0
LAYER
  5
1FC
100
AcDbSymbolTableRecord
100
AcDbLayerTableRecord
  2
DEFAULT_3
 70
0
 62
7
  6
PHANTOM
370
-3
390
F
  0
LAYER
  5
1FD
100
AcDbSymbolTableRecord
100
AcDbLayerTableRecord
  2
00_COMPONENTS
 70
0
 62
7
  6
CONTINUOUS
370
-3
390
F
  0
LAYER
  5
1FE
100
AcDbSymbolTableRecord
100
AcDbLayerTableRecord
  2
01_1_DEFAULT_DATUMS
 70
0
 62
7
  6
CONTINUOUS
370
-3
390
F
  0
LAYER
  5
1FF
100
AcDbSymbolTableRecord
100
AcDbLayerTableRecord
  2
01_PLANES
 70
0
 62
7
  6
CONTINUOUS
370
-3
390
F
  0
LAYER
  5
200
100
AcDbSymbolTableRecord
100
AcDbLayerTableRecord
  2
02_COORD_SYS
 70
0
 62
7
  6
CONTINUOUS
370
-3
390
F
  0
LAYER
  5
201
100
AcDbSymbolTableRecord
100
AcDbLayerTableRecord
  2
03_AXES
 70
0
 62
7
  6
CONTINUOUS
370
-3
390
F
  0
LAYER
  5
202
100
AcDbSymbolTableRecord
100
AcDbLayerTableRecord
  2
04_POINTS
 70
0
 62
7
  6
CONTINUOUS
370
-3
390
F
  0
LAYER
  5
203
100
AcDbSymbolTableRecord
100
AcDbLayerTableRecord
  2
05_CURVES
 70
0
 62
7
  6
CONTINUOUS
370
-3
390
F
  0
LAYER
  5
204
100
AcDbSymbolTableRecord
100
AcDbLayerTableRecord
  2
06_SURFS
 70
0
 62
7
  6
CONTINUOUS
370
-3
390
F
  0
LAYER
  5
205
100
AcDbSymbolTableRecord
100
AcDbLayerTableRecord
  2
07_COSMETICS
 70
0
 62
7
  6
CONTINUOUS
370
-3
390
F
  0
LAYER
  5
206
100
AcDbSymbolTableRecord
100
AcDbLayerTableRecord
  2
10_NOTES
 70
0
 62
7
  6
CONTINUOUS
370
-3
390
F
  0
LAYER
  5
207
100
AcDbSymbolTableRecord
100
AcDbLayerTableRecord
  2
11_NOTES_PUB
 70
0
 62
7
  6
CONTINUOUS
370
-3
390
F
  0
LAYER
  5
208
100
AcDbSymbolTableRecord
100
AcDbLayerTableRecord
  2
13_REF_GTOL
 70
0
 62
7
  6
CONTINUOUS
370
-3
390
F
  0
LAYER
  5
209
100
AcDbSymbolTableRecord
100
AcDbLayerTableRecord
  2
16_MISC
 70
0
 62
7
  6
CONTINUOUS
370
-3
390
F
  0
LAYER
  5
20A
100
AcDbSymbolTableRecord
100
AcDbLayerTableRecord
  2
17_NO_PRINT
 70
0
 62
7
  6
CONTINUOUS
370
-3
390
F
  0
LAYER
  5
20B
100
AcDbSymbolTableRecord
100
AcDbLayerTableRecord
  2
18_DATUM_CAMS_JOINTS
 70
0
 62
7
  6
CONTINUOUS
370
-3
390
F
  0
LAYER
  5
20C
100
AcDbSymbolTableRecord
100
AcDbLayerTableRecord
  2
19_DATUM_FUNCTIONAL
 70
0
 62
7
  6
CONTINUOUS
370
-3
390
F
  0
LAYER
  5
20D
100
AcDbSymbolTableRecord
100
AcDbLayerTableRecord
  2
20_DATUM_KINEMATIC_SCHEME
 70
0
 62
7
  6
CONTINUOUS
370
-3
390
F
  0
ENDTAB
  0
TABLE
  2
STYLE
  5
3
100
AcDbSymbolTable
 70
1
  0
STYLE
  5
11
100
AcDbSymbolTableRecord
100
AcDbTextStyleTableRecord
  2
STANDARD
 70
0
 40
0.0
 41
1.0
 50
0.0
 71
0
 42
0.2
  3
ARIAL.TTF
  4

  0
STYLE
  5
20E
100
AcDbSymbolTableRecord
100
AcDbTextStyleTableRecord
  2
TEXTSTYLE_1
 70
0
 40
0.0
 41
0.8
 50
0.0
 71
0
 42
0.2
  3
gdt
  4

  0
ENDTAB
  0
TABLE
  2
VIEW
  5
6
100
AcDbSymbolTable
 70
0
  0
ENDTAB
  0
TABLE
  2
UCS
  5
7
100
AcDbSymbolTable
 70
0
  0
ENDTAB
  0
TABLE
  2
APPID
  5
9
100
AcDbSymbolTable
 70
1
  0
APPID
  5
20F
100
AcDbSymbolTableRecord
100
AcDbRegAppTableRecord
  2
ACAD
 70
0
  0
ENDTAB
  0
TABLE
  2
BLOCK_RECORD
  5
1
100
AcDbSymbolTable
 70
0
  0
BLOCK_RECORD
  5
210
100
AcDbSymbolTableRecord
100
AcDbBlockTableRecord
  2
*Model_Space
  0
BLOCK_RECORD
  5
211
100
AcDbSymbolTableRecord
100
AcDbBlockTableRecord
  2
*Paper_Space
  0
BLOCK_RECORD
  5
212
100
AcDbSymbolTableRecord
100
AcDbBlockTableRecord
  2
_FILLED
  0
ENDTAB
  0
TABLE
  2
DIMSTYLE
  5
A
100
AcDbSymbolTable
 70
1
100
AcDbDimStyleTable
 71
0
  0
DIMSTYLE
105
213
100
AcDbSymbolTableRecord
100
AcDbDimStyleTableRecord
  2
STANDARD
 70
0
  3

  4

 40
1.0
 41
1.1337397787
 42
1.0
 43
0.38
 44
1.0
 45
0.0
 46
0.0
 47
0.01
 48
0.01
140
1.5872356902
141
0.09
142
0.0
143
25.4
144
1.0
145
0.0
146
1.0
147
0.625
 71
1
 72
0
 73
0
 74
0
 75
0
 76
0
 77
1
 78
8
 79
2
170
0
171
1
172
0
173
0
174
0
175
0
176
0
177
0
178
0
270
2
179
2
271
2
272
2
273
2
274
2
275
0
280
0
281
0
282
0
283
1
284
8
285
0
286
0
287
3
288
0
340
11
278
46
341
212
342
212
343
212
344
212
  0
ENDTAB
  0
ENDSEC
  0
SECTION
  2
BLOCKS
  0
BLOCK
  5
20
100
AcDbEntity
  8
0
100
AcDbBlockBegin
  2
*Model_Space
 70
0
 10
0.0
 20
0.0
 30
0.0
  3
*Model_Space
  1

  0
ENDBLK
  5
21
100
AcDbEntity
  8
0
100
AcDbBlockEnd
  0
BLOCK
  5
1C
100
AcDbEntity
  8
0
100
AcDbBlockBegin
  2
*Paper_Space
 70
0
 10
0.0
 20
0.0
 30
0.0
  3
*Paper_Space
  1

  0
ENDBLK
  5
1D
100
AcDbEntity
  8
0
100
AcDbBlockEnd
  0
BLOCK
  5
214
100
AcDbEntity
  8
0
100
AcDbBlockBegin
  2
_FILLED
 70
64
 10
0.0
 20
0.0
  3
_FILLED
  1

  0
SOLID
  5
215
100
AcDbEntity
  8
0
  6
BYBLOCK
 62
0
100
AcDbTrace
 10
0.0
 20
0.0
 11
-1.0
 21
0.25
 12
-1.0
 22
-0.25
 13
-1.0
 23
-0.25
  0
ENDBLK
  5
216
100
AcDbEntity
  8
0
  6
BYBLOCK
 62
0
100
AcDbBlockEnd
  0
ENDSEC
  0
SECTION
  2
ENTITIES
  0
LINE
  5
217
100
AcDbEntity
  8
0
100
AcDbLine
 62
7
  6
BYLAYER
 10
26.056930369
 20
119.4284025974
 11
21.756930369
 21
117.4738571429
  0
LINE
  5
218
100
AcDbEntity
  8
0
100
AcDbLine
 62
7
  6
BYLAYER
 10
65.756930369
 20
9.9738571429
 11
41.756930369
 21
9.9738571429
  0
LINE
  5
219
100
AcDbEntity
  8
0
100
AcDbLine
 62
7
  6
BYLAYER
 10
33.706930369
 20
11.4738571429
 11
73.806930369
 21
11.4738571429
  0
LINE
  5
21A
100
AcDbEntity
  8
0
100
AcDbLine
 62
7
  6
BYLAYER
 10
60.831930369
 20
11.5738571429
 11
46.681930369
 21
11.5738571429
  0
LINE
  5
21B
100
AcDbEntity
  8
0
100
AcDbLine
 62
7
  6
BYLAYER
 10
63.756930369
 20
14.5738571429
 11
60.831930369
 21
14.5738571429
  0
LINE
  5
21C
100
AcDbEntity
  8
0
100
AcDbLine
 62
7
  6
BYLAYER
 10
46.681930369
 20
14.5738571429
 11
43.756930369
 21
14.5738571429
  0
LINE
  5
21D
100
AcDbEntity
  8
0
100
AcDbLine
 62
7
  6
BYLAYER
 10
63.756930369
 20
14.8738571429
 11
60.831930369
 21
14.8738571429
  0
LINE
  5
21E
100
AcDbEntity
  8
0
100
AcDbLine
 62
7
  6
BYLAYER
 10
46.681930369
 20
14.8738571429
 11
43.756930369
 21
14.8738571429
  0
LINE
  5
21F
100
AcDbEntity
  8
0
100
AcDbLine
 62
7
  6
BYLAYER
 10
72.681930369
 20
27.1738571429
 11
68.756930369
 21
27.1738571429
  0
LINE
  5
220
100
AcDbEntity
  8
0
100
AcDbLine
 62
7
  6
BYLAYER
 10
38.756930369
 20
27.1738571429
 11
34.831930369
 21
27.1738571429
  0
LINE
  5
221
100
AcDbEntity
  8
0
100
AcDbLine
 62
7
  6
BYLAYER
 10
33.706930369
 20
27.4738571429
 11
38.756930369
 21
27.4738571429
  0
LINE
  5
222
100
AcDbEntity
  8
0
100
AcDbLine
 62
7
  6
BYLAYER
 10
68.756930369
 20
27.4738571429
 11
73.806930369
 21
27.4738571429
  0
LINE
  5
223
100
AcDbEntity
  8
0
100
AcDbLine
 62
7
  6
BYLAYER
 10
71.956930369
 20
29.2738571429
 11
60.831930369
 21
29.2738571429
  0
LINE
  5
224
100
AcDbEntity
  8
0
100
AcDbLine
 62
7
  6
BYLAYER
 10
46.681930369
 20
29.2738571429
 11
35.556930369
 21
29.2738571429
  0
LINE
  5
225
100
AcDbEntity
  8
0
100
AcDbLine
 62
7
  6
BYLAYER
 10
71.156930369
 20
30.0738571429
 11
36.356930369
 21
30.0738571429
  0
LINE
  5
226
100
AcDbEntity
  8
0
100
AcDbLine
 62
7
  6
BYLAYER
 10
36.956930369
 20
30.6738571429
 11
70.556930369
 21
30.6738571429
  0
LINE
  5
227
100
AcDbEntity
  8
0
100
AcDbLine
 62
7
  6
BYLAYER
 10
21.756930369
 20
97.9738571429
 11
21.756930369
 21
117.4738571429
  0
LINE
  5
228
100
AcDbEntity
  8
0
100
AcDbLine
 62
7
  6
BYLAYER
 10
24.056930369
 20
100.5738571429
 11
24.056930369
 21
104.9738571429
  0
LINE
  5
229
100
AcDbEntity
  8
0
100
AcDbLine
 62
7
  6
BYLAYER
 10
24.056930369
 20
112.9738571429
 11
24.056930369
 21
117.3738571429
  0
LINE
  5
22A
100
AcDbEntity
  8
0
100
AcDbLine
 62
7
  6
BYLAYER
 10
24.356930369
 20
100.2738571429
 11
24.356930369
 21
105.2738571429
  0
LINE
  5
22B
100
AcDbEntity
  8
0
100
AcDbLine
 62
7
  6
BYLAYER
 10
24.356930369
 20
112.6738571429
 11
24.356930369
 21
117.6738571429
  0
LINE
  5
22C
100
AcDbEntity
  8
0
100
AcDbLine
 62
7
  6
BYLAYER
 10
26.056930369
 20
98.8064589894
 11
26.056930369
 21
119.9738571429
  0
LINE
  5
22D
100
AcDbEntity
  8
0
100
AcDbLine
 62
7
  6
BYLAYER
 10
33.706930369
 20
92.9738571429
 11
33.706930369
 21
11.4738571429
  0
LINE
  5
22E
100
AcDbEntity
  8
0
100
AcDbLine
 62
7
  6
BYLAYER
 10
33.756930369
 20
27.4738571429
 11
33.756930369
 21
75.4738571429
  0
LINE
  5
22F
100
AcDbEntity
  8
0
100
AcDbLine
 62
7
  6
BYLAYER
 10
35.556930369
 20
29.2738571429
 11
35.556930369
 21
73.6738571429
  0
LINE
  5
230
100
AcDbEntity
  8
0
100
AcDbLine
 62
7
  6
BYLAYER
 10
36.106930369
 20
83.9838372225
 11
36.106930369
 21
78.9638770633
  0
LINE
  5
231
100
AcDbEntity
  8
0
100
AcDbLine
 62
7
  6
BYLAYER
 10
36.356930369
 20
30.0738571429
 11
36.356930369
 21
72.8738571429
  0
LINE
  5
232
100
AcDbEntity
  8
0
100
AcDbLine
 62
7
  6
BYLAYER
 10
36.956930369
 20
72.2738571429
 11
36.956930369
 21
30.6738571429
  0
LINE
  5
233
100
AcDbEntity
  8
0
100
AcDbLine
 62
7
  6
BYLAYER
 10
37.256930369
 20
93.3738571429
 11
37.256930369
 21
125.3738571429
  0
LINE
  5
234
100
AcDbEntity
  8
0
100
AcDbLine
 62
7
  6
BYLAYER
 10
38.256930369
 20
93.3738571429
 11
38.256930369
 21
104.4238571429
  0
LINE
  5
235
100
AcDbEntity
  8
0
100
AcDbLine
 62
7
  6
BYLAYER
 10
40.856930369
 20
120.5238571429
 11
40.856930369
 21
117.5238571429
  0
LINE
  5
236
100
AcDbEntity
  8
0
100
AcDbLine
 62
7
  6
BYLAYER
 10
41.406930369
 20
78.9638770633
 11
41.406930369
 21
83.9838372225
  0
LINE
  5
237
100
AcDbEntity
  8
0
100
AcDbLine
 62
7
  6
BYLAYER
 10
41.756930369
 20
9.9738571429
 11
41.756930369
 21
11.4738571429
  0
LINE
  5
238
100
AcDbEntity
  8
0
100
AcDbLine
 62
7
  6
BYLAYER
 10
43.756930369
 20
11.4738571429
 11
43.756930369
 21
22.4738571429
  0
LINE
  5
239
100
AcDbEntity
  8
0
100
AcDbLine
 62
7
  6
BYLAYER
 10
43.756930369
 20
80.4738571429
 11
43.756930369
 21
87.9738571429
  0
LINE
  5
23A
100
AcDbEntity
  8
0
100
AcDbLine
 62
7
  6
BYLAYER
 10
46.606930369
 20
80.9738571429
 11
46.606930369
 21
86.5738571429
  0
LINE
  5
23B
100
AcDbEntity
  8
0
100
AcDbLine
 62
7
  6
BYLAYER
 10
46.681930369
 20
11.5738571429
 11
46.681930369
 21
29.2738571429
  0
LINE
  5
23C
100
AcDbEntity
  8
0
100
AcDbLine
 62
7
  6
BYLAYER
 10
46.681930369
 20
73.6738571429
 11
46.681930369
 21
87.8738571429
  0
LINE
  5
23D
100
AcDbEntity
  8
0
100
AcDbLine
 62
7
  6
BYLAYER
 10
47.481930369
 20
11.4738571429
 11
47.481930369
 21
11.5738571429
  0
LINE
  5
23E
100
AcDbEntity
  8
0
100
AcDbLine
 62
7
  6
BYLAYER
 10
48.756930369
 20
87.8738571429
 11
48.756930369
 21
81.8738571429
  0
LINE
  5
23F
100
AcDbEntity
  8
0
100
AcDbLine
 62
7
  6
BYLAYER
 10
48.756930369
 20
15.8738571429
 11
48.756930369
 21
11.5738571429
  0
LINE
  5
240
100
AcDbEntity
  8
0
100
AcDbLine
 62
7
  6
BYLAYER
 10
70.556930369
 20
72.2738571429
 11
36.956930369
 21
72.2738571429
  0
LINE
  5
241
100
AcDbEntity
  8
0
100
AcDbLine
 62
7
  6
BYLAYER
 10
36.356930369
 20
72.8738571429
 11
71.156930369
 21
72.8738571429
  0
LINE
  5
242
100
AcDbEntity
  8
0
100
AcDbLine
 62
7
  6
BYLAYER
 10
35.556930369
 20
73.6738571429
 11
46.681930369
 21
73.6738571429
  0
LINE
  5
243
100
AcDbEntity
  8
0
100
AcDbLine
 62
7
  6
BYLAYER
 10
60.831930369
 20
73.6738571429
 11
71.956930369
 21
73.6738571429
  0
LINE
  5
244
100
AcDbEntity
  8
0
100
AcDbLine
 62
7
  6
BYLAYER
 10
33.706930369
 20
75.4738571429
 11
38.756930369
 21
75.4738571429
  0
LINE
  5
245
100
AcDbEntity
  8
0
100
AcDbLine
 62
7
  6
BYLAYER
 10
68.756930369
 20
75.4738571429
 11
73.806930369
 21
75.4738571429
  0
LINE
  5
246
100
AcDbEntity
  8
0
100
AcDbLine
 62
7
  6
BYLAYER
 10
58.756930369
 20
11.5738571429
 11
58.756930369
 21
15.8738571429
  0
LINE
  5
247
100
AcDbEntity
  8
0
100
AcDbLine
 62
7
  6
BYLAYER
 10
58.756930369
 20
81.8738571429
 11
58.756930369
 21
87.8738571429
  0
LINE
  5
248
100
AcDbEntity
  8
0
100
AcDbLine
 62
7
  6
BYLAYER
 10
60.031930369
 20
11.5738571429
 11
60.031930369
 21
11.4738571429
  0
LINE
  5
249
100
AcDbEntity
  8
0
100
AcDbLine
 62
7
  6
BYLAYER
 10
60.831930369
 20
87.8738571429
 11
60.831930369
 21
73.6738571429
  0
LINE
  5
24A
100
AcDbEntity
  8
0
100
AcDbLine
 62
7
  6
BYLAYER
 10
60.831930369
 20
29.2738571429
 11
60.831930369
 21
11.5738571429
  0
LINE
  5
24B
100
AcDbEntity
  8
0
100
AcDbLine
 62
7
  6
BYLAYER
 10
60.906930369
 20
86.5738571429
 11
60.906930369
 21
80.9738571429
  0
LINE
  5
24C
100
AcDbEntity
  8
0
100
AcDbLine
 62
7
  6
BYLAYER
 10
43.756930369
 20
80.4738571429
 11
46.681930369
 21
80.4738571429
  0
LINE
  5
24D
100
AcDbEntity
  8
0
100
AcDbLine
 62
7
  6
BYLAYER
 10
60.831930369
 20
80.4738571429
 11
63.756930369
 21
80.4738571429
  0
LINE
  5
24E
100
AcDbEntity
  8
0
100
AcDbLine
 62
7
  6
BYLAYER
 10
63.756930369
 20
11.4738571429
 11
63.756930369
 21
22.4738571429
  0
LINE
  5
24F
100
AcDbEntity
  8
0
100
AcDbLine
 62
7
  6
BYLAYER
 10
63.756930369
 20
80.4738571429
 11
63.756930369
 21
87.9738571429
  0
LINE
  5
250
100
AcDbEntity
  8
0
100
AcDbLine
 62
7
  6
BYLAYER
 10
43.756930369
 20
80.9738571429
 11
46.606930369
 21
80.9738571429
  0
LINE
  5
251
100
AcDbEntity
  8
0
100
AcDbLine
 62
7
  6
BYLAYER
 10
60.906930369
 20
80.9738571429
 11
63.756930369
 21
80.9738571429
  0
LINE
  5
252
100
AcDbEntity
  8
0
100
AcDbLine
 62
7
  6
BYLAYER
 10
65.756930369
 20
9.9738571429
 11
65.756930369
 21
11.4738571429
  0
LINE
  5
253
100
AcDbEntity
  8
0
100
AcDbLine
 62
7
  6
BYLAYER
 10
66.106930369
 20
18.9638770633
 11
66.106930369
 21
23.9838372225
  0
LINE
  5
254
100
AcDbEntity
  8
0
100
AcDbLine
 62
7
  6
BYLAYER
 10
66.656930369
 20
117.5238571429
 11
66.656930369
 21
120.5238571429
  0
LINE
  5
255
100
AcDbEntity
  8
0
100
AcDbLine
 62
7
  6
BYLAYER
 10
69.256930369
 20
104.4238571429
 11
69.256930369
 21
93.3738571429
  0
LINE
  5
256
100
AcDbEntity
  8
0
100
AcDbLine
 62
7
  6
BYLAYER
 10
46.606930369
 20
86.5738571429
 11
46.681930369
 21
86.5738571429
  0
LINE
  5
257
100
AcDbEntity
  8
0
100
AcDbLine
 62
7
  6
BYLAYER
 10
60.831930369
 20
86.5738571429
 11
60.906930369
 21
86.5738571429
  0
LINE
  5
258
100
AcDbEntity
  8
0
100
AcDbLine
 62
7
  6
BYLAYER
 10
46.681930369
 20
87.8738571429
 11
60.831930369
 21
87.8738571429
  0
LINE
  5
259
100
AcDbEntity
  8
0
100
AcDbLine
 62
7
  6
BYLAYER
 10
63.756930369
 20
87.9738571429
 11
43.756930369
 21
87.9738571429
  0
LINE
  5
25A
100
AcDbEntity
  8
0
100
AcDbLine
 62
7
  6
BYLAYER
 10
24.0754329102
 20
100.4990363727
 11
24.0297014495
 21
100.5238275645
  0
LINE
  5
25B
100
AcDbEntity
  8
0
100
AcDbLine
 62
7
  6
BYLAYER
 10
24.0764671236
 20
100.5009449819
 11
24.0307791006
 21
100.5258146025
  0
LINE
  5
25C
100
AcDbEntity
  8
0
100
AcDbLine
 62
7
  6
BYLAYER
 10
70.256930369
 20
93.3738571429
 11
70.256930369
 21
125.3738571429
  0
LINE
  5
25D
100
AcDbEntity
  8
0
100
AcDbLine
 62
7
  6
BYLAYER
 10
70.556930369
 20
30.6738571429
 11
70.556930369
 21
72.2738571429
  0
LINE
  5
25E
100
AcDbEntity
  8
0
100
AcDbLine
 62
7
  6
BYLAYER
 10
71.156930369
 20
72.8738571429
 11
71.156930369
 21
30.0738571429
  0
LINE
  5
25F
100
AcDbEntity
  8
0
100
AcDbLine
 62
7
  6
BYLAYER
 10
71.406930369
 20
23.9838372225
 11
71.406930369
 21
18.9638770633
  0
LINE
  5
260
100
AcDbEntity
  8
0
100
AcDbLine
 62
7
  6
BYLAYER
 10
71.956930369
 20
73.6738571429
 11
71.956930369
 21
29.2738571429
  0
LINE
  5
261
100
AcDbEntity
  8
0
100
AcDbLine
 62
7
  6
BYLAYER
 10
73.806930369
 20
92.9738571429
 11
33.706930369
 21
92.9738571429
  0
LINE
  5
262
100
AcDbEntity
  8
0
100
AcDbLine
 62
7
  6
BYLAYER
 10
70.256930369
 20
93.3738571429
 11
37.256930369
 21
93.3738571429
  0
LINE
  5
263
100
AcDbEntity
  8
0
100
AcDbLine
 62
7
  6
BYLAYER
 10
73.756930369
 20
75.4738571429
 11
73.756930369
 21
27.4738571429
  0
LINE
  5
264
100
AcDbEntity
  8
0
100
AcDbLine
 62
7
  6
BYLAYER
 10
73.806930369
 20
11.4738571429
 11
73.806930369
 21
92.9738571429
  0
LINE
  5
265
100
AcDbEntity
  8
0
100
AcDbLine
 62
7
  6
BYLAYER
 10
21.756930369
 20
97.9738571429
 11
37.256930369
 21
97.9738571429
  0
LINE
  5
266
100
AcDbEntity
  8
0
100
AcDbLine
 62
7
  6
BYLAYER
 10
37.256930369
 20
98.3220974912
 11
21.756930369
 21
98.3220974912
  0
LINE
  5
267
100
AcDbEntity
  8
0
100
AcDbLine
 62
7
  6
BYLAYER
 10
21.756930369
 20
98.8064589894
 11
26.056930369
 21
98.8064589894
  0
LINE
  5
268
100
AcDbEntity
  8
0
100
AcDbLine
 62
7
  6
BYLAYER
 10
26.056930369
 20
99.2906298826
 11
21.756930369
 21
99.2906298826
  0
LINE
  5
269
100
AcDbEntity
  8
0
100
AcDbLine
 62
7
  6
BYLAYER
 10
26.056930369
 20
100.2738571429
 11
24.356930369
 21
100.2738571429
  0
LINE
  5
26A
100
AcDbEntity
  8
0
100
AcDbLine
 62
7
  6
BYLAYER
 10
26.056930369
 20
100.3530026766
 11
37.256930369
 21
100.3530026766
  0
LINE
  5
26B
100
AcDbEntity
  8
0
100
AcDbLine
 62
7
  6
BYLAYER
 10
37.256930369
 20
102.7738571429
 11
26.056930369
 21
102.7738571429
  0
LINE
  5
26C
100
AcDbEntity
  8
0
100
AcDbLine
 62
7
  6
BYLAYER
 10
37.256930369
 20
104.4238571429
 11
70.256930369
 21
104.4238571429
  0
LINE
  5
26D
100
AcDbEntity
  8
0
100
AcDbLine
 62
7
  6
BYLAYER
 10
26.056930369
 20
104.4738571429
 11
37.256930369
 21
104.4738571429
  0
LINE
  5
26E
100
AcDbEntity
  8
0
100
AcDbLine
 62
7
  6
BYLAYER
 10
26.056930369
 20
105.2738571429
 11
24.356930369
 21
105.2738571429
  0
LINE
  5
26F
100
AcDbEntity
  8
0
100
AcDbLine
 62
7
  6
BYLAYER
 10
37.256930369
 20
105.8959802238
 11
70.256930369
 21
105.8959802238
  0
LINE
  5
270
100
AcDbEntity
  8
0
100
AcDbLine
 62
7
  6
BYLAYER
 10
26.056930369
 20
105.9459802238
 11
37.256930369
 21
105.9459802238
  0
LINE
  5
271
100
AcDbEntity
  8
0
100
AcDbLine
 62
7
  6
BYLAYER
 10
25.5691498818
 20
105.9738571429
 11
21.756930369
 21
105.9738571429
  0
LINE
  5
272
100
AcDbEntity
  8
0
100
AcDbLine
 62
7
  6
BYLAYER
 10
25.5688692463
 20
106.3548095372
 11
21.756930369
 21
106.3548095372
  0
LINE
  5
273
100
AcDbEntity
  8
0
100
AcDbLine
 62
7
  6
BYLAYER
 10
70.256930369
 20
107.723603321
 11
37.256930369
 21
107.723603321
  0
LINE
  5
274
100
AcDbEntity
  8
0
100
AcDbLine
 62
7
  6
BYLAYER
 10
37.256930369
 20
107.773603321
 11
26.056930369
 21
107.773603321
  0
LINE
  5
275
100
AcDbEntity
  8
0
100
AcDbLine
 62
7
  6
BYLAYER
 10
37.256930369
 20
110.1241109647
 11
70.256930369
 21
110.1241109647
  0
LINE
  5
276
100
AcDbEntity
  8
0
100
AcDbLine
 62
7
  6
BYLAYER
 10
26.056930369
 20
110.1741109647
 11
37.256930369
 21
110.1741109647
  0
LINE
  5
277
100
AcDbEntity
  8
0
100
AcDbLine
 62
7
  6
BYLAYER
 10
21.756930369
 20
111.5929047486
 11
25.56886925
 21
111.5929047486
  0
LINE
  5
278
100
AcDbEntity
  8
0
100
AcDbLine
 62
7
  6
BYLAYER
 10
70.256930369
 20
111.9517340619
 11
37.256930369
 21
111.9517340619
  0
LINE
  5
279
100
AcDbEntity
  8
0
100
AcDbLine
 62
7
  6
BYLAYER
 10
21.756930369
 20
111.9738571429
 11
25.5688027199
 21
111.9738571429
  0
LINE
  5
27A
100
AcDbEntity
  8
0
100
AcDbLine
 62
7
  6
BYLAYER
 10
37.256930369
 20
112.0017340619
 11
26.056930369
 21
112.0017340619
  0
LINE
  5
27B
100
AcDbEntity
  8
0
100
AcDbLine
 62
7
  6
BYLAYER
 10
26.056930369
 20
112.6738571429
 11
24.356930369
 21
112.6738571429
  0
LINE
  5
27C
100
AcDbEntity
  8
0
100
AcDbLine
 62
7
  6
BYLAYER
 10
37.256930369
 20
113.4238571429
 11
70.256930369
 21
113.4238571429
  0
LINE
  5
27D
100
AcDbEntity
  8
0
100
AcDbLine
 62
7
  6
BYLAYER
 10
26.056930369
 20
113.4738571429
 11
37.256930369
 21
113.4738571429
  0
LINE
  5
27E
100
AcDbEntity
  8
0
100
AcDbLine
 62
7
  6
BYLAYER
 10
26.056930369
 20
115.1738571429
 11
37.256930369
 21
115.1738571429
  0
LINE
  5
27F
100
AcDbEntity
  8
0
100
AcDbLine
 62
7
  6
BYLAYER
 10
40.856930369
 20
117.5238571429
 11
66.656930369
 21
117.5238571429
  0
LINE
  5
280
100
AcDbEntity
  8
0
100
AcDbLine
 62
7
  6
BYLAYER
 10
37.256930369
 20
117.5947116091
 11
26.056930369
 21
117.5947116091
  0
LINE
  5
281
100
AcDbEntity
  8
0
100
AcDbLine
 62
7
  6
BYLAYER
 10
26.056930369
 20
117.6738571429
 11
24.356930369
 21
117.6738571429
  0
LINE
  5
282
100
AcDbEntity
  8
0
100
AcDbLine
 62
7
  6
BYLAYER
 10
26.056930369
 20
119.6256167942
 11
37.256930369
 21
119.6256167945
  0
LINE
  5
283
100
AcDbEntity
  8
0
100
AcDbLine
 62
7
  6
BYLAYER
 10
37.256930369
 20
119.9738571429
 11
26.056930369
 21
119.9738571429
  0
LINE
  5
284
100
AcDbEntity
  8
0
100
AcDbLine
 62
7
  6
BYLAYER
 10
66.656930369
 20
120.5238571429
 11
40.856930369
 21
120.5238571429
  0
LINE
  5
285
100
AcDbEntity
  8
0
100
AcDbLine
 62
7
  6
BYLAYER
 10
70.256930369
 20
125.3738571429
 11
37.256930369
 21
125.3738571429
  0
ARC
  5
286
100
AcDbEntity
  8
0
100
AcDbCircle
 62
7
  6
BYLAYER
 10
34.5387074093
 20
1544.6529659815
 40
1439.0579696914
100
AcDbArc
 50
269.4910896185
 51
269.626617897
  0
ARC
  5
287
100
AcDbEntity
  8
0
100
AcDbCircle
 62
7
  6
BYLAYER
 10
33.6906948953
 20
-1216.5611492829
 40
1328.9106929886
100
AcDbArc
 50
90.3677666258
 51
90.5145292513
  0
ARC
  5
288
100
AcDbEntity
  8
0
100
AcDbCircle
 62
7
  6
BYLAYER
 10
125.8041497665
 20
291.516384061
 40
215.9839767195
100
AcDbArc
 50
242.3076375391
 51
242.494940273
  0
ARC
  5
289
100
AcDbEntity
  8
0
100
AcDbCircle
 62
7
  6
BYLAYER
 10
107.5433088661
 20
254.7937592244
 40
175.4246851975
100
AcDbArc
 50
241.7433481165
 51
242.3215376794
  0
ARC
  5
28A
100
AcDbEntity
  8
0
100
AcDbCircle
 62
7
  6
BYLAYER
 10
77.9507315182
 20
200.1510027182
 40
113.2830592488
100
AcDbArc
 50
240.2611390238
 51
241.5765012904
  0
ARC
  5
28B
100
AcDbEntity
  8
0
100
AcDbCircle
 62
7
  6
BYLAYER
 10
68.756930369
 20
22.1738571429
 40
5.0
100
AcDbArc
 50
90.0
 51
176.5761708947
  0
ARC
  5
28C
100
AcDbEntity
  8
0
100
AcDbCircle
 62
7
  6
BYLAYER
 10
38.756930369
 20
22.1738571429
 40
5.0
100
AcDbArc
 50
3.4238005084
 51
90.0
  0
ARC
  5
28D
100
AcDbEntity
  8
0
100
AcDbCircle
 62
7
  6
BYLAYER
 10
38.756930369
 20
80.4738571429
 40
5.0
100
AcDbArc
 50
270.0
 51
360.0
  0
ARC
  5
28E
100
AcDbEntity
  8
0
100
AcDbCircle
 62
7
  6
BYLAYER
 10
38.756930369
 20
22.4738571429
 40
5.0
100
AcDbArc
 50
0.0
 51
90.0
  0
ARC
  5
28F
100
AcDbEntity
  8
0
100
AcDbCircle
 62
7
  6
BYLAYER
 10
53.756930369
 20
15.8738571429
 40
5.0
100
AcDbArc
 50
0.0
 51
180.0
  0
ARC
  5
290
100
AcDbEntity
  8
0
100
AcDbCircle
 62
7
  6
BYLAYER
 10
53.756930369
 20
81.8738571429
 40
5.0
100
AcDbArc
 50
180.0
 51
360.0
  0
ARC
  5
291
100
AcDbEntity
  8
0
100
AcDbCircle
 62
7
  6
BYLAYER
 10
68.756930369
 20
80.4738571429
 40
5.0
100
AcDbArc
 50
180.0
 51
270.0
  0
ARC
  5
292
100
AcDbEntity
  8
0
100
AcDbCircle
 62
7
  6
BYLAYER
 10
68.756930369
 20
22.4738571429
 40
5.0
100
AcDbArc
 50
90.0
 51
180.0
  0
ARC
  5
293
100
AcDbEntity
  8
0
100
AcDbCircle
 62
7
  6
BYLAYER
 10
38.756930369
 20
81.4738571429
 40
3.65
100
AcDbArc
 50
223.4456175992
 51
316.5543824008
  0
ARC
  5
294
100
AcDbEntity
  8
0
100
AcDbCircle
 62
7
  6
BYLAYER
 10
38.756930369
 20
81.4738571429
 40
3.65
100
AcDbArc
 50
43.4456175992
 51
136.5543824008
  0
ARC
  5
295
100
AcDbEntity
  8
0
100
AcDbCircle
 62
7
  6
BYLAYER
 10
68.756930369
 20
21.4738571429
 40
3.65
100
AcDbArc
 50
43.4456175992
 51
136.5543824008
  0
ARC
  5
296
100
AcDbEntity
  8
0
100
AcDbCircle
 62
7
  6
BYLAYER
 10
68.756930369
 20
21.4738571429
 40
3.65
100
AcDbArc
 50
223.4456175992
 51
316.5543824008
  0
CIRCLE
  5
297
100
AcDbEntity
  8
0
100
AcDbCircle
 62
7
  6
BYLAYER
 10
38.756930369
 20
21.4738571429
 40
2.65
  0
CIRCLE
  5
298
100
AcDbEntity
  8
0
100
AcDbCircle
 62
7
  6
BYLAYER
 10
68.756930369
 20
81.4738571429
 40
2.65
  0
CIRCLE
  5
299
100
AcDbEntity
  8
0
100
AcDbCircle
 62
7
  6
BYLAYER
 10
53.756930369
 20
81.8738571429
 40
2.65
  0
CIRCLE
  5
29A
100
AcDbEntity
  8
0
100
AcDbCircle
 62
7
  6
BYLAYER
 10
53.756930369
 20
15.8738571429
 40
2.15
  0
CIRCLE
  5
29B
100
AcDbEntity
  8
0
100
AcDbCircle
 62
7
  6
BYLAYER
 10
53.756930369
 20
81.8738571429
 40
2.0
  0
CIRCLE
  5
29C
100
AcDbEntity
  8
0
100
AcDbCircle
 62
7
  6
BYLAYER
 10
53.756930369
 20
15.8738571429
 40
1.75
  0
ARC
  5
29D
100
AcDbEntity
  8
0
100
AcDbCircle
 62
7
  6
BYLAYER
 10
34.831930369
 20
28.2488571429
 40
1.075
100
AcDbArc
 50
228.06863299
 51
270.0
  0
ARC
  5
29E
100
AcDbEntity
  8
0
100
AcDbCircle
 62
7
  6
BYLAYER
 10
72.681930369
 20
28.2488571429
 40
1.075
100
AcDbArc
 50
270.0
 51
311.9294475717
  0
ARC
  5
29F
100
AcDbEntity
  8
0
100
AcDbCircle
 62
7
  6
BYLAYER
 10
24.356930369
 20
117.3738571429
 40
0.3
100
AcDbArc
 50
90.0
 51
180.0
  0
ARC
  5
2A0
100
AcDbEntity
  8
0
100
AcDbCircle
 62
7
  6
BYLAYER
 10
24.356930369
 20
112.9738571429
 40
0.3
100
AcDbArc
 50
180.0
 51
270.0
  0
ARC
  5
2A1
100
AcDbEntity
  8
0
100
AcDbCircle
 62
7
  6
BYLAYER
 10
24.356930369
 20
104.9738571429
 40
0.3
100
AcDbArc
 50
90.0
 51
180.0
  0
ARC
  5
2A2
100
AcDbEntity
  8
0
100
AcDbCircle
 62
7
  6
BYLAYER
 10
24.356930369
 20
100.5738571429
 40
0.3
100
AcDbArc
 50
180.0
 51
270.0
  0
SPLINE
  5
2A3
100
AcDbEntity
  8
0
100
AcDbSpline
 62
7
  6
BYLAYER
 70
0
 71
3
 72
27
 73
23
 74
0
 42
0.0000001
 43
0.0000001
 44
0.0000000001
 40
0.0
 40
0.0
 40
0.0
 40
0.0
 40
0.1232659395
 40
0.1842557672
 40
0.2446837239
 40
0.3044098665
 40
0.3632450756
 40
0.4209619767
 40
0.4493854943
 40
0.4775350132
 40
0.5055340453
 40
0.5336631364
 40
0.5623787013
 40
0.5921616769
 40
0.6232449589
 40
0.6555213924
 40
0.6887085117
 40
0.7225248669
 40
0.7912181131
 40
0.8606322084
 40
0.9302989267
 40
1.0
 40
1.0
 40
1.0
 40
1.0
 10
25.1608288372
 20
112.3221641865
 30
0.0
 10
24.9369915531
 20
112.3435053327
 30
0.0
 10
24.6032139245
 20
112.3868714285
 30
0.0
 10
24.1654103858
 20
112.4745050846
 30
0.0
 10
23.845255066
 20
112.5570642677
 30
0.0
 10
23.5350714417
 20
112.6600815338
 30
0.0
 10
23.2397711328
 20
112.7885532376
 30
0.0
 10
23.0112682047
 20
112.9241391571
 30
0.0
 10
22.8488228995
 20
113.0554294352
 30
0.0
 10
22.7412322725
 20
113.1666648377
 30
0.0
 10
22.6522642726
 20
113.2929805412
 30
0.0
 10
22.5886814657
 20
113.4353547141
 30
0.0
 10
22.5579959711
 20
113.5918532532
 30
0.0
 10
22.5646567767
 20
113.7565222936
 30
0.0
 10
22.6069597129
 20
113.9221329804
 30
0.0
 10
22.6788969958
 20
114.0835873632
 30
0.0
 10
22.7736745549
 20
114.2383622835
 30
0.0
 10
22.9235756146
 20
114.4357184081
 30
0.0
 10
23.1414294838
 20
114.6626025776
 30
0.0
 10
23.4295559759
 20
114.909339252
 30
0.0
 10
23.7353302401
 20
115.1367573684
 30
0.0
 10
23.9468969319
 20
115.2778850724
 30
0.0
 10
24.0540652246
 20
115.3462985106
 30
0.0
  0
SPLINE
  5
2A4
100
AcDbEntity
  8
0
100
AcDbSpline
 62
7
  6
BYLAYER
 70
0
 71
3
 72
9
 73
5
 74
0
 42
0.0000001
 43
0.0000001
 44
0.0000000001
 40
0.0
 40
0.0
 40
0.0
 40
0.0
 40
0.250551828
 40
1.0
 40
1.0
 40
1.0
 40
1.0
 10
25.5687486208
 20
111.9738565536
 30
0.0
 10
25.609545133
 20
111.97385629
 30
0.0
 10
25.7723675159
 20
111.9749697923
 30
0.0
 10
25.9351761318
 20
111.9808432026
 30
0.0
 10
26.0569658936
 20
111.9884986499
 30
0.0
  0
SPLINE
  5
2A5
100
AcDbEntity
  8
0
100
AcDbSpline
 62
7
  6
BYLAYER
 70
0
 71
3
 72
8
 73
4
 74
0
 42
0.0000001
 43
0.0000001
 44
0.0000000001
 40
0.0
 40
0.0
 40
0.0
 40
0.0
 40
1.0
 40
1.0
 40
1.0
 40
1.0
 10
26.056930369
 20
106.3294566131
 30
0.0
 10
25.8950110848
 20
106.3473605569
 30
0.0
 10
25.7317761532
 20
106.3547373513
 30
0.0
 10
25.5688700435
 20
106.3548095372
 30
0.0
  0
SPLINE
  5
2A6
100
AcDbEntity
  8
0
100
AcDbSpline
 62
7
  6
BYLAYER
 70
0
 71
3
 72
28
 73
24
 74
0
 42
0.0000001
 43
0.0000001
 44
0.0000000001
 40
0.0
 40
0.0
 40
0.0
 40
0.0
 40
0.0002908008
 40
0.0011482773
 40
0.0025730955
 40
0.0045638799
 40
0.0102368953
 40
0.0181542292
 40
0.0283027139
 40
0.040669348
 40
0.0552413313
 40
0.0719997604
 40
0.1119233752
 40
0.1601216228
 40
0.2162896028
 40
0.2800856876
 40
0.3509870653
 40
0.4284589205
 40
0.5120401659
 40
0.6011872745
 40
0.6952331104
 40
0.7935506486
 40
1.0
 40
1.0
 40
1.0
 40
1.0
 10
25.5688692262
 20
105.9738571429
 30
0.0
 10
25.5688322829
 20
105.9738571429
 30
0.0
 10
25.5688728635
 20
105.974087237
 30
0.0
 10
25.5687983959
 20
105.9743322621
 30
0.0
 10
25.568805783
 20
105.974920435
 30
0.0
 10
25.5687517592
 20
105.976046759
 30
0.0
 10
25.5687296561
 20
105.9780465184
 30
0.0
 10
25.5686977298
 20
105.9810523162
 30
0.0
 10
25.5687003164
 20
105.9849223383
 30
0.0
 10
25.5687343272
 20
105.9896324009
 30
0.0
 10
25.5688155802
 20
105.995183595
 30
0.0
 10
25.5690032173
 20
106.0042335529
 30
0.0
 10
25.5692766144
 20
106.0175549008
 30
0.0
 10
25.5694231023
 20
106.035885691
 30
0.0
 10
25.5691543312
 20
106.0572492736
 30
0.0
 10
25.5683380452
 20
106.0814835527
 30
0.0
 10
25.5676092602
 20
106.1084278099
 30
0.0
 10
25.5674798534
 20
106.1379012518
 30
0.0
 10
25.5686219048
 20
106.1696718589
 30
0.0
 10
25.5703660365
 20
106.2035164231
 30
0.0
 10
25.5718382981
 20
106.2392530328
 30
0.0
 10
25.5721886667
 20
106.2899269882
 30
0.0
 10
25.5705240156
 20
106.3286345086
 30
0.0
 10
25.5688692463
 20
106.3548095372
 30
0.0
  0
SPLINE
  5
2A7
100
AcDbEntity
  8
0
100
AcDbSpline
 62
7
  6
BYLAYER
 70
0
 71
3
 72
8
 73
4
 74
0
 42
0.0000001
 43
0.0000001
 44
0.0000000001
 40
0.0
 40
0.0
 40
0.0
 40
0.0
 40
1.0
 40
1.0
 40
1.0
 40
1.0
 10
25.5688700408
 20
111.5929047486
 30
0.0
 10
25.731775893
 20
111.5929943654
 30
0.0
 10
25.8950118056
 20
111.6003350302
 30
0.0
 10
26.056930369
 20
111.6182432281
 30
0.0
  0
SPLINE
  5
2A8
100
AcDbEntity
  8
0
100
AcDbSpline
 62
7
  6
BYLAYER
 70
0
 71
3
 72
27
 73
23
 74
0
 42
0.0000001
 43
0.0000001
 44
0.0000000001
 40
0.0
 40
0.0
 40
0.0
 40
0.0
 40
0.0002899131
 40
0.0011464775
 40
0.0025701836
 40
0.0045596881
 40
0.0102298609
 40
0.0181443369
 40
0.02829036
 40
0.04065529
 40
0.0552265503
 40
0.0719828571
 40
0.1118977431
 40
0.1600883544
 40
0.2162542283
 40
0.2800384046
 40
0.3509264351
 40
0.4284030898
 40
0.6011393275
 40
0.695191035
 40
0.7935280464
 40
1.0
 40
1.0
 40
1.0
 40
1.0
 10
25.5688692302
 20
111.9738571429
 30
0.0
 10
25.5688324049
 20
111.9738571429
 30
0.0
 10
25.5688760116
 20
111.9736268583
 30
0.0
 10
25.5688016898
 20
111.9733825388
 30
0.0
 10
25.568812522
 20
111.972794521
 30
0.0
 10
25.5687620748
 20
111.9716690634
 30
0.0
 10
25.5687455058
 20
111.9696702782
 30
0.0
 10
25.5687181475
 20
111.9666659739
 30
0.0
 10
25.5687234527
 20
111.9627973799
 30
0.0
 10
25.5687564077
 20
111.9580886156
 30
0.0
 10
25.5688324726
 20
111.9525387258
 30
0.0
 10
25.5689982385
 20
111.9434911059
 30
0.0
 10
25.5692273499
 20
111.9301731705
 30
0.0
 10
25.5693356479
 20
111.911847167
 30
0.0
 10
25.5690620486
 20
111.89049004
 30
0.0
 10
25.5683675735
 20
111.8662591896
 30
0.0
 10
25.5677880299
 20
111.839317651
 30
0.0
 10
25.5677583128
 20
111.7985234152
 30
0.0
 10
25.5698734657
 20
111.7548338477
 30
0.0
 10
25.5713575878
 20
111.7084773108
 30
0.0
 10
25.5715453931
 20
111.6578064497
 30
0.0
 10
25.5701821858
 20
111.619098295
 30
0.0
 10
25.56886925
 20
111.5929047486
 30
0.0
  0
SPLINE
  5
2A9
100
AcDbEntity
  8
0
100
AcDbSpline
 62
7
  6
BYLAYER
 70
0
 71
3
 72
9
 73
5
 74
0
 42
0.0000001
 43
0.0000001
 44
0.0000000001
 40
0.0
 40
0.0
 40
0.0
 40
0.0
 40
0.2493366556
 40
1.0
 40
1.0
 40
1.0
 40
1.0
 10
26.0569658227
 20
105.9592157332
 30
0.0
 10
26.0164990936
 20
105.9617593008
 30
0.0
 10
25.8541116919
 20
105.9705161995
 30
0.0
 10
25.6914501789
 20
105.9738498564
 30
0.0
 10
25.5693789248
 20
105.9738576866
 30
0.0
  0
SPLINE
  5
2AA
100
AcDbEntity
  8
0
100
AcDbSpline
 62
7
  6
BYLAYER
 70
0
 71
3
 72
9
 73
5
 74
0
 42
0.0000001
 43
0.0000001
 44
0.0000000001
 40
0.0
 40
0.0
 40
0.0
 40
0.0
 40
0.2490476091
 40
1.0
 40
1.0
 40
1.0
 40
1.0
 10
25.1608288389
 20
105.6255500996
 30
0.0
 10
25.2349989028
 20
105.6326216648
 30
0.0
 10
25.5331204811
 20
105.657759176
 30
0.0
 10
25.832289886
 20
105.66997135
 30
0.0
 10
26.056930369
 20
105.6728498967
 30
0.0
  0
SPLINE
  5
2AB
100
AcDbEntity
  8
0
100
AcDbSpline
 62
7
  6
BYLAYER
 70
0
 71
3
 72
27
 73
23
 74
0
 42
0.0000001
 43
0.0000001
 44
0.0000000001
 40
0.0
 40
0.0
 40
0.0
 40
0.0
 40
0.1232659116
 40
0.1842557198
 40
0.24468365
 40
0.3044097516
 40
0.3632449057
 40
0.420961721
 40
0.4493851664
 40
0.477534605
 40
0.5055336092
 40
0.5336627629
 40
0.5623783839
 40
0.5921614082
 40
0.6232447945
 40
0.6555212918
 40
0.6887084521
 40
0.722524832
 40
0.7912181174
 40
0.8606322106
 40
0.9302989313
 40
1.0
 40
1.0
 40
1.0
 40
1.0
 10
25.1608288389
 20
105.6255500996
 30
0.0
 10
24.9369912235
 20
105.6042089129
 30
0.0
 10
24.6032131099
 20
105.5608427423
 30
0.0
 10
24.1654089716
 20
105.4732088778
 30
0.0
 10
23.8452532795
 20
105.3906495035
 30
0.0
 10
23.5350694
 20
105.2876319393
 30
0.0
 10
23.2397689814
 20
105.1591599278
 30
0.0
 10
23.0112661652
 20
105.0235736895
 30
0.0
 10
22.8488210895
 20
104.8922832434
 30
0.0
 10
22.7412307443
 20
104.7810476638
 30
0.0
 10
22.6522629028
 20
104.6547315983
 30
0.0
 10
22.5886806746
 20
104.5123566963
 30
0.0
 10
22.5579955385
 20
104.3558574784
 30
0.0
 10
22.5646575566
 20
104.1911878111
 30
0.0
 10
22.606961247
 20
104.0255766308
 30
0.0
 10
22.6788996198
 20
103.8641219709
 30
0.0
 10
22.7736780077
 20
103.7093469338
 30
0.0
 10
22.9235800166
 20
103.5119907555
 30
0.0
 10
23.1414349199
 20
103.2851066974
 30
0.0
 10
23.4295622758
 20
103.0383699315
 30
0.0
 10
23.7353374136
 20
102.8109519119
 30
0.0
 10
23.9469045732
 20
102.669824135
 30
0.0
 10
24.0540731332
 20
102.6014107271
 30
0.0
  0
SPLINE
  5
2AC
100
AcDbEntity
  8
0
100
AcDbSpline
 62
7
  6
BYLAYER
 70
0
 71
3
 72
9
 73
5
 74
0
 42
0.0000001
 43
0.0000001
 44
0.0000000001
 40
0.0
 40
0.0
 40
0.0
 40
0.0
 40
0.2498942663
 40
1.0
 40
1.0
 40
1.0
 40
1.0
 10
21.7569303766
 20
102.2658766517
 30
0.0
 10
21.9472013669
 20
102.15838705
 30
0.0
 10
22.7099824779
 20
101.7306813071
 30
0.0
 10
23.4778020458
 20
101.3119944599
 30
0.0
 10
24.0557963234
 20
101.001798893
 30
0.0
  0
SPLINE
  5
2AD
100
AcDbEntity
  8
0
100
AcDbSpline
 62
7
  6
BYLAYER
 70
0
 71
3
 72
9
 73
5
 74
0
 42
0.0000001
 43
0.0000001
 44
0.0000000001
 40
0.0
 40
0.0
 40
0.0
 40
0.0
 40
0.2490480466
 40
1.0
 40
1.0
 40
1.0
 40
1.0
 10
25.1608288372
 20
112.3221641865
 30
0.0
 10
25.234999033
 20
112.3150926282
 30
0.0
 10
25.5331206345
 20
112.2899554225
 30
0.0
 10
25.8322900178
 20
112.277742934
 30
0.0
 10
26.056930369
 20
112.274864389
 30
0.0
  0
ENDSEC
  0
SECTION
  2
OBJECTS
  0
DICTIONARY
  5
C
100
AcDbDictionary
280
0
281
1
  3
ACAD_GROUP
350
D
  3
ACAD_MLINESTYLE
350
17
  3
ACAD_LAYOUT
350
1A
  3
ACAD_PLOTSETTINGS
350
19
  3
ACAD_PLOTSTYLENAME
350
E
  0
DICTIONARY
  5
D
102
{ACAD_REACTORS
330
C
102
}
100
AcDbDictionary
280
0
281
1
  0
ACDBDICTIONARYWDFLT
  5
E
102
{ACAD_REACTORS
330
C
102
}
100
AcDbDictionary
281
1
  3
Normal
350
F
100
AcDbDictionaryWithDefault
340
F
  0
DICTIONARY
  5
17
102
{ACAD_REACTORS
330
C
102
}
100
AcDbDictionary
280
0
281
1
  3
Standard
350
18
  0
DICTIONARY
  5
19
102
{ACAD_REACTORS
330
C
102
}
100
AcDbDictionary
281
1
  0
DICTIONARY
  5
1A
102
{ACAD_REACTORS
330
C
102
}
100
AcDbDictionary
281
1
  3
Model
350
2AE
  3
Layout1
350
2AF
  0
ACDBPLACEHOLDER
  5
F
102
{ACAD_REACTORS
330
E
102
}
  0
MLINESTYLE
  5
18
102
{ACAD_REACTORS
330
17
102
}
100
AcDbMlineStyle
  2
STANDARD
 70
0
  3

 62
256
 51
90.0
 52
90.0
 71
2
 49
0.5
 62
256
  6
BYLAYER
 49
-0.5
 62
256
  6
BYLAYER
  0
LAYOUT
  5
2AE
102
{ACAD_REACTORS
330
1A
102
}
100
AcDbPlotSettings
  1

  2
none_device
  4

  6

 40
0.0
 41
0.0
 42
0.0
 43
0.0
 44
210.0
 45
297.0
 46
0.0
 47
0.0
 48
0.0
 49
0.0
140
0.0
141
0.0
142
1.0
143
1.0
 70
1024
 72
1
 73
0
 74
0
  7

 75
0
147
1.0
148
0.0
149
0.0
100
AcDbLayout
  1
Model
 70
0
 71
0
 10
0.0
 20
0.0
 11
210.0
 21
297.0
 12
0.0
 22
0.0
 32
0.0
 14
0.0
 24
0.0
 34
0.0
 15
0.0
 25
0.0
 35
0.0
146
0.0
 13
0.0
 23
0.0
 33
0.0
 16
1.0
 26
0.0
 36
0.0
 17
0.0
 27
1.0
 37
0.0
 76
0
330
210
345
0
346
0
  0
LAYOUT
  5
2AF
102
{ACAD_REACTORS
330
1A
102
}
100
AcDbPlotSettings
  1

  2
none_device
  4

  6

 40
0.0
 41
0.0
 42
0.0
 43
0.0
 44
210.0
 45
297.0
 46
0.0
 47
0.0
 48
0.0
 49
0.0
140
0.0
141
0.0
142
1.0
143
1.0
 70
0
 72
1
 73
0
 74
0
  7

 75
0
147
1.0
148
0.0
149
0.0
100
AcDbLayout
  1
Layout1
 70
0
 71
1
 10
0.0
 20
0.0
 11
210.0
 21
297.0
 12
0.0
 22
0.0
 32
0.0
 14
0.0
 24
0.0
 34
0.0
 15
0.0
 25
0.0
 35
0.0
146
0.0
 13
0.0
 23
0.0
 33
0.0
 16
1.0
 26
0.0
 36
0.0
 17
0.0
 27
1.0
 37
0.0
 76
0
330
211
345
0
346
0
  0
ENDSEC
  0
EOF
