999
DXF file: C:\Users\sesa63760\Dev\_Creo\CAD\MCADID0004765_3D-CAD\drw0001_6.dxf
999
Pro/ENGINEER 2019471 by Parametric Technology Corporation
  0
SECTION
  2
HEADER
  9
$ACADVER
  1
AC1024
  9
$DWGCODEPAGE
  3
ANSI_1252
  9
$EXTMAX
 10
34.129699622
 20
48.2691466083
 30
0.0
  9
$EXTMIN
 10
0.0
 20
0.0
 30
0.0
  9
$LIMMIN
 10
0.0
 20
0.0
  9
$LIMMAX
 10
34.129699622
 20
48.2691466083
  9
$VIEWCTR
 10
17.064849811
 20
24.1345733042
  9
$VIEWSIZE
 40
48.2691466083
  9
$CLAYER
  8
0
  9
$LTSCALE
 40
3.1464332604
  9
$CELTYPE
  6
BYLAYER
  9
$DIMSCALE
 40
1.0
  9
$DIMASZ
 40
0.4063059479
  9
$DIMEXO
 40
1.0
  9
$DIMDLI
 40
2.1738993435
  9
$DIMEXE
 40
1.0
  9
$DIMCEN
 40
0.5148708972
  9
$DIMLFAC
 40
1.0
  9
$DIMBLK
  1
_FILLED
  9
$DIMALT
 70
0
  9
$DIMALTF
 40
0.0393700787
  9
$DIMTXT
 40
0.568828327
  9
$DIMTOL
 70
1
  9
$DIMLIM
 70
0
  9
$DIMTFAC
 40
1.0
  9
$DIMTP
 40
0.01
  9
$DIMTM
 40
0.01
  9
$DIMGAP
 40
0.625
  9
$DIMDSEP
 70
46
  9
$AUNITS
 70
0
  9
$PDMODE
 70
3
  9
$PDSIZE
 40
0.3125
  9
$HANDSEED
  5
2A5
  9
$TILEMODE
 70
1
  9
$MEASUREMENT
 70
1
  9
$INSUNITS
 70
4
  0
ENDSEC
  0
SECTION
  2
CLASSES
  0
CLASS
  1
ACDBDICTIONARYWDFLT
  2
AcDbDictionaryWithDefault
  3
AutoCAD 2000
 90
0
 91
1
280
0
281
0
  0
CLASS
  1
ACDBPLACEHOLDER
  2
AcDbPlaceHolder
  3
AutoCAD 2000
 90
0
 91
1
280
0
281
0
  0
CLASS
  1
LAYOUT
  2
AcDbLayout
  3
AutoCAD 2000
 90
0
 91
0
280
0
281
0
  0
ENDSEC
  0
SECTION
  2
TABLES
  0
TABLE
  2
VPORT
  5
8
100
AcDbSymbolTable
 70
2
  0
VPORT
  5
1F4
100
AcDbSymbolTableRecord
100
AcDbViewportTableRecord
  2
*ACTIVE
 70
0
 10
0.0
 20
0.0
 11
1.0
 21
1.0
 12
17.064849811
 22
24.1345733042
 13
0.0
 23
0.0
 14
1.0
 24
1.0
 15
0.0
 25
0.0
 16
0.0
 26
0.0
 36
1.0
 17
0.0
 27
0.0
 37
0.0
 40
48.2691466083
 41
0.7070707071
 42
50.0
 43
0.0
 44
0.0
 50
0.0
 51
0.0
 71
0
 72
100
 73
1
 74
1
 75
0
 76
0
 77
0
 78
0
  0
ENDTAB
  0
TABLE
  2
LTYPE
  5
5
100
AcDbSymbolTable
 70
6
  0
LTYPE
  5
14
100
AcDbSymbolTableRecord
100
AcDbLinetypeTableRecord
  2
BYBLOCK
 70
0
  3

 72
65
 73
0
 40
0.0
  0
LTYPE
  5
15
100
AcDbSymbolTableRecord
100
AcDbLinetypeTableRecord
  2
BYLAYER
 70
0
  3

 72
65
 73
0
 40
0.0
  0
LTYPE
  5
16
100
AcDbSymbolTableRecord
100
AcDbLinetypeTableRecord
  2
CONTINUOUS
 70
64
  3
Solid line
 72
65
 73
0
 40
0.0
  0
LTYPE
  5
1F5
100
AcDbSymbolTableRecord
100
AcDbLinetypeTableRecord
  2
CENTER
 70
64
  3
____ _ ____ _ ____ _ ____ _ ____ _ ____ _ ____
 72
65
 73
4
 40
0.6
 49
0.375
 74
0
 49
-0.075
 74
0
 49
0.075
 74
0
 49
-0.075
 74
0
  0
LTYPE
  5
1F6
100
AcDbSymbolTableRecord
100
AcDbLinetypeTableRecord
  2
HIDDEN
 70
64
  3
- - - - - - - - - - - - - - - - - - - -
 72
65
 73
2
 40
0.2
 49
0.1
 74
0
 49
-0.1
 74
0
  0
LTYPE
  5
1F7
100
AcDbSymbolTableRecord
100
AcDbLinetypeTableRecord
  2
PHANTOM
 70
64
  3
_____ _ _ _____ _ _ _____ _ _ _____
 72
65
 73
6
 40
0.8
 49
0.45
 74
0
 49
-0.05
 74
0
 49
0.1
 74
0
 49
-0.05
 74
0
 49
0.1
 74
0
 49
-0.05
 74
0
  0
LTYPE
  5
1F8
100
AcDbSymbolTableRecord
100
AcDbLinetypeTableRecord
  2
DOT
 70
64
  3
. . . . . . . . . . . . . . . . . . . .
 72
65
 73
2
 40
0.2
 49
0.1
 74
0
 49
-0.1
 74
0
  0
LTYPE
  5
1F9
100
AcDbSymbolTableRecord
100
AcDbLinetypeTableRecord
  2
DASHED
 70
64
  3
- - - - - - - - - - - - - - - - - - - -
 72
65
 73
2
 40
0.2
 49
0.1
 74
0
 49
-0.1
 74
0
  0
ENDTAB
  0
TABLE
  2
LAYER
  5
2
100
AcDbSymbolTable
 70
36
  0
LAYER
  5
10
100
AcDbSymbolTableRecord
100
AcDbLayerTableRecord
  2
0
 70
0
 62
7
  6
CONTINUOUS
370
-3
390
F
  0
LAYER
  5
1FA
100
AcDbSymbolTableRecord
100
AcDbLayerTableRecord
  2
DEFAULT_1
 70
0
 62
7
  6
CENTER
370
-3
390
F
  0
LAYER
  5
1FB
100
AcDbSymbolTableRecord
100
AcDbLayerTableRecord
  2
DEFAULT_2
 70
0
 62
7
  6
HIDDEN
370
-3
390
F
  0
LAYER
  5
1FC
100
AcDbSymbolTableRecord
100
AcDbLayerTableRecord
  2
DEFAULT_3
 70
0
 62
7
  6
PHANTOM
370
-3
390
F
  0
LAYER
  5
1FD
100
AcDbSymbolTableRecord
100
AcDbLayerTableRecord
  2
00_COMPONENTS
 70
0
 62
7
  6
CONTINUOUS
370
-3
390
F
  0
LAYER
  5
1FE
100
AcDbSymbolTableRecord
100
AcDbLayerTableRecord
  2
01_1_DEFAULT_DATUMS
 70
0
 62
7
  6
CONTINUOUS
370
-3
390
F
  0
LAYER
  5
1FF
100
AcDbSymbolTableRecord
100
AcDbLayerTableRecord
  2
01_PLANES
 70
0
 62
7
  6
CONTINUOUS
370
-3
390
F
  0
LAYER
  5
200
100
AcDbSymbolTableRecord
100
AcDbLayerTableRecord
  2
02_COORD_SYS
 70
0
 62
7
  6
CONTINUOUS
370
-3
390
F
  0
LAYER
  5
201
100
AcDbSymbolTableRecord
100
AcDbLayerTableRecord
  2
03_AXES
 70
0
 62
7
  6
CONTINUOUS
370
-3
390
F
  0
LAYER
  5
202
100
AcDbSymbolTableRecord
100
AcDbLayerTableRecord
  2
04_POINTS
 70
0
 62
7
  6
CONTINUOUS
370
-3
390
F
  0
LAYER
  5
203
100
AcDbSymbolTableRecord
100
AcDbLayerTableRecord
  2
05_CURVES
 70
0
 62
7
  6
CONTINUOUS
370
-3
390
F
  0
LAYER
  5
204
100
AcDbSymbolTableRecord
100
AcDbLayerTableRecord
  2
06_SURFS
 70
0
 62
7
  6
CONTINUOUS
370
-3
390
F
  0
LAYER
  5
205
100
AcDbSymbolTableRecord
100
AcDbLayerTableRecord
  2
07_COSMETICS
 70
0
 62
7
  6
CONTINUOUS
370
-3
390
F
  0
LAYER
  5
206
100
AcDbSymbolTableRecord
100
AcDbLayerTableRecord
  2
10_NOTES
 70
0
 62
7
  6
CONTINUOUS
370
-3
390
F
  0
LAYER
  5
207
100
AcDbSymbolTableRecord
100
AcDbLayerTableRecord
  2
11_NOTES_PUB
 70
0
 62
7
  6
CONTINUOUS
370
-3
390
F
  0
LAYER
  5
208
100
AcDbSymbolTableRecord
100
AcDbLayerTableRecord
  2
13_REF_GTOL
 70
0
 62
7
  6
CONTINUOUS
370
-3
390
F
  0
LAYER
  5
209
100
AcDbSymbolTableRecord
100
AcDbLayerTableRecord
  2
16_MISC
 70
0
 62
7
  6
CONTINUOUS
370
-3
390
F
  0
LAYER
  5
20A
100
AcDbSymbolTableRecord
100
AcDbLayerTableRecord
  2
17_NO_PRINT
 70
0
 62
7
  6
CONTINUOUS
370
-3
390
F
  0
LAYER
  5
20B
100
AcDbSymbolTableRecord
100
AcDbLayerTableRecord
  2
18_DATUM_CAMS_JOINTS
 70
0
 62
7
  6
CONTINUOUS
370
-3
390
F
  0
LAYER
  5
20C
100
AcDbSymbolTableRecord
100
AcDbLayerTableRecord
  2
19_DATUM_FUNCTIONAL
 70
0
 62
7
  6
CONTINUOUS
370
-3
390
F
  0
LAYER
  5
20D
100
AcDbSymbolTableRecord
100
AcDbLayerTableRecord
  2
20_DATUM_KINEMATIC_SCHEME
 70
0
 62
7
  6
CONTINUOUS
370
-3
390
F
  0
ENDTAB
  0
TABLE
  2
STYLE
  5
3
100
AcDbSymbolTable
 70
1
  0
STYLE
  5
11
100
AcDbSymbolTableRecord
100
AcDbTextStyleTableRecord
  2
STANDARD
 70
0
 40
0.0
 41
1.0
 50
0.0
 71
0
 42
0.2
  3
ARIAL.TTF
  4

  0
STYLE
  5
20E
100
AcDbSymbolTableRecord
100
AcDbTextStyleTableRecord
  2
TEXTSTYLE_1
 70
0
 40
0.0
 41
0.8
 50
0.0
 71
0
 42
0.2
  3
gdt
  4

  0
ENDTAB
  0
TABLE
  2
VIEW
  5
6
100
AcDbSymbolTable
 70
0
  0
ENDTAB
  0
TABLE
  2
UCS
  5
7
100
AcDbSymbolTable
 70
0
  0
ENDTAB
  0
TABLE
  2
APPID
  5
9
100
AcDbSymbolTable
 70
1
  0
APPID
  5
20F
100
AcDbSymbolTableRecord
100
AcDbRegAppTableRecord
  2
ACAD
 70
0
  0
ENDTAB
  0
TABLE
  2
BLOCK_RECORD
  5
1
100
AcDbSymbolTable
 70
0
  0
BLOCK_RECORD
  5
210
100
AcDbSymbolTableRecord
100
AcDbBlockTableRecord
  2
*Model_Space
  0
BLOCK_RECORD
  5
211
100
AcDbSymbolTableRecord
100
AcDbBlockTableRecord
  2
*Paper_Space
  0
BLOCK_RECORD
  5
212
100
AcDbSymbolTableRecord
100
AcDbBlockTableRecord
  2
_FILLED
  0
ENDTAB
  0
TABLE
  2
DIMSTYLE
  5
A
100
AcDbSymbolTable
 70
1
100
AcDbDimStyleTable
 71
0
  0
DIMSTYLE
105
213
100
AcDbSymbolTableRecord
100
AcDbDimStyleTableRecord
  2
STANDARD
 70
0
  3

  4

 40
1.0
 41
0.4063059479
 42
1.0
 43
0.38
 44
1.0
 45
0.0
 46
0.0
 47
0.01
 48
0.01
140
0.568828327
141
0.09
142
0.0
143
25.4
144
1.0
145
0.0
146
1.0
147
0.625
 71
1
 72
0
 73
0
 74
0
 75
0
 76
0
 77
1
 78
8
 79
2
170
0
171
1
172
0
173
0
174
0
175
0
176
0
177
0
178
0
270
2
179
2
271
2
272
2
273
2
274
2
275
0
280
0
281
0
282
0
283
1
284
8
285
0
286
0
287
3
288
0
340
11
278
46
341
212
342
212
343
212
344
212
  0
ENDTAB
  0
ENDSEC
  0
SECTION
  2
BLOCKS
  0
BLOCK
  5
20
100
AcDbEntity
  8
0
100
AcDbBlockBegin
  2
*Model_Space
 70
0
 10
0.0
 20
0.0
 30
0.0
  3
*Model_Space
  1

  0
ENDBLK
  5
21
100
AcDbEntity
  8
0
100
AcDbBlockEnd
  0
BLOCK
  5
1C
100
AcDbEntity
  8
0
100
AcDbBlockBegin
  2
*Paper_Space
 70
0
 10
0.0
 20
0.0
 30
0.0
  3
*Paper_Space
  1

  0
ENDBLK
  5
1D
100
AcDbEntity
  8
0
100
AcDbBlockEnd
  0
BLOCK
  5
214
100
AcDbEntity
  8
0
100
AcDbBlockBegin
  2
_FILLED
 70
64
 10
0.0
 20
0.0
  3
_FILLED
  1

  0
SOLID
  5
215
100
AcDbEntity
  8
0
  6
BYBLOCK
 62
0
100
AcDbTrace
 10
0.0
 20
0.0
 11
-1.0
 21
0.25
 12
-1.0
 22
-0.25
 13
-1.0
 23
-0.25
  0
ENDBLK
  5
216
100
AcDbEntity
  8
0
  6
BYBLOCK
 62
0
100
AcDbBlockEnd
  0
ENDSEC
  0
SECTION
  2
ENTITIES
  0
LINE
  5
217
100
AcDbEntity
  8
0
100
AcDbLine
 62
7
  6
BYLAYER
 10
23.7371795337
 20
8.0220733042
 11
10.9833297168
 21
8.0220733042
  0
LINE
  5
218
100
AcDbEntity
  8
0
100
AcDbLine
 62
7
  6
BYLAYER
 10
24.0879023599
 20
8.4352492153
 11
22.6736887975
 21
8.4352492153
  0
LINE
  5
219
100
AcDbEntity
  8
0
100
AcDbLine
 62
7
  6
BYLAYER
 10
20.8169793506
 20
8.4352492153
 11
13.9035298995
 21
8.4352492153
  0
LINE
  5
21A
100
AcDbEntity
  8
0
100
AcDbLine
 62
7
  6
BYLAYER
 10
12.0468204525
 20
8.4352492153
 11
10.6326068902
 21
8.4352492153
  0
LINE
  5
21B
100
AcDbEntity
  8
0
100
AcDbLine
 62
7
  6
BYLAYER
 10
6.060254625
 20
13.1720733042
 11
5.860254625
 21
13.3720733042
  0
LINE
  5
21C
100
AcDbEntity
  8
0
100
AcDbLine
 62
7
  6
BYLAYER
 10
7.7819424615
 20
11.6220733042
 11
7.2149052057
 21
12.6042106409
  0
LINE
  5
21D
100
AcDbEntity
  8
0
100
AcDbLine
 62
7
  6
BYLAYER
 10
3.860254625
 20
18.8720733042
 11
3.860254625
 21
25.3720733042
  0
LINE
  5
21E
100
AcDbEntity
  8
0
100
AcDbLine
 62
7
  6
BYLAYER
 10
3.910254625
 20
26.6720733042
 11
3.910254625
 21
25.3720733042
  0
LINE
  5
21F
100
AcDbEntity
  8
0
100
AcDbLine
 62
7
  6
BYLAYER
 10
4.5601568134
 20
18.8720733042
 11
4.5601538796
 21
25.3720733042
  0
LINE
  5
220
100
AcDbEntity
  8
0
100
AcDbLine
 62
7
  6
BYLAYER
 10
4.610254625
 20
25.3720733042
 11
4.610254625
 21
27.1720733042
  0
LINE
  5
221
100
AcDbEntity
  8
0
100
AcDbLine
 62
7
  6
BYLAYER
 10
4.360254625
 20
27.1720733042
 11
4.5112728949
 21
28.898220027
  0
LINE
  5
222
100
AcDbEntity
  8
0
100
AcDbLine
 62
7
  6
BYLAYER
 10
11.3602547599
 20
36.172073783
 11
10.860254103
 21
35.6720731547
  0
LINE
  5
223
100
AcDbEntity
  8
0
100
AcDbLine
 62
7
  6
BYLAYER
 10
13.5846899223
 20
10.958897393
 11
21.1358193278
 21
10.958897393
  0
LINE
  5
224
100
AcDbEntity
  8
0
100
AcDbLine
 62
7
  6
BYLAYER
 10
26.5054989415
 20
11.3720733042
 11
8.2153541171
 21
11.3720733042
  0
LINE
  5
225
100
AcDbEntity
  8
0
100
AcDbLine
 62
7
  6
BYLAYER
 10
26.9385667885
 20
11.6220733042
 11
10.9501527944
 21
11.6220733042
  0
LINE
  5
226
100
AcDbEntity
  8
0
100
AcDbLine
 62
7
  6
BYLAYER
 10
10.2430460133
 20
11.6220733042
 11
7.7823603049
 21
11.6220733042
  0
LINE
  5
227
100
AcDbEntity
  8
0
100
AcDbLine
 62
7
  6
BYLAYER
 10
7.2149052057
 20
12.6042106409
 11
7.1479940601
 21
12.8454844377
  0
LINE
  5
228
100
AcDbEntity
  8
0
100
AcDbLine
 62
7
  6
BYLAYER
 10
5.360254625
 20
18.2720733042
 11
5.360254625
 21
18.8720733042
  0
LINE
  5
229
100
AcDbEntity
  8
0
100
AcDbLine
 62
7
  6
BYLAYER
 10
5.5189134789
 20
18.2720733042
 11
5.5189134789
 21
18.8720733042
  0
LINE
  5
22A
100
AcDbEntity
  8
0
100
AcDbLine
 62
7
  6
BYLAYER
 10
5.860254625
 20
13.3720733042
 11
5.860254625
 21
18.1720733042
  0
LINE
  5
22B
100
AcDbEntity
  8
0
100
AcDbLine
 62
7
  6
BYLAYER
 10
6.060254625
 20
18.3720733042
 11
6.060254625
 21
18.8720733042
  0
LINE
  5
22C
100
AcDbEntity
  8
0
100
AcDbLine
 62
7
  6
BYLAYER
 10
5.7136529901
 20
18.2720733042
 11
5.7218574036
 21
18.8720733042
  0
LINE
  5
22D
100
AcDbEntity
  8
0
100
AcDbLine
 62
7
  6
BYLAYER
 10
8.5860769259
 20
34.5603018718
 11
7.410254625
 21
30.1720733042
  0
LINE
  5
22E
100
AcDbEntity
  8
0
100
AcDbLine
 62
7
  6
BYLAYER
 10
7.2151079737
 20
12.6042106409
 11
9.8415733626
 21
12.6042106409
  0
LINE
  5
22F
100
AcDbEntity
  8
0
100
AcDbLine
 62
7
  6
BYLAYER
 10
10.5486801438
 20
12.6042106409
 11
27.5056040443
 21
12.6042106409
  0
LINE
  5
230
100
AcDbEntity
  8
0
100
AcDbLine
 62
7
  6
BYLAYER
 10
27.57251519
 20
12.8454844377
 11
10.5007810963
 21
12.8454844377
  0
LINE
  5
231
100
AcDbEntity
  8
0
100
AcDbLine
 62
7
  6
BYLAYER
 10
9.7946820257
 20
12.8454844377
 11
7.1481981653
 21
12.8454844377
  0
LINE
  5
232
100
AcDbEntity
  8
0
100
AcDbLine
 62
7
  6
BYLAYER
 10
7.1479940601
 20
12.8454844377
 11
7.1422934302
 21
13.1720733042
  0
LINE
  5
233
100
AcDbEntity
  8
0
100
AcDbLine
 62
7
  6
BYLAYER
 10
6.5795736507
 20
18.8720733042
 11
6.5795736507
 21
18.2720733042
  0
LINE
  5
234
100
AcDbEntity
  8
0
100
AcDbLine
 62
7
  6
BYLAYER
 10
7.410254625
 20
29.1720733042
 11
7.410254625
 21
30.1720733042
  0
LINE
  5
235
100
AcDbEntity
  8
0
100
AcDbLine
 62
7
  6
BYLAYER
 10
28.660254625
 20
13.1720733042
 11
26.060254625
 21
13.1720733042
  0
LINE
  5
236
100
AcDbEntity
  8
0
100
AcDbLine
 62
7
  6
BYLAYER
 10
8.660254625
 20
13.1720733042
 11
6.060254625
 21
13.1720733042
  0
LINE
  5
237
100
AcDbEntity
  8
0
100
AcDbLine
 62
7
  6
BYLAYER
 10
28.860254625
 20
13.3720733042
 11
25.860254625
 21
13.3720733042
  0
LINE
  5
238
100
AcDbEntity
  8
0
100
AcDbLine
 62
7
  6
BYLAYER
 10
8.860254625
 20
13.3720733042
 11
5.860254625
 21
13.3720733042
  0
LINE
  5
239
100
AcDbEntity
  8
0
100
AcDbLine
 62
7
  6
BYLAYER
 10
8.860254625
 20
18.1720733042
 11
8.760254625
 21
18.2720733042
  0
LINE
  5
23A
100
AcDbEntity
  8
0
100
AcDbLine
 62
7
  6
BYLAYER
 10
7.8778927152
 20
18.2720733042
 11
7.8778927152
 21
18.8720733042
  0
LINE
  5
23B
100
AcDbEntity
  8
0
100
AcDbLine
 62
7
  6
BYLAYER
 10
8.860254625
 20
13.3720733042
 11
8.860254625
 21
18.1720733042
  0
LINE
  5
23C
100
AcDbEntity
  8
0
100
AcDbLine
 62
7
  6
BYLAYER
 10
9.7321124067
 20
17.8720733042
 11
9.7941782056
 21
12.8454844377
  0
LINE
  5
23D
100
AcDbEntity
  8
0
100
AcDbLine
 62
7
  6
BYLAYER
 10
10.5012849868
 20
12.8454844377
 11
10.4392191879
 21
17.8720733042
  0
LINE
  5
23E
100
AcDbEntity
  8
0
100
AcDbLine
 62
7
  6
BYLAYER
 10
9.7321124067
 20
17.8720733042
 11
9.7321025811
 21
18.2720733042
  0
LINE
  5
23F
100
AcDbEntity
  8
0
100
AcDbLine
 62
7
  6
BYLAYER
 10
10.2977732676
 20
11.5207029787
 11
10.2977732676
 21
18.2720733042
  0
LINE
  5
240
100
AcDbEntity
  8
0
100
AcDbLine
 62
7
  6
BYLAYER
 10
10.4392093623
 20
18.2720733042
 11
10.4392191879
 21
17.8720733042
  0
LINE
  5
241
100
AcDbEntity
  8
0
100
AcDbLine
 62
7
  6
BYLAYER
 10
10.360254625
 20
27.1720733042
 11
10.2092363552
 21
28.898220027
  0
LINE
  5
242
100
AcDbEntity
  8
0
100
AcDbLine
 62
7
  6
BYLAYER
 10
11.8278331685
 20
18.8720733042
 11
11.8278331685
 21
18.2720733042
  0
LINE
  5
243
100
AcDbEntity
  8
0
100
AcDbLine
 62
7
  6
BYLAYER
 10
25.860254625
 20
17.8720733042
 11
10.4394590557
 21
17.8720733042
  0
LINE
  5
244
100
AcDbEntity
  8
0
100
AcDbLine
 62
7
  6
BYLAYER
 10
9.7316080287
 20
17.8720733042
 11
8.860254625
 21
17.8720733042
  0
LINE
  5
245
100
AcDbEntity
  8
0
100
AcDbLine
 62
7
  6
BYLAYER
 10
5.860254625
 20
18.1720733042
 11
8.860254625
 21
18.1720733042
  0
LINE
  5
246
100
AcDbEntity
  8
0
100
AcDbLine
 62
7
  6
BYLAYER
 10
25.860254625
 20
18.1720733042
 11
28.860254625
 21
18.1720733042
  0
LINE
  5
247
100
AcDbEntity
  8
0
100
AcDbLine
 62
7
  6
BYLAYER
 10
29.3602094157
 20
18.2720733042
 11
28.760254625
 21
18.2720733042
  0
LINE
  5
248
100
AcDbEntity
  8
0
100
AcDbLine
 62
7
  6
BYLAYER
 10
28.1409355993
 20
18.2720733042
 11
22.8926760816
 21
18.2720733042
  0
LINE
  5
249
100
AcDbEntity
  8
0
100
AcDbLine
 62
7
  6
BYLAYER
 10
11.8278331685
 20
18.2720733042
 11
6.5795736507
 21
18.2720733042
  0
LINE
  5
24A
100
AcDbEntity
  8
0
100
AcDbLine
 62
7
  6
BYLAYER
 10
5.960254625
 20
18.2720733042
 11
5.3602998344
 21
18.2720733042
  0
LINE
  5
24B
100
AcDbEntity
  8
0
100
AcDbLine
 62
7
  6
BYLAYER
 10
28.660254625
 20
18.3720733042
 11
28.1409355993
 21
18.3720733042
  0
LINE
  5
24C
100
AcDbEntity
  8
0
100
AcDbLine
 62
7
  6
BYLAYER
 10
6.5795736507
 20
18.3720733042
 11
6.060254625
 21
18.3720733042
  0
LINE
  5
24D
100
AcDbEntity
  8
0
100
AcDbLine
 62
7
  6
BYLAYER
 10
12.360254625
 20
36.1720733042
 11
12.360254625
 21
38.907327342
  0
LINE
  5
24E
100
AcDbEntity
  8
0
100
AcDbLine
 62
7
  6
BYLAYER
 10
30.860254625
 20
18.8720733042
 11
3.860254625
 21
18.8720733042
  0
LINE
  5
24F
100
AcDbEntity
  8
0
100
AcDbLine
 62
7
  6
BYLAYER
 10
5.860254625
 20
18.1720733042
 11
6.060254625
 21
18.3720733042
  0
LINE
  5
250
100
AcDbEntity
  8
0
100
AcDbLine
 62
7
  6
BYLAYER
 10
26.060254625
 20
13.1720733042
 11
25.860254625
 21
13.3720733042
  0
LINE
  5
251
100
AcDbEntity
  8
0
100
AcDbLine
 62
7
  6
BYLAYER
 10
3.860254625
 20
25.3720733042
 11
30.860254625
 21
25.3720733042
  0
LINE
  5
252
100
AcDbEntity
  8
0
100
AcDbLine
 62
7
  6
BYLAYER
 10
8.660254625
 20
13.1720733042
 11
8.860254625
 21
13.3720733042
  0
LINE
  5
253
100
AcDbEntity
  8
0
100
AcDbLine
 62
7
  6
BYLAYER
 10
3.910254625
 20
26.6720733042
 11
30.810254625
 21
26.6720733042
  0
LINE
  5
254
100
AcDbEntity
  8
0
100
AcDbLine
 62
7
  6
BYLAYER
 10
4.360254625
 20
27.1720733042
 11
30.360254625
 21
27.1720733042
  0
LINE
  5
255
100
AcDbEntity
  8
0
100
AcDbLine
 62
7
  6
BYLAYER
 10
9.0836758216
 20
28.3720733042
 11
9.686393732
 21
28.3720733042
  0
LINE
  5
256
100
AcDbEntity
  8
0
100
AcDbLine
 62
7
  6
BYLAYER
 10
29.0836758216
 20
28.3720733042
 11
29.686393732
 21
28.3720733042
  0
LINE
  5
257
100
AcDbEntity
  8
0
100
AcDbLine
 62
7
  6
BYLAYER
 10
28.860254625
 20
18.1720733042
 11
28.660254625
 21
18.3720733042
  0
LINE
  5
258
100
AcDbEntity
  8
0
100
AcDbLine
 62
7
  6
BYLAYER
 10
22.360254625
 20
36.1720733042
 11
22.360254625
 21
38.907327342
  0
LINE
  5
259
100
AcDbEntity
  8
0
100
AcDbLine
 62
7
  6
BYLAYER
 10
22.8926760816
 20
18.2720733042
 11
22.8926760816
 21
18.8720733042
  0
LINE
  5
25A
100
AcDbEntity
  8
0
100
AcDbLine
 62
7
  6
BYLAYER
 10
4.5112728949
 20
28.898220027
 11
9.039521336
 21
28.898220027
  0
LINE
  5
25B
100
AcDbEntity
  8
0
100
AcDbLine
 62
7
  6
BYLAYER
 10
9.6617237672
 20
28.898220027
 11
10.2092363552
 21
28.898220027
  0
LINE
  5
25C
100
AcDbEntity
  8
0
100
AcDbLine
 62
7
  6
BYLAYER
 10
24.5112728949
 20
28.898220027
 11
29.039521336
 21
28.898220027
  0
LINE
  5
25D
100
AcDbEntity
  8
0
100
AcDbLine
 62
7
  6
BYLAYER
 10
29.6617237672
 20
28.898220027
 11
30.2092363552
 21
28.898220027
  0
LINE
  5
25E
100
AcDbEntity
  8
0
100
AcDbLine
 62
7
  6
BYLAYER
 10
4.8101313043
 20
29.1720733042
 11
9.9103779458
 21
29.1720733042
  0
LINE
  5
25F
100
AcDbEntity
  8
0
100
AcDbLine
 62
7
  6
BYLAYER
 10
24.8101313043
 20
29.1720733042
 11
29.9103779458
 21
29.1720733042
  0
LINE
  5
260
100
AcDbEntity
  8
0
100
AcDbLine
 62
7
  6
BYLAYER
 10
24.360254625
 20
27.1720733042
 11
24.5112728949
 21
28.898220027
  0
LINE
  5
261
100
AcDbEntity
  8
0
100
AcDbLine
 62
7
  6
BYLAYER
 10
7.410254625
 20
30.1720733042
 11
27.310254625
 21
30.1720733042
  0
LINE
  5
262
100
AcDbEntity
  8
0
100
AcDbLine
 62
7
  6
BYLAYER
 10
25.860254625
 20
13.3720733042
 11
25.860254625
 21
18.1720733042
  0
LINE
  5
263
100
AcDbEntity
  8
0
100
AcDbLine
 62
7
  6
BYLAYER
 10
26.8426165348
 20
18.8720733042
 11
26.8426165348
 21
18.2720733042
  0
LINE
  5
264
100
AcDbEntity
  8
0
100
AcDbLine
 62
7
  6
BYLAYER
 10
27.310254625
 20
29.1720733042
 11
27.310254625
 21
30.1720733042
  0
LINE
  5
265
100
AcDbEntity
  8
0
100
AcDbLine
 62
7
  6
BYLAYER
 10
28.1409355993
 20
18.2720733042
 11
28.1409355993
 21
18.8720733042
  0
LINE
  5
266
100
AcDbEntity
  8
0
100
AcDbLine
 62
7
  6
BYLAYER
 10
28.660254625
 20
18.3720733042
 11
28.660254625
 21
18.8720733042
  0
LINE
  5
267
100
AcDbEntity
  8
0
100
AcDbLine
 62
7
  6
BYLAYER
 10
27.5782158199
 20
13.1720733042
 11
27.57251519
 21
12.8454844377
  0
LINE
  5
268
100
AcDbEntity
  8
0
100
AcDbLine
 62
7
  6
BYLAYER
 10
25.860254625
 20
18.1720733042
 11
25.960254625
 21
18.2720733042
  0
LINE
  5
269
100
AcDbEntity
  8
0
100
AcDbLine
 62
7
  6
BYLAYER
 10
8.5860769295
 20
34.560301885
 11
26.1344323206
 21
34.560301885
  0
LINE
  5
26A
100
AcDbEntity
  8
0
100
AcDbLine
 62
7
  6
BYLAYER
 10
26.1344323241
 20
34.5603018718
 11
27.310254625
 21
30.1720733042
  0
LINE
  5
26B
100
AcDbEntity
  8
0
100
AcDbLine
 62
7
  6
BYLAYER
 10
28.9986518464
 20
18.8720733042
 11
29.00685626
 21
18.2720733042
  0
LINE
  5
26C
100
AcDbEntity
  8
0
100
AcDbLine
 62
7
  6
BYLAYER
 10
28.860254625
 20
13.3720733042
 11
28.860254625
 21
18.1720733042
  0
LINE
  5
26D
100
AcDbEntity
  8
0
100
AcDbLine
 62
7
  6
BYLAYER
 10
29.2015957711
 20
18.8720733042
 11
29.2015957711
 21
18.2720733042
  0
LINE
  5
26E
100
AcDbEntity
  8
0
100
AcDbLine
 62
7
  6
BYLAYER
 10
29.360254625
 20
18.2720733042
 11
29.360254625
 21
18.8720733042
  0
LINE
  5
26F
100
AcDbEntity
  8
0
100
AcDbLine
 62
7
  6
BYLAYER
 10
30.1102546
 20
27.1720733042
 11
30.110254625
 21
25.3720733042
  0
LINE
  5
270
100
AcDbEntity
  8
0
100
AcDbLine
 62
7
  6
BYLAYER
 10
30.1603524373
 20
25.3720733042
 11
30.1603524373
 21
18.8720733042
  0
LINE
  5
271
100
AcDbEntity
  8
0
100
AcDbLine
 62
7
  6
BYLAYER
 10
24.6854534583
 20
35.6720733042
 11
10.0350557918
 21
35.6720733042
  0
LINE
  5
272
100
AcDbEntity
  8
0
100
AcDbLine
 62
7
  6
BYLAYER
 10
11.3602547599
 20
36.1720733042
 11
23.3602544902
 21
36.1720733042
  0
LINE
  5
273
100
AcDbEntity
  8
0
100
AcDbLine
 62
7
  6
BYLAYER
 10
23.8602551471
 20
35.6720731547
 11
23.3602544902
 21
36.172073783
  0
LINE
  5
274
100
AcDbEntity
  8
0
100
AcDbLine
 62
7
  6
BYLAYER
 10
30.360254625
 20
27.1720733042
 11
30.2092363552
 21
28.898220027
  0
LINE
  5
275
100
AcDbEntity
  8
0
100
AcDbLine
 62
7
  6
BYLAYER
 10
30.810254625
 20
25.3720733042
 11
30.810254625
 21
26.6720733042
  0
LINE
  5
276
100
AcDbEntity
  8
0
100
AcDbLine
 62
7
  6
BYLAYER
 10
30.860254625
 20
18.8720733042
 11
30.860254625
 21
25.3720733042
  0
LINE
  5
277
100
AcDbEntity
  8
0
100
AcDbLine
 62
7
  6
BYLAYER
 10
27.5056040443
 20
12.6042106409
 11
27.57251519
 21
12.8454844377
  0
LINE
  5
278
100
AcDbEntity
  8
0
100
AcDbLine
 62
7
  6
BYLAYER
 10
27.5056040443
 20
12.6042106409
 11
26.9385667885
 21
11.6220733042
  0
LINE
  5
279
100
AcDbEntity
  8
0
100
AcDbLine
 62
7
  6
BYLAYER
 10
12.360254625
 20
38.907327342
 11
22.360254625
 21
38.907327342
  0
LINE
  5
27A
100
AcDbEntity
  8
0
100
AcDbLine
 62
7
  6
BYLAYER
 10
28.660254625
 20
13.1720733042
 11
28.860254625
 21
13.3720733042
  0
ARC
  5
27B
100
AcDbEntity
  8
0
100
AcDbCircle
 62
7
  6
BYLAYER
 10
17.360254625
 20
30.2470733042
 40
10.0
100
AcDbArc
 50
60.0
 51
120.0
  0
ARC
  5
27C
100
AcDbEntity
  8
0
100
AcDbCircle
 62
7
  6
BYLAYER
 10
10.0349656654
 20
34.1720733042
 40
1.5
100
AcDbArc
 50
90.0
 51
164.9999994776
  0
ARC
  5
27D
100
AcDbEntity
  8
0
100
AcDbCircle
 62
7
  6
BYLAYER
 10
24.6855435847
 20
34.1720733042
 40
1.5
100
AcDbArc
 50
15.0000005224
 51
90.0
  0
ARC
  5
27E
100
AcDbEntity
  8
0
100
AcDbCircle
 62
7
  6
BYLAYER
 10
30.310254625
 20
26.6720733042
 40
0.5
100
AcDbArc
 50
0.0
 51
90.0000000001
  0
ARC
  5
27F
100
AcDbEntity
  8
0
100
AcDbCircle
 62
7
  6
BYLAYER
 10
4.410254625
 20
26.6720733042
 40
0.5
100
AcDbArc
 50
90.0
 51
180.0000000004
  0
ARC
  5
280
100
AcDbEntity
  8
0
100
AcDbCircle
 62
7
  6
BYLAYER
 10
8.2149551634
 20
11.8720733042
 40
0.5
100
AcDbArc
 50
210.0
 51
270.0
  0
ARC
  5
281
100
AcDbEntity
  8
0
100
AcDbCircle
 62
7
  6
BYLAYER
 10
26.5055540866
 20
11.8720733042
 40
0.5
100
AcDbArc
 50
270.0
 51
330.0
  0
ARC
  5
282
100
AcDbEntity
  8
0
100
AcDbCircle
 62
7
  6
BYLAYER
 10
9.9103779458
 20
28.8720733042
 40
0.3
100
AcDbArc
 50
5.0
 51
90.0
  0
ARC
  5
283
100
AcDbEntity
  8
0
100
AcDbCircle
 62
7
  6
BYLAYER
 10
4.8101313043
 20
28.8720733042
 40
0.3
100
AcDbArc
 50
90.0
 51
175.0
  0
ARC
  5
284
100
AcDbEntity
  8
0
100
AcDbCircle
 62
7
  6
BYLAYER
 10
29.9103779458
 20
28.8720733042
 40
0.3
100
AcDbArc
 50
5.0
 51
90.0
  0
ARC
  5
285
100
AcDbEntity
  8
0
100
AcDbCircle
 62
7
  6
BYLAYER
 10
24.8101313043
 20
28.8720733042
 40
0.3
100
AcDbArc
 50
90.0
 51
175.0
  0
LINE
  5
286
100
AcDbEntity
  8
0
100
AcDbLine
 62
7
  6
BYLAYER
 10
9.0836758216
 20
28.3720733042
 11
9.039521336
 21
28.898220027
  0
SPLINE
  5
287
100
AcDbEntity
  8
0
100
AcDbSpline
 62
7
  6
BYLAYER
 70
0
 71
3
 72
14
 73
10
 74
0
 42
0.0000001
 43
0.0000001
 44
0.0000000001
 40
0.0
 40
0.0
 40
0.0
 40
0.0
 40
0.2867233189
 40
0.4231521399
 40
0.5525171901
 40
0.6740528291
 40
0.7880176694
 40
0.8958870982
 40
1.0
 40
1.0
 40
1.0
 40
1.0
 10
9.039521336
 20
28.898220027
 30
0.0
 10
9.0364555712
 20
28.9347062152
 30
0.0
 10
9.0248482447
 20
28.9884217599
 30
0.0
 10
8.9952625343
 20
29.052698048
 30
0.0
 10
8.9676597122
 20
29.0940315536
 30
0.0
 10
8.935183697
 20
29.1278165493
 30
0.0
 10
8.8988523079
 20
29.1529642573
 30
0.0
 10
8.8598367788
 20
29.1685105836
 30
0.0
 10
8.8326525269
 20
29.1720733042
 30
0.0
 10
8.8193572386
 20
29.1720733042
 30
0.0
  0
LINE
  5
288
100
AcDbEntity
  8
0
100
AcDbLine
 62
7
  6
BYLAYER
 10
9.6617237672
 20
28.898220027
 11
9.686393732
 21
28.3720733042
  0
SPLINE
  5
289
100
AcDbEntity
  8
0
100
AcDbSpline
 62
7
  6
BYLAYER
 70
0
 71
3
 72
14
 73
10
 74
0
 42
0.0000001
 43
0.0000001
 44
0.0000000001
 40
0.0
 40
0.0
 40
0.0
 40
0.0
 40
0.1048995872
 40
0.2127236991
 40
0.3261106281
 40
0.4468884979
 40
0.5756408254
 40
0.7118594986
 40
1.0
 40
1.0
 40
1.0
 40
1.0
 10
9.4517011374
 20
29.1720733042
 30
0.0
 10
9.4649342145
 20
29.1720733042
 30
0.0
 10
9.4918904561
 20
29.1685555566
 30
0.0
 10
9.5304050243
 20
29.1530152066
 30
0.0
 10
9.5658737227
 20
29.1278342997
 30
0.0
 10
9.5971394681
 20
29.0940010155
 30
0.0
 10
9.623225971
 20
29.0526228442
 30
0.0
 10
9.6504862309
 20
28.9881603385
 30
0.0
 10
9.6600175108
 20
28.9345288664
 30
0.0
 10
9.6617237672
 20
28.898220027
 30
0.0
  0
LINE
  5
28A
100
AcDbEntity
  8
0
100
AcDbLine
 62
7
  6
BYLAYER
 10
29.0836758216
 20
28.3720733042
 11
29.039521336
 21
28.898220027
  0
SPLINE
  5
28B
100
AcDbEntity
  8
0
100
AcDbSpline
 62
7
  6
BYLAYER
 70
0
 71
3
 72
14
 73
10
 74
0
 42
0.0000001
 43
0.0000001
 44
0.0000000001
 40
0.0
 40
0.0
 40
0.0
 40
0.0
 40
0.2867233189
 40
0.4231521399
 40
0.5525171901
 40
0.6740528291
 40
0.7880176694
 40
0.8958870982
 40
1.0
 40
1.0
 40
1.0
 40
1.0
 10
29.039521336
 20
28.898220027
 30
0.0
 10
29.0364555712
 20
28.9347062152
 30
0.0
 10
29.0248482447
 20
28.9884217599
 30
0.0
 10
28.9952625343
 20
29.052698048
 30
0.0
 10
28.9676597122
 20
29.0940315536
 30
0.0
 10
28.935183697
 20
29.1278165493
 30
0.0
 10
28.8988523079
 20
29.1529642573
 30
0.0
 10
28.8598367788
 20
29.1685105836
 30
0.0
 10
28.8326525269
 20
29.1720733042
 30
0.0
 10
28.8193572386
 20
29.1720733042
 30
0.0
  0
LINE
  5
28C
100
AcDbEntity
  8
0
100
AcDbLine
 62
7
  6
BYLAYER
 10
29.6617237672
 20
28.898220027
 11
29.686393732
 21
28.3720733042
  0
SPLINE
  5
28D
100
AcDbEntity
  8
0
100
AcDbSpline
 62
7
  6
BYLAYER
 70
0
 71
3
 72
14
 73
10
 74
0
 42
0.0000001
 43
0.0000001
 44
0.0000000001
 40
0.0
 40
0.0
 40
0.0
 40
0.0
 40
0.1048995872
 40
0.2127236991
 40
0.3261106281
 40
0.4468884979
 40
0.5756408254
 40
0.7118594986
 40
1.0
 40
1.0
 40
1.0
 40
1.0
 10
29.4517011374
 20
29.1720733042
 30
0.0
 10
29.4649342145
 20
29.1720733042
 30
0.0
 10
29.4918904561
 20
29.1685555566
 30
0.0
 10
29.5304050243
 20
29.1530152066
 30
0.0
 10
29.5658737227
 20
29.1278342997
 30
0.0
 10
29.5971394681
 20
29.0940010155
 30
0.0
 10
29.623225971
 20
29.0526228442
 30
0.0
 10
29.6504862309
 20
28.9881603385
 30
0.0
 10
29.6600175108
 20
28.9345288664
 30
0.0
 10
29.6617237672
 20
28.898220027
 30
0.0
  0
LINE
  5
28E
100
AcDbEntity
  8
0
100
AcDbLine
 62
7
  6
BYLAYER
 10
10.5486801438
 20
12.6042106409
 11
10.9501527944
 21
11.6220733042
  0
SPLINE
  5
28F
100
AcDbEntity
  8
0
100
AcDbSpline
 62
7
  6
BYLAYER
 70
0
 71
3
 72
9
 73
5
 74
0
 42
0.0000001
 43
0.0000001
 44
0.0000000001
 40
0.0
 40
0.0
 40
0.0
 40
0.0
 40
0.2429918624
 40
1.0
 40
1.0
 40
1.0
 40
1.0
 10
11.0048800488
 20
11.5207029787
 30
0.0
 10
10.999525809
 20
11.528358196
 30
0.0
 10
10.9784480047
 20
11.560526575
 30
0.0
 10
10.9611656681
 20
11.5951341626
 30
0.0
 10
10.9501527944
 20
11.6220733042
 30
0.0
  0
SPLINE
  5
290
100
AcDbEntity
  8
0
100
AcDbSpline
 62
7
  6
BYLAYER
 70
0
 71
3
 72
9
 73
5
 74
0
 42
0.0000001
 43
0.0000001
 44
0.0000000001
 40
0.0
 40
0.0
 40
0.0
 40
0.0
 40
0.2432891913
 40
1.0
 40
1.0
 40
1.0
 40
1.0
 10
10.5486801438
 20
12.6042106409
 30
0.0
 10
10.541110496
 20
12.622729884
 30
0.0
 10
10.5139531949
 20
12.7004332575
 30
0.0
 10
10.502053891
 20
12.7832621308
 30
0.0
 10
10.5012849868
 20
12.8454844377
 30
0.0
  0
SPLINE
  5
291
100
AcDbEntity
  8
0
100
AcDbSpline
 62
7
  6
BYLAYER
 70
0
 71
3
 72
14
 73
10
 74
0
 42
0.0000001
 43
0.0000001
 44
0.0000000001
 40
0.0
 40
0.0
 40
0.0
 40
0.0
 40
0.1054134087
 40
0.2139932308
 40
0.3279014269
 40
0.4488339403
 40
0.7121950149
 40
0.8540390323
 40
1.0
 40
1.0
 40
1.0
 40
1.0
 10
10.9833297789
 20
8.0220733042
 30
0.0
 10
10.9626394311
 20
8.0220733042
 30
0.0
 10
10.9204755853
 20
8.0273711233
 30
0.0
 10
10.8598090959
 20
8.0504100543
 30
0.0
 10
10.8031098804
 20
8.0877981737
 30
0.0
 10
10.7333109328
 20
8.1570064845
 30
0.0
 10
10.6806860646
 20
8.2482405213
 30
0.0
 10
10.6467838667
 20
8.351121561
 30
0.0
 10
10.6361754403
 20
8.4068233884
 30
0.0
 10
10.6326068902
 20
8.4352492153
 30
0.0
  0
LINE
  5
292
100
AcDbEntity
  8
0
100
AcDbLine
 62
7
  6
BYLAYER
 10
10.2640656488
 20
11.3720733042
 11
10.6326068902
 21
8.4352492153
  0
LINE
  5
293
100
AcDbEntity
  8
0
100
AcDbLine
 62
7
  6
BYLAYER
 10
24.0879023599
 20
8.4352492153
 11
24.4564436012
 21
11.3720733042
  0
SPLINE
  5
294
100
AcDbEntity
  8
0
100
AcDbSpline
 62
7
  6
BYLAYER
 70
0
 71
3
 72
14
 73
10
 74
0
 42
0.0000001
 43
0.0000001
 44
0.0000000001
 40
0.0
 40
0.0
 40
0.0
 40
0.0
 40
0.1459625039
 40
0.287813232
 40
0.5511726147
 40
0.6721028114
 40
0.7860098519
 40
0.8945872825
 40
1.0
 40
1.0
 40
1.0
 40
1.0
 10
24.0879023599
 20
8.4352492153
 30
0.0
 10
24.0843337781
 20
8.406823136
 30
0.0
 10
24.0737220623
 20
8.3511203052
 30
0.0
 10
24.0398206099
 20
8.2482384385
 30
0.0
 10
23.987198677
 20
8.1570008256
 30
0.0
 10
23.9173948193
 20
8.087799296
 30
0.0
 10
23.8606984991
 20
8.050409811
 30
0.0
 10
23.8000330007
 20
8.027370016
 30
0.0
 10
23.7578697111
 20
8.0220733042
 30
0.0
 10
23.7371795329
 20
8.0220733042
 30
0.0
  0
SPLINE
  5
295
100
AcDbEntity
  8
0
100
AcDbSpline
 62
7
  6
BYLAYER
 70
0
 71
3
 72
11
 73
7
 74
0
 42
0.0000001
 43
0.0000001
 44
0.0000000001
 40
0.0
 40
0.0
 40
0.0
 40
0.0
 40
0.2500829732
 40
0.5000000351
 40
0.7499170721
 40
1.0
 40
1.0
 40
1.0
 40
1.0
 10
10.2977732676
 20
11.5207029787
 30
0.0
 10
10.3566008891
 20
11.5162705385
 30
0.0
 10
10.4744142862
 20
11.509893191
 30
0.0
 10
10.6513266745
 20
11.5068151742
 30
0.0
 10
10.82823901
 20
11.5098940809
 30
0.0
 10
10.9460524379
 20
11.5162705393
 30
0.0
 10
11.0048800488
 20
11.5207029787
 30
0.0
  0
LINE
  5
296
100
AcDbEntity
  8
0
100
AcDbLine
 62
7
  6
BYLAYER
 10
20.8169793506
 20
8.4352492153
 11
21.1358193278
 21
10.958897393
  0
LINE
  5
297
100
AcDbEntity
  8
0
100
AcDbLine
 62
7
  6
BYLAYER
 10
13.5846899223
 20
10.958897393
 11
13.9035298995
 21
8.4352492153
  0
SPLINE
  5
298
100
AcDbEntity
  8
0
100
AcDbSpline
 62
7
  6
BYLAYER
 70
0
 71
3
 72
9
 73
5
 74
0
 42
0.0000001
 43
0.0000001
 44
0.0000000001
 40
0.0
 40
0.0
 40
0.0
 40
0.0
 40
0.2558910653
 40
1.0
 40
1.0
 40
1.0
 40
1.0
 10
9.7941782056
 20
12.8454844377
 30
0.0
 10
9.7944381902
 20
12.8244456153
 30
0.0
 10
9.7991591258
 20
12.7423453885
 30
0.0
 10
9.8184239748
 20
12.6608459233
 30
0.0
 10
9.8415733626
 20
12.6042106409
 30
0.0
  0
SPLINE
  5
299
100
AcDbEntity
  8
0
100
AcDbSpline
 62
7
  6
BYLAYER
 70
0
 71
3
 72
9
 73
5
 74
0
 42
0.0000001
 43
0.0000001
 44
0.0000000001
 40
0.0
 40
0.0
 40
0.0
 40
0.0
 40
0.2571252285
 40
1.0
 40
1.0
 40
1.0
 40
1.0
 10
10.2430460133
 20
11.6220733042
 30
0.0
 10
10.246786481
 20
11.6129235588
 30
0.0
 10
10.2622407215
 20
11.5777219107
 30
0.0
 10
10.2814049967
 20
11.5441054928
 30
0.0
 10
10.2977732676
 20
11.5207029787
 30
0.0
  0
LINE
  5
29A
100
AcDbEntity
  8
0
100
AcDbLine
 62
7
  6
BYLAYER
 10
10.2430460133
 20
11.6220733042
 11
9.8415733626
 21
12.6042106409
  0
LINE
  5
29B
100
AcDbEntity
  8
0
100
AcDbLine
 62
7
  6
BYLAYER
 10
12.0468204525
 20
8.4352492153
 11
11.6782792112
 21
11.3720733042
  0
SPLINE
  5
29C
100
AcDbEntity
  8
0
100
AcDbSpline
 62
7
  6
BYLAYER
 70
0
 71
3
 72
14
 73
10
 74
0
 42
0.0000001
 43
0.0000001
 44
0.0000000001
 40
0.0
 40
0.0
 40
0.0
 40
0.0
 40
0.1460138645
 40
0.2878666306
 40
0.5511319676
 40
0.6720185951
 40
0.7859185593
 40
0.8945313385
 40
1.0
 40
1.0
 40
1.0
 40
1.0
 10
13.5846899223
 20
10.958897393
 30
0.0
 10
13.5810949102
 20
10.9873786741
 30
0.0
 10
13.5704008137
 20
11.0431756938
 30
0.0
 10
13.5362448474
 20
11.1461599757
 30
0.0
 10
13.4832856404
 20
11.2373826806
 30
0.0
 10
13.413192264
 20
11.3064823491
 30
0.0
 10
13.3563147663
 20
11.3437923843
 30
0.0
 10
13.2955021951
 20
11.3667827854
 30
0.0
 10
13.2532520244
 20
11.3720733042
 30
0.0
 10
13.2325162018
 20
11.3720733042
 30
0.0
  0
SPLINE
  5
29D
100
AcDbEntity
  8
0
100
AcDbSpline
 62
7
  6
BYLAYER
 70
0
 71
3
 72
15
 73
11
 74
0
 42
0.0000001
 43
0.0000001
 44
0.0000000001
 40
0.0
 40
0.0
 40
0.0
 40
0.0
 40
0.1054350299
 40
0.2139699363
 40
0.3277390782
 40
0.448470735
 40
0.5767642387
 40
0.7122812461
 40
0.8540406554
 40
1.0
 40
1.0
 40
1.0
 40
1.0
 10
14.2571585327
 20
8.0220733042
 30
0.0
 10
14.2363716265
 20
8.0220733042
 30
0.0
 10
14.1940280772
 20
8.0273188597
 30
0.0
 10
14.1330261443
 20
8.0501750155
 30
0.0
 10
14.075925065
 20
8.0873401028
 30
0.0
 10
14.0245417298
 20
8.1376872842
 30
0.0
 10
13.9802386053
 20
8.1996328055
 30
0.0
 10
13.9443256464
 20
8.2714092006
 30
0.0
 10
13.9178685632
 20
8.3508072727
 30
0.0
 10
13.9071404116
 20
8.4067001904
 30
0.0
 10
13.9035298995
 20
8.4352492153
 30
0.0
  0
SPLINE
  5
29E
100
AcDbEntity
  8
0
100
AcDbSpline
 62
7
  6
BYLAYER
 70
0
 71
3
 72
14
 73
10
 74
0
 42
0.0000001
 43
0.0000001
 44
0.0000000001
 40
0.0
 40
0.0
 40
0.0
 40
0.0
 40
0.1459625039
 40
0.287813232
 40
0.5511726147
 40
0.6721028114
 40
0.7860098519
 40
0.8945872825
 40
1.0
 40
1.0
 40
1.0
 40
1.0
 10
12.0468204525
 20
8.4352492153
 30
0.0
 10
12.0503890343
 20
8.406823136
 30
0.0
 10
12.0610007501
 20
8.3511203052
 30
0.0
 10
12.0949022025
 20
8.2482384385
 30
0.0
 10
12.1475241354
 20
8.1570008256
 30
0.0
 10
12.2173279931
 20
8.087799296
 30
0.0
 10
12.2740243133
 20
8.050409811
 30
0.0
 10
12.3346898117
 20
8.027370016
 30
0.0
 10
12.3768531014
 20
8.0220733042
 30
0.0
 10
12.3975432795
 20
8.0220733042
 30
0.0
  0
SPLINE
  5
29F
100
AcDbEntity
  8
0
100
AcDbSpline
 62
7
  6
BYLAYER
 70
0
 71
3
 72
14
 73
10
 74
0
 42
0.0000001
 43
0.0000001
 44
0.0000000001
 40
0.0
 40
0.0
 40
0.0
 40
0.0
 40
0.1054134087
 40
0.2139932308
 40
0.3279014269
 40
0.4488339403
 40
0.7121950149
 40
0.8540390323
 40
1.0
 40
1.0
 40
1.0
 40
1.0
 10
22.3229659087
 20
8.0220733042
 30
0.0
 10
22.3436562566
 20
8.0220733042
 30
0.0
 10
22.3858201024
 20
8.0273711233
 30
0.0
 10
22.4464865917
 20
8.0504100543
 30
0.0
 10
22.5031858073
 20
8.0877981737
 30
0.0
 10
22.5729847549
 20
8.1570064845
 30
0.0
 10
22.6256096231
 20
8.2482405213
 30
0.0
 10
22.659511821
 20
8.351121561
 30
0.0
 10
22.6701202474
 20
8.4068233884
 30
0.0
 10
22.6736887975
 20
8.4352492153
 30
0.0
  0
SPLINE
  5
2A0
100
AcDbEntity
  8
0
100
AcDbSpline
 62
7
  6
BYLAYER
 70
0
 71
3
 72
14
 73
10
 74
0
 42
0.0000001
 43
0.0000001
 44
0.0000000001
 40
0.0
 40
0.0
 40
0.0
 40
0.0
 40
0.1460809521
 40
0.2879651397
 40
0.5511678089
 40
0.6719942129
 40
0.7858552027
 40
0.894478452
 40
1.0
 40
1.0
 40
1.0
 40
1.0
 10
20.8169793506
 20
8.4352492153
 30
0.0
 10
20.8133688214
 20
8.4067000557
 30
0.0
 10
20.8026212603
 20
8.3507785371
 30
0.0
 10
20.7682789545
 20
8.2476232822
 30
0.0
 10
20.7150175183
 20
8.1563383448
 30
0.0
 10
20.6445865446
 20
8.0873494065
 30
0.0
 10
20.5874824401
 20
8.0501761187
 30
0.0
 10
20.526483695
 20
8.0273198932
 30
0.0
 10
20.4841402723
 20
8.0220733042
 30
0.0
 10
20.4633535293
 20
8.0220733042
 30
0.0
  0
SPLINE
  5
2A1
100
AcDbEntity
  8
0
100
AcDbSpline
 62
7
  6
BYLAYER
 70
0
 71
3
 72
14
 73
10
 74
0
 42
0.0000001
 43
0.0000001
 44
0.0000000001
 40
0.0
 40
0.0
 40
0.0
 40
0.0
 40
0.1054689477
 40
0.2140828002
 40
0.3279844181
 40
0.4488742149
 40
0.7121415857
 40
0.8539878352
 40
1.0
 40
1.0
 40
1.0
 40
1.0
 10
21.4879936368
 20
11.3720733042
 30
0.0
 10
21.467257696
 20
11.3720733042
 30
0.0
 10
21.4250071275
 20
11.3667832923
 30
0.0
 10
21.3641933704
 20
11.3437938324
 30
0.0
 10
21.3073143305
 20
11.3064830797
 30
0.0
 10
21.2372244123
 20
11.2373777169
 30
0.0
 10
21.1842611425
 20
11.1461583983
 30
0.0
 10
21.1501049839
 20
11.0431745393
 30
0.0
 10
21.1394143088
 20
10.9873784276
 30
0.0
 10
21.1358193278
 20
10.958897393
 30
0.0
  0
LINE
  5
2A2
100
AcDbEntity
  8
0
100
AcDbLine
 62
7
  6
BYLAYER
 10
23.0422300389
 20
11.3720733042
 11
22.6736887975
 21
8.4352492153
  0
ENDSEC
  0
SECTION
  2
OBJECTS
  0
DICTIONARY
  5
C
100
AcDbDictionary
280
0
281
1
  3
ACAD_GROUP
350
D
  3
ACAD_MLINESTYLE
350
17
  3
ACAD_LAYOUT
350
1A
  3
ACAD_PLOTSETTINGS
350
19
  3
ACAD_PLOTSTYLENAME
350
E
  0
DICTIONARY
  5
D
102
{ACAD_REACTORS
330
C
102
}
100
AcDbDictionary
280
0
281
1
  0
ACDBDICTIONARYWDFLT
  5
E
102
{ACAD_REACTORS
330
C
102
}
100
AcDbDictionary
281
1
  3
Normal
350
F
100
AcDbDictionaryWithDefault
340
F
  0
DICTIONARY
  5
17
102
{ACAD_REACTORS
330
C
102
}
100
AcDbDictionary
280
0
281
1
  3
Standard
350
18
  0
DICTIONARY
  5
19
102
{ACAD_REACTORS
330
C
102
}
100
AcDbDictionary
281
1
  0
DICTIONARY
  5
1A
102
{ACAD_REACTORS
330
C
102
}
100
AcDbDictionary
281
1
  3
Model
350
2A3
  3
Layout1
350
2A4
  0
ACDBPLACEHOLDER
  5
F
102
{ACAD_REACTORS
330
E
102
}
  0
MLINESTYLE
  5
18
102
{ACAD_REACTORS
330
17
102
}
100
AcDbMlineStyle
  2
STANDARD
 70
0
  3

 62
256
 51
90.0
 52
90.0
 71
2
 49
0.5
 62
256
  6
BYLAYER
 49
-0.5
 62
256
  6
BYLAYER
  0
LAYOUT
  5
2A3
102
{ACAD_REACTORS
330
1A
102
}
100
AcDbPlotSettings
  1

  2
none_device
  4

  6

 40
0.0
 41
0.0
 42
0.0
 43
0.0
 44
210.0
 45
297.0
 46
0.0
 47
0.0
 48
0.0
 49
0.0
140
0.0
141
0.0
142
1.0
143
1.0
 70
1024
 72
1
 73
0
 74
0
  7

 75
0
147
1.0
148
0.0
149
0.0
100
AcDbLayout
  1
Model
 70
0
 71
0
 10
0.0
 20
0.0
 11
210.0
 21
297.0
 12
0.0
 22
0.0
 32
0.0
 14
0.0
 24
0.0
 34
0.0
 15
0.0
 25
0.0
 35
0.0
146
0.0
 13
0.0
 23
0.0
 33
0.0
 16
1.0
 26
0.0
 36
0.0
 17
0.0
 27
1.0
 37
0.0
 76
0
330
210
345
0
346
0
  0
LAYOUT
  5
2A4
102
{ACAD_REACTORS
330
1A
102
}
100
AcDbPlotSettings
  1

  2
none_device
  4

  6

 40
0.0
 41
0.0
 42
0.0
 43
0.0
 44
210.0
 45
297.0
 46
0.0
 47
0.0
 48
0.0
 49
0.0
140
0.0
141
0.0
142
1.0
143
1.0
 70
0
 72
1
 73
0
 74
0
  7

 75
0
147
1.0
148
0.0
149
0.0
100
AcDbLayout
  1
Layout1
 70
0
 71
1
 10
0.0
 20
0.0
 11
210.0
 21
297.0
 12
0.0
 22
0.0
 32
0.0
 14
0.0
 24
0.0
 34
0.0
 15
0.0
 25
0.0
 35
0.0
146
0.0
 13
0.0
 23
0.0
 33
0.0
 16
1.0
 26
0.0
 36
0.0
 17
0.0
 27
1.0
 37
0.0
 76
0
330
211
345
0
346
0
  0
ENDSEC
  0
EOF
