999
DXF file: C:\Users\sesa63760\Dev\_Creo\CAD\MCADID0004773_3D-CAD\drw0001_4.dxf
999
Pro/ENGINEER 2019471 by Parametric Technology Corporation
  0
SECTION
  2
HEADER
  9
$ACADVER
  1
AC1024
  9
$DWGCODEPAGE
  3
ANSI_1252
  9
$EXTMAX
 10
41.084788494
 20
58.1056294416
 30
0.0
  9
$EXTMIN
 10
0.0
 20
0.0
 30
0.0
  9
$LIMMIN
 10
0.0
 20
0.0
  9
$LIMMAX
 10
41.084788494
 20
58.1056294416
  9
$VIEWCTR
 10
20.542394247
 20
29.0528147208
  9
$VIEWSIZE
 40
58.1056294416
  9
$CLAYER
  8
0
  9
$LTSCALE
 40
3.7876262155
  9
$CELTYPE
  6
BYLAYER
  9
$DIMSCALE
 40
1.0
  9
$DIMASZ
 40
0.4891046249
  9
$DIMEXO
 40
1.0
  9
$DIMDLI
 40
2.6169053852
  9
$DIMEXE
 40
1.0
  9
$DIMCEN
 40
0.6197933807
  9
$DIMLFAC
 40
1.0
  9
$DIMBLK
  1
_FILLED
  9
$DIMALT
 70
0
  9
$DIMALTF
 40
0.0393700787
  9
$DIMTXT
 40
0.6847464749
  9
$DIMTOL
 70
1
  9
$DIMLIM
 70
0
  9
$DIMTFAC
 40
1.0
  9
$DIMTP
 40
0.01
  9
$DIMTM
 40
0.01
  9
$DIMGAP
 40
0.625
  9
$DIMDSEP
 70
46
  9
$AUNITS
 70
0
  9
$PDMODE
 70
3
  9
$PDSIZE
 40
0.3125
  9
$HANDSEED
  5
296
  9
$TILEMODE
 70
1
  9
$MEASUREMENT
 70
1
  9
$INSUNITS
 70
4
  0
ENDSEC
  0
SECTION
  2
CLASSES
  0
CLASS
  1
ACDBDICTIONARYWDFLT
  2
AcDbDictionaryWithDefault
  3
AutoCAD 2000
 90
0
 91
1
280
0
281
0
  0
CLASS
  1
ACDBPLACEHOLDER
  2
AcDbPlaceHolder
  3
AutoCAD 2000
 90
0
 91
1
280
0
281
0
  0
CLASS
  1
LAYOUT
  2
AcDbLayout
  3
AutoCAD 2000
 90
0
 91
0
280
0
281
0
  0
ENDSEC
  0
SECTION
  2
TABLES
  0
TABLE
  2
VPORT
  5
8
100
AcDbSymbolTable
 70
2
  0
VPORT
  5
1F4
100
AcDbSymbolTableRecord
100
AcDbViewportTableRecord
  2
*ACTIVE
 70
0
 10
0.0
 20
0.0
 11
1.0
 21
1.0
 12
20.542394247
 22
29.0528147208
 13
0.0
 23
0.0
 14
1.0
 24
1.0
 15
0.0
 25
0.0
 16
0.0
 26
0.0
 36
1.0
 17
0.0
 27
0.0
 37
0.0
 40
58.1056294416
 41
0.7070707071
 42
50.0
 43
0.0
 44
0.0
 50
0.0
 51
0.0
 71
0
 72
100
 73
1
 74
1
 75
0
 76
0
 77
0
 78
0
  0
ENDTAB
  0
TABLE
  2
LTYPE
  5
5
100
AcDbSymbolTable
 70
6
  0
LTYPE
  5
14
100
AcDbSymbolTableRecord
100
AcDbLinetypeTableRecord
  2
BYBLOCK
 70
0
  3

 72
65
 73
0
 40
0.0
  0
LTYPE
  5
15
100
AcDbSymbolTableRecord
100
AcDbLinetypeTableRecord
  2
BYLAYER
 70
0
  3

 72
65
 73
0
 40
0.0
  0
LTYPE
  5
16
100
AcDbSymbolTableRecord
100
AcDbLinetypeTableRecord
  2
CONTINUOUS
 70
64
  3
Solid line
 72
65
 73
0
 40
0.0
  0
LTYPE
  5
1F5
100
AcDbSymbolTableRecord
100
AcDbLinetypeTableRecord
  2
CENTER
 70
64
  3
____ _ ____ _ ____ _ ____ _ ____ _ ____ _ ____
 72
65
 73
4
 40
0.6
 49
0.375
 74
0
 49
-0.075
 74
0
 49
0.075
 74
0
 49
-0.075
 74
0
  0
LTYPE
  5
1F6
100
AcDbSymbolTableRecord
100
AcDbLinetypeTableRecord
  2
HIDDEN
 70
64
  3
- - - - - - - - - - - - - - - - - - - -
 72
65
 73
2
 40
0.2
 49
0.1
 74
0
 49
-0.1
 74
0
  0
LTYPE
  5
1F7
100
AcDbSymbolTableRecord
100
AcDbLinetypeTableRecord
  2
PHANTOM
 70
64
  3
_____ _ _ _____ _ _ _____ _ _ _____
 72
65
 73
6
 40
0.8
 49
0.45
 74
0
 49
-0.05
 74
0
 49
0.1
 74
0
 49
-0.05
 74
0
 49
0.1
 74
0
 49
-0.05
 74
0
  0
LTYPE
  5
1F8
100
AcDbSymbolTableRecord
100
AcDbLinetypeTableRecord
  2
DOT
 70
64
  3
. . . . . . . . . . . . . . . . . . . .
 72
65
 73
2
 40
0.2
 49
0.1
 74
0
 49
-0.1
 74
0
  0
LTYPE
  5
1F9
100
AcDbSymbolTableRecord
100
AcDbLinetypeTableRecord
  2
DASHED
 70
64
  3
- - - - - - - - - - - - - - - - - - - -
 72
65
 73
2
 40
0.2
 49
0.1
 74
0
 49
-0.1
 74
0
  0
ENDTAB
  0
TABLE
  2
LAYER
  5
2
100
AcDbSymbolTable
 70
36
  0
LAYER
  5
10
100
AcDbSymbolTableRecord
100
AcDbLayerTableRecord
  2
0
 70
0
 62
7
  6
CONTINUOUS
370
-3
390
F
  0
LAYER
  5
1FA
100
AcDbSymbolTableRecord
100
AcDbLayerTableRecord
  2
DEFAULT_1
 70
0
 62
7
  6
CENTER
370
-3
390
F
  0
LAYER
  5
1FB
100
AcDbSymbolTableRecord
100
AcDbLayerTableRecord
  2
DEFAULT_2
 70
0
 62
7
  6
HIDDEN
370
-3
390
F
  0
LAYER
  5
1FC
100
AcDbSymbolTableRecord
100
AcDbLayerTableRecord
  2
DEFAULT_3
 70
0
 62
7
  6
PHANTOM
370
-3
390
F
  0
LAYER
  5
1FD
100
AcDbSymbolTableRecord
100
AcDbLayerTableRecord
  2
00_COMPONENTS
 70
0
 62
7
  6
CONTINUOUS
370
-3
390
F
  0
LAYER
  5
1FE
100
AcDbSymbolTableRecord
100
AcDbLayerTableRecord
  2
01_1_DEFAULT_DATUMS
 70
0
 62
7
  6
CONTINUOUS
370
-3
390
F
  0
LAYER
  5
1FF
100
AcDbSymbolTableRecord
100
AcDbLayerTableRecord
  2
01_PLANES
 70
0
 62
7
  6
CONTINUOUS
370
-3
390
F
  0
LAYER
  5
200
100
AcDbSymbolTableRecord
100
AcDbLayerTableRecord
  2
02_COORD_SYS
 70
0
 62
7
  6
CONTINUOUS
370
-3
390
F
  0
LAYER
  5
201
100
AcDbSymbolTableRecord
100
AcDbLayerTableRecord
  2
03_AXES
 70
0
 62
7
  6
CONTINUOUS
370
-3
390
F
  0
LAYER
  5
202
100
AcDbSymbolTableRecord
100
AcDbLayerTableRecord
  2
04_POINTS
 70
0
 62
7
  6
CONTINUOUS
370
-3
390
F
  0
LAYER
  5
203
100
AcDbSymbolTableRecord
100
AcDbLayerTableRecord
  2
05_CURVES
 70
0
 62
7
  6
CONTINUOUS
370
-3
390
F
  0
LAYER
  5
204
100
AcDbSymbolTableRecord
100
AcDbLayerTableRecord
  2
06_SURFS
 70
0
 62
7
  6
CONTINUOUS
370
-3
390
F
  0
LAYER
  5
205
100
AcDbSymbolTableRecord
100
AcDbLayerTableRecord
  2
07_COSMETICS
 70
0
 62
7
  6
CONTINUOUS
370
-3
390
F
  0
LAYER
  5
206
100
AcDbSymbolTableRecord
100
AcDbLayerTableRecord
  2
10_NOTES
 70
0
 62
7
  6
CONTINUOUS
370
-3
390
F
  0
LAYER
  5
207
100
AcDbSymbolTableRecord
100
AcDbLayerTableRecord
  2
11_NOTES_PUB
 70
0
 62
7
  6
CONTINUOUS
370
-3
390
F
  0
LAYER
  5
208
100
AcDbSymbolTableRecord
100
AcDbLayerTableRecord
  2
13_REF_GTOL
 70
0
 62
7
  6
CONTINUOUS
370
-3
390
F
  0
LAYER
  5
209
100
AcDbSymbolTableRecord
100
AcDbLayerTableRecord
  2
16_MISC
 70
0
 62
7
  6
CONTINUOUS
370
-3
390
F
  0
LAYER
  5
20A
100
AcDbSymbolTableRecord
100
AcDbLayerTableRecord
  2
17_NO_PRINT
 70
0
 62
7
  6
CONTINUOUS
370
-3
390
F
  0
LAYER
  5
20B
100
AcDbSymbolTableRecord
100
AcDbLayerTableRecord
  2
18_DATUM_CAMS_JOINTS
 70
0
 62
7
  6
CONTINUOUS
370
-3
390
F
  0
LAYER
  5
20C
100
AcDbSymbolTableRecord
100
AcDbLayerTableRecord
  2
19_DATUM_FUNCTIONAL
 70
0
 62
7
  6
CONTINUOUS
370
-3
390
F
  0
LAYER
  5
20D
100
AcDbSymbolTableRecord
100
AcDbLayerTableRecord
  2
20_DATUM_KINEMATIC_SCHEME
 70
0
 62
7
  6
CONTINUOUS
370
-3
390
F
  0
ENDTAB
  0
TABLE
  2
STYLE
  5
3
100
AcDbSymbolTable
 70
1
  0
STYLE
  5
11
100
AcDbSymbolTableRecord
100
AcDbTextStyleTableRecord
  2
STANDARD
 70
0
 40
0.0
 41
1.0
 50
0.0
 71
0
 42
0.2
  3
ARIAL.TTF
  4

  0
STYLE
  5
20E
100
AcDbSymbolTableRecord
100
AcDbTextStyleTableRecord
  2
TEXTSTYLE_1
 70
0
 40
0.0
 41
0.8
 50
0.0
 71
0
 42
0.2
  3
gdt
  4

  0
ENDTAB
  0
TABLE
  2
VIEW
  5
6
100
AcDbSymbolTable
 70
0
  0
ENDTAB
  0
TABLE
  2
UCS
  5
7
100
AcDbSymbolTable
 70
0
  0
ENDTAB
  0
TABLE
  2
APPID
  5
9
100
AcDbSymbolTable
 70
1
  0
APPID
  5
20F
100
AcDbSymbolTableRecord
100
AcDbRegAppTableRecord
  2
ACAD
 70
0
  0
ENDTAB
  0
TABLE
  2
BLOCK_RECORD
  5
1
100
AcDbSymbolTable
 70
0
  0
BLOCK_RECORD
  5
210
100
AcDbSymbolTableRecord
100
AcDbBlockTableRecord
  2
*Model_Space
  0
BLOCK_RECORD
  5
211
100
AcDbSymbolTableRecord
100
AcDbBlockTableRecord
  2
*Paper_Space
  0
BLOCK_RECORD
  5
212
100
AcDbSymbolTableRecord
100
AcDbBlockTableRecord
  2
_FILLED
  0
ENDTAB
  0
TABLE
  2
DIMSTYLE
  5
A
100
AcDbSymbolTable
 70
1
100
AcDbDimStyleTable
 71
0
  0
DIMSTYLE
105
213
100
AcDbSymbolTableRecord
100
AcDbDimStyleTableRecord
  2
STANDARD
 70
0
  3

  4

 40
1.0
 41
0.4891046249
 42
1.0
 43
0.38
 44
1.0
 45
0.0
 46
0.0
 47
0.01
 48
0.01
140
0.6847464749
141
0.09
142
0.0
143
25.4
144
1.0
145
0.0
146
1.0
147
0.625
 71
1
 72
0
 73
0
 74
0
 75
0
 76
0
 77
1
 78
8
 79
2
170
0
171
1
172
0
173
0
174
0
175
0
176
0
177
0
178
0
270
2
179
2
271
2
272
2
273
2
274
2
275
0
280
0
281
0
282
0
283
1
284
8
285
0
286
0
287
3
288
0
340
11
278
46
341
212
342
212
343
212
344
212
  0
ENDTAB
  0
ENDSEC
  0
SECTION
  2
BLOCKS
  0
BLOCK
  5
20
100
AcDbEntity
  8
0
100
AcDbBlockBegin
  2
*Model_Space
 70
0
 10
0.0
 20
0.0
 30
0.0
  3
*Model_Space
  1

  0
ENDBLK
  5
21
100
AcDbEntity
  8
0
100
AcDbBlockEnd
  0
BLOCK
  5
1C
100
AcDbEntity
  8
0
100
AcDbBlockBegin
  2
*Paper_Space
 70
0
 10
0.0
 20
0.0
 30
0.0
  3
*Paper_Space
  1

  0
ENDBLK
  5
1D
100
AcDbEntity
  8
0
100
AcDbBlockEnd
  0
BLOCK
  5
214
100
AcDbEntity
  8
0
100
AcDbBlockBegin
  2
_FILLED
 70
64
 10
0.0
 20
0.0
  3
_FILLED
  1

  0
SOLID
  5
215
100
AcDbEntity
  8
0
  6
BYBLOCK
 62
0
100
AcDbTrace
 10
0.0
 20
0.0
 11
-1.0
 21
0.25
 12
-1.0
 22
-0.25
 13
-1.0
 23
-0.25
  0
ENDBLK
  5
216
100
AcDbEntity
  8
0
  6
BYBLOCK
 62
0
100
AcDbBlockEnd
  0
ENDSEC
  0
SECTION
  2
ENTITIES
  0
LINE
  5
217
100
AcDbEntity
  8
0
100
AcDbLine
 62
7
  6
BYLAYER
 10
4.575799658
 20
13.8750129172
 11
4.575799658
 21
43.8750129169
  0
LINE
  5
218
100
AcDbEntity
  8
0
100
AcDbLine
 62
7
  6
BYLAYER
 10
4.7757996581
 20
13.8744107063
 11
4.7757967992
 21
43.8755581157
  0
LINE
  5
219
100
AcDbEntity
  8
0
100
AcDbLine
 62
7
  6
BYLAYER
 10
6.0757996586
 20
12.3750129171
 11
36.0757996578
 21
12.3750129171
  0
LINE
  5
21A
100
AcDbEntity
  8
0
100
AcDbLine
 62
7
  6
BYLAYER
 10
6.0752534948
 20
12.5750100647
 11
36.0764022728
 21
12.5750129172
  0
LINE
  5
21B
100
AcDbEntity
  8
0
100
AcDbLine
 62
7
  6
BYLAYER
 10
6.0757996588
 20
12.3750129171
 11
6.0757996588
 21
12.5750105032
  0
LINE
  5
21C
100
AcDbEntity
  8
0
100
AcDbLine
 62
7
  6
BYLAYER
 10
6.075799658
 20
45.1750129171
 11
6.075799658
 21
45.3750129171
  0
LINE
  5
21D
100
AcDbEntity
  8
0
100
AcDbLine
 62
7
  6
BYLAYER
 10
37.575799658
 20
13.8750129179
 11
37.375799658
 21
13.8750129179
  0
LINE
  5
21E
100
AcDbEntity
  8
0
100
AcDbLine
 62
7
  6
BYLAYER
 10
4.7757992044
 20
13.8750129171
 11
4.575799658
 21
13.8750129171
  0
LINE
  5
21F
100
AcDbEntity
  8
0
100
AcDbLine
 62
7
  6
BYLAYER
 10
10.0920616787
 20
37.4750129171
 11
10.0920616787
 21
37.2750129171
  0
LINE
  5
220
100
AcDbEntity
  8
0
100
AcDbLine
 62
7
  6
BYLAYER
 10
10.0920616787
 20
20.4750129171
 11
10.0920616787
 21
20.2750169993
  0
LINE
  5
221
100
AcDbEntity
  8
0
100
AcDbLine
 62
7
  6
BYLAYER
 10
12.4758007657
 20
17.8912749377
 11
12.675799658
 21
17.8912749377
  0
LINE
  5
222
100
AcDbEntity
  8
0
100
AcDbLine
 62
7
  6
BYLAYER
 10
29.475799658
 20
17.8912749377
 11
29.675799658
 21
17.8912749377
  0
LINE
  5
223
100
AcDbEntity
  8
0
100
AcDbLine
 62
7
  6
BYLAYER
 10
12.4758023121
 20
39.859100748
 11
12.4758000241
 21
45.3750129171
  0
LINE
  5
224
100
AcDbEntity
  8
0
100
AcDbLine
 62
7
  6
BYLAYER
 10
12.4757996646
 20
12.3750129171
 11
12.4758019641
 21
17.8909251757
  0
LINE
  5
225
100
AcDbEntity
  8
0
100
AcDbLine
 62
7
  6
BYLAYER
 10
12.675799658
 20
12.5750114348
 11
12.675799658
 21
17.8912749378
  0
LINE
  5
226
100
AcDbEntity
  8
0
100
AcDbLine
 62
7
  6
BYLAYER
 10
12.675799658
 20
39.85875138
 11
12.675799658
 21
45.1750129171
  0
LINE
  5
227
100
AcDbEntity
  8
0
100
AcDbLine
 62
7
  6
BYLAYER
 10
12.875799658
 20
12.3750129171
 11
12.8757977773
 21
17.589495808
  0
LINE
  5
228
100
AcDbEntity
  8
0
100
AcDbLine
 62
7
  6
BYLAYER
 10
12.875799658
 20
45.3750129171
 11
12.8758004667
 21
40.1605322935
  0
LINE
  5
229
100
AcDbEntity
  8
0
100
AcDbLine
 62
7
  6
BYLAYER
 10
37.575799658
 20
20.2750129233
 11
32.0598872918
 21
20.2750146492
  0
LINE
  5
22A
100
AcDbEntity
  8
0
100
AcDbLine
 62
7
  6
BYLAYER
 10
10.0917102328
 20
20.2750177149
 11
4.575799658
 21
20.2750132828
  0
LINE
  5
22B
100
AcDbEntity
  8
0
100
AcDbLine
 62
7
  6
BYLAYER
 10
37.3758013255
 20
20.4750129171
 11
32.0595376374
 21
20.4750129171
  0
LINE
  5
22C
100
AcDbEntity
  8
0
100
AcDbLine
 62
7
  6
BYLAYER
 10
10.092060979
 20
20.4750129171
 11
4.775799658
 21
20.4750129171
  0
LINE
  5
22D
100
AcDbEntity
  8
0
100
AcDbLine
 62
7
  6
BYLAYER
 10
37.575799658
 20
20.6750129171
 11
32.3613248778
 21
20.6750093257
  0
LINE
  5
22E
100
AcDbEntity
  8
0
100
AcDbLine
 62
7
  6
BYLAYER
 10
4.575799658
 20
20.6750129171
 11
9.7902685992
 21
20.6750132577
  0
LINE
  5
22F
100
AcDbEntity
  8
0
100
AcDbLine
 62
7
  6
BYLAYER
 10
29.2758092276
 20
40.1605250056
 11
29.1582372283
 21
39.9987129726
  0
LINE
  5
230
100
AcDbEntity
  8
0
100
AcDbLine
 62
7
  6
BYLAYER
 10
12.8757901068
 20
17.5895008052
 11
12.9933621106
 21
17.7513128451
  0
LINE
  5
231
100
AcDbEntity
  8
0
100
AcDbLine
 62
7
  6
BYLAYER
 10
29.552502167
 20
39.7012779506
 11
29.675804708
 21
39.8587508965
  0
LINE
  5
232
100
AcDbEntity
  8
0
100
AcDbLine
 62
7
  6
BYLAYER
 10
12.4757938281
 20
17.8912749377
 11
12.5990971489
 21
18.0487478835
  0
LINE
  5
233
100
AcDbEntity
  8
0
100
AcDbLine
 62
7
  6
BYLAYER
 10
31.9020646915
 20
37.3517154261
 11
32.0597463789
 21
37.4751763566
  0
LINE
  5
234
100
AcDbEntity
  8
0
100
AcDbLine
 62
7
  6
BYLAYER
 10
10.2495346246
 20
20.3983104081
 11
10.0918530616
 21
20.274849575
  0
LINE
  5
235
100
AcDbEntity
  8
0
100
AcDbLine
 62
7
  6
BYLAYER
 10
32.3613207684
 20
37.0750285079
 11
32.1994999638
 21
36.9574501429
  0
LINE
  5
236
100
AcDbEntity
  8
0
100
AcDbLine
 62
7
  6
BYLAYER
 10
9.7902785555
 20
20.674997332
 11
9.9520993523
 21
20.7925756914
  0
LINE
  5
237
100
AcDbEntity
  8
0
100
AcDbLine
 62
7
  6
BYLAYER
 10
9.7902809594
 20
37.0750268765
 11
9.952099409
 21
36.9574502209
  0
LINE
  5
238
100
AcDbEntity
  8
0
100
AcDbLine
 62
7
  6
BYLAYER
 10
32.1994999064
 20
20.7925756124
 11
32.3613183559
 21
20.6749989568
  0
LINE
  5
239
100
AcDbEntity
  8
0
100
AcDbLine
 62
7
  6
BYLAYER
 10
32.0597465071
 20
20.2748493772
 11
31.9020646915
 21
20.3983104081
  0
LINE
  5
23A
100
AcDbEntity
  8
0
100
AcDbLine
 62
7
  6
BYLAYER
 10
10.09185294
 20
37.4751763544
 11
10.2495346246
 21
37.3517154261
  0
LINE
  5
23B
100
AcDbEntity
  8
0
100
AcDbLine
 62
7
  6
BYLAYER
 10
29.675799699
 20
17.8912749377
 11
29.552502167
 21
18.0487478837
  0
LINE
  5
23C
100
AcDbEntity
  8
0
100
AcDbLine
 62
7
  6
BYLAYER
 10
12.4757996109
 20
39.8587508965
 11
12.5990971491
 21
39.7012779506
  0
LINE
  5
23D
100
AcDbEntity
  8
0
100
AcDbLine
 62
7
  6
BYLAYER
 10
12.875790426
 20
40.1605252508
 11
12.9933624204
 21
39.9987132142
  0
LINE
  5
23E
100
AcDbEntity
  8
0
100
AcDbLine
 62
7
  6
BYLAYER
 10
29.2758088949
 20
17.5895005768
 11
29.1582368957
 21
17.75131262
  0
LINE
  5
23F
100
AcDbEntity
  8
0
100
AcDbLine
 62
7
  6
BYLAYER
 10
29.2757989957
 20
17.5894936119
 11
29.275799658
 21
12.3750129171
  0
LINE
  5
240
100
AcDbEntity
  8
0
100
AcDbLine
 62
7
  6
BYLAYER
 10
29.2758018622
 20
40.1605297841
 11
29.275799658
 21
45.3750129171
  0
LINE
  5
241
100
AcDbEntity
  8
0
100
AcDbLine
 62
7
  6
BYLAYER
 10
29.475799658
 20
45.175016623
 11
29.475799658
 21
39.8587508963
  0
LINE
  5
242
100
AcDbEntity
  8
0
100
AcDbLine
 62
7
  6
BYLAYER
 10
29.475799658
 20
17.8912742379
 11
29.475799658
 21
12.5750129171
  0
LINE
  5
243
100
AcDbEntity
  8
0
100
AcDbLine
 62
7
  6
BYLAYER
 10
29.6757992955
 20
12.3750129171
 11
29.6757983192
 21
17.8909258772
  0
LINE
  5
244
100
AcDbEntity
  8
0
100
AcDbLine
 62
7
  6
BYLAYER
 10
29.6757973303
 20
39.8591008855
 11
29.675799645
 21
45.3750129171
  0
LINE
  5
245
100
AcDbEntity
  8
0
100
AcDbLine
 62
7
  6
BYLAYER
 10
32.3613306912
 20
37.0750126347
 11
37.575799658
 21
37.0750129171
  0
LINE
  5
246
100
AcDbEntity
  8
0
100
AcDbLine
 62
7
  6
BYLAYER
 10
9.7902745751
 20
37.075016508
 11
4.575799658
 21
37.0750129171
  0
LINE
  5
247
100
AcDbEntity
  8
0
100
AcDbLine
 62
7
  6
BYLAYER
 10
4.7757963188
 20
37.2750129171
 11
10.0920616788
 21
37.2750129171
  0
LINE
  5
248
100
AcDbEntity
  8
0
100
AcDbLine
 62
7
  6
BYLAYER
 10
32.0595383373
 20
37.2750129171
 11
37.3757996581
 21
37.2750129171
  0
LINE
  5
249
100
AcDbEntity
  8
0
100
AcDbLine
 62
7
  6
BYLAYER
 10
37.575799658
 20
37.475012551
 11
32.0598869855
 21
37.4750108162
  0
LINE
  5
24A
100
AcDbEntity
  8
0
100
AcDbLine
 62
7
  6
BYLAYER
 10
10.0917122072
 20
37.4750111443
 11
4.575799658
 21
37.4750129036
  0
LINE
  5
24B
100
AcDbEntity
  8
0
100
AcDbLine
 62
7
  6
BYLAYER
 10
32.0595376374
 20
20.2750137377
 11
32.0595376374
 21
20.4750129171
  0
LINE
  5
24C
100
AcDbEntity
  8
0
100
AcDbLine
 62
7
  6
BYLAYER
 10
32.0595376374
 20
37.2750129171
 11
32.0595376374
 21
37.4750129171
  0
LINE
  5
24D
100
AcDbEntity
  8
0
100
AcDbLine
 62
7
  6
BYLAYER
 10
29.675799658
 20
39.8587508965
 11
29.475799658
 21
39.8587508965
  0
LINE
  5
24E
100
AcDbEntity
  8
0
100
AcDbLine
 62
7
  6
BYLAYER
 10
12.675799658
 20
39.8587508965
 11
12.4758026672
 21
39.8587508965
  0
LINE
  5
24F
100
AcDbEntity
  8
0
100
AcDbLine
 62
7
  6
BYLAYER
 10
36.0757996573
 20
45.3750129171
 11
36.0757996573
 21
45.1750129171
  0
LINE
  5
250
100
AcDbEntity
  8
0
100
AcDbLine
 62
7
  6
BYLAYER
 10
36.075799658
 20
12.5750124605
 11
36.075799658
 21
12.3750129171
  0
LINE
  5
251
100
AcDbEntity
  8
0
100
AcDbLine
 62
7
  6
BYLAYER
 10
4.575799658
 20
43.8750129171
 11
4.7757971677
 21
43.8750129171
  0
LINE
  5
252
100
AcDbEntity
  8
0
100
AcDbLine
 62
7
  6
BYLAYER
 10
37.375799658
 20
43.8750129171
 11
37.575799658
 21
43.8750129171
  0
LINE
  5
253
100
AcDbEntity
  8
0
100
AcDbLine
 62
7
  6
BYLAYER
 10
37.375799658
 20
43.8756158841
 11
37.3758026652
 21
13.8744685715
  0
LINE
  5
254
100
AcDbEntity
  8
0
100
AcDbLine
 62
7
  6
BYLAYER
 10
37.575799658
 20
13.8750129177
 11
37.575799658
 21
43.875012917
  0
LINE
  5
255
100
AcDbEntity
  8
0
100
AcDbLine
 62
7
  6
BYLAYER
 10
6.0751957176
 20
45.175012917
 11
36.0763436221
 21
45.1750159341
  0
LINE
  5
256
100
AcDbEntity
  8
0
100
AcDbLine
 62
7
  6
BYLAYER
 10
6.0757996583
 20
45.3750129171
 11
36.0757996575
 21
45.3750129171
  0
CIRCLE
  5
257
100
AcDbEntity
  8
0
100
AcDbCircle
 62
7
  6
BYLAYER
 10
9.075799658
 20
16.8750129171
 40
2.15
  0
CIRCLE
  5
258
100
AcDbEntity
  8
0
100
AcDbCircle
 62
7
  6
BYLAYER
 10
9.075799658
 20
16.8750129171
 40
2.0
  0
CIRCLE
  5
259
100
AcDbEntity
  8
0
100
AcDbCircle
 62
7
  6
BYLAYER
 10
9.075799658
 20
16.8750129171
 40
1.6
  0
ARC
  5
25A
100
AcDbEntity
  8
0
100
AcDbCircle
 62
7
  6
BYLAYER
 10
6.075799658
 20
13.8750129171
 40
1.5
100
AcDbArc
 50
180.0
 51
270.0000000209
  0
ARC
  5
25B
100
AcDbEntity
  8
0
100
AcDbCircle
 62
7
  6
BYLAYER
 10
6.075799658
 20
13.8750129171
 40
1.3000772339
100
AcDbArc
 50
180.0265416406
 51
269.9759286305
  0
ARC
  5
25C
100
AcDbEntity
  8
0
100
AcDbCircle
 62
7
  6
BYLAYER
 10
12.475799658
 20
17.8912749377
 40
0.2
100
AcDbArc
 50
0.0002401143
 51
51.9398469175
  0
ARC
  5
25D
100
AcDbEntity
  8
0
100
AcDbCircle
 62
7
  6
BYLAYER
 10
4.775799658
 20
20.6750129171
 40
0.2
100
AcDbArc
 50
180.0
 51
269.9999292654
  0
ARC
  5
25E
100
AcDbEntity
  8
0
100
AcDbCircle
 62
7
  6
BYLAYER
 10
10.0920616787
 20
20.2750129171
 40
0.2
100
AcDbArc
 50
38.060085215
 51
90.0001002208
  0
ARC
  5
25F
100
AcDbEntity
  8
0
100
AcDbCircle
 62
7
  6
BYLAYER
 10
12.875799658
 20
12.5750129171
 40
0.2
100
AcDbArc
 50
180.0
 51
269.9999676575
  0
CIRCLE
  5
260
100
AcDbEntity
  8
0
100
AcDbCircle
 62
7
  6
BYLAYER
 10
9.075799658
 20
40.8750129171
 40
2.15
  0
CIRCLE
  5
261
100
AcDbEntity
  8
0
100
AcDbCircle
 62
7
  6
BYLAYER
 10
9.075799658
 20
40.8750129171
 40
2.0
  0
CIRCLE
  5
262
100
AcDbEntity
  8
0
100
AcDbCircle
 62
7
  6
BYLAYER
 10
9.075799658
 20
40.8750129171
 40
1.6
  0
ARC
  5
263
100
AcDbEntity
  8
0
100
AcDbCircle
 62
7
  6
BYLAYER
 10
6.075799658
 20
43.8750129171
 40
1.5
100
AcDbArc
 50
89.9999999876
 51
180.0
  0
ARC
  5
264
100
AcDbEntity
  8
0
100
AcDbCircle
 62
7
  6
BYLAYER
 10
6.075799658
 20
43.8750129171
 40
1.3000772876
100
AcDbArc
 50
90.0266178727
 51
179.9759711489
  0
ARC
  5
265
100
AcDbEntity
  8
0
100
AcDbCircle
 62
7
  6
BYLAYER
 10
10.0920616787
 20
37.4750129171
 40
0.2
100
AcDbArc
 50
270.0002398525
 51
321.9399178328
  0
ARC
  5
266
100
AcDbEntity
  8
0
100
AcDbCircle
 62
7
  6
BYLAYER
 10
4.775799658
 20
37.0750129171
 40
0.2
100
AcDbArc
 50
90.0012824051
 51
180.0
  0
ARC
  5
267
100
AcDbEntity
  8
0
100
AcDbCircle
 62
7
  6
BYLAYER
 10
12.475799658
 20
39.8587508965
 40
0.2
100
AcDbArc
 50
308.0600852153
 51
360.0
  0
ARC
  5
268
100
AcDbEntity
  8
0
100
AcDbCircle
 62
7
  6
BYLAYER
 10
12.875799658
 20
45.1750129171
 40
0.2
100
AcDbArc
 50
90.0000000028
 51
180.0
  0
CIRCLE
  5
269
100
AcDbEntity
  8
0
100
AcDbCircle
 62
7
  6
BYLAYER
 10
33.075799658
 20
16.8750129171
 40
2.15
  0
CIRCLE
  5
26A
100
AcDbEntity
  8
0
100
AcDbCircle
 62
7
  6
BYLAYER
 10
33.075799658
 20
16.8750129171
 40
2.0
  0
CIRCLE
  5
26B
100
AcDbEntity
  8
0
100
AcDbCircle
 62
7
  6
BYLAYER
 10
33.075799658
 20
16.8750129171
 40
1.6
  0
ARC
  5
26C
100
AcDbEntity
  8
0
100
AcDbCircle
 62
7
  6
BYLAYER
 10
36.075799658
 20
13.8750129171
 40
1.5
100
AcDbArc
 50
269.9999999876
 51
359.9999999385
  0
ARC
  5
26D
100
AcDbEntity
  8
0
100
AcDbCircle
 62
7
  6
BYLAYER
 10
36.075799658
 20
13.8750129171
 40
1.3000772179
100
AcDbArc
 50
270.0265594473
 51
359.9760087437
  0
ARC
  5
26E
100
AcDbEntity
  8
0
100
AcDbCircle
 62
7
  6
BYLAYER
 10
29.275799658
 20
12.5750129171
 40
0.2
100
AcDbArc
 50
270.0000000028
 51
359.9999288384
  0
ARC
  5
26F
100
AcDbEntity
  8
0
100
AcDbCircle
 62
7
  6
BYLAYER
 10
29.675799658
 20
17.8912749377
 40
0.2
100
AcDbArc
 50
128.0600852152
 51
180.0001002339
  0
ARC
  5
270
100
AcDbEntity
  8
0
100
AcDbCircle
 62
7
  6
BYLAYER
 10
32.0595376374
 20
20.2750129171
 40
0.2
100
AcDbArc
 50
90.0002398384
 51
141.9399178328
  0
ARC
  5
271
100
AcDbEntity
  8
0
100
AcDbCircle
 62
7
  6
BYLAYER
 10
37.375799658
 20
20.6750129171
 40
0.2
100
AcDbArc
 50
270.000722356
 51
359.9999676575
  0
ARC
  5
272
100
AcDbEntity
  8
0
100
AcDbCircle
 62
7
  6
BYLAYER
 10
21.075799658
 20
28.8750129171
 40
13.9502652769
100
AcDbArc
 50
308.0591929611
 51
321.9408098139
  0
ARC
  5
273
100
AcDbEntity
  8
0
100
AcDbCircle
 62
7
  6
BYLAYER
 10
21.075799658
 20
28.8750129171
 40
13.9502651141
100
AcDbArc
 50
38.059189769
 51
51.9408125874
  0
ARC
  5
274
100
AcDbEntity
  8
0
100
AcDbCircle
 62
7
  6
BYLAYER
 10
21.075799658
 20
28.8750129171
 40
13.9502651105
100
AcDbArc
 50
128.0591867054
 51
141.9408094827
  0
ARC
  5
275
100
AcDbEntity
  8
0
100
AcDbCircle
 62
7
  6
BYLAYER
 10
21.075799658
 20
28.8750129171
 40
13.950264956
100
AcDbArc
 50
218.0591757359
 51
231.9408119426
  0
ARC
  5
276
100
AcDbEntity
  8
0
100
AcDbCircle
 62
7
  6
BYLAYER
 10
21.075799658
 20
28.8750129171
 40
13.9500237
100
AcDbArc
 50
143.9980406482
 51
216.0019318609
  0
ARC
  5
277
100
AcDbEntity
  8
0
100
AcDbCircle
 62
7
  6
BYLAYER
 10
21.075799658
 20
28.8750129171
 40
13.9500236999
100
AcDbArc
 50
323.9980409769
 51
36.0019321163
  0
ARC
  5
278
100
AcDbEntity
  8
0
100
AcDbCircle
 62
7
  6
BYLAYER
 10
21.075799658
 20
28.8750129171
 40
13.9500157802
100
AcDbArc
 50
233.9980270797
 51
306.0019591684
  0
ARC
  5
279
100
AcDbEntity
  8
0
100
AcDbCircle
 62
7
  6
BYLAYER
 10
21.075799658
 20
28.8750129171
 40
13.950015772
100
AcDbArc
 50
53.9980254205
 51
126.0019585104
  0
CIRCLE
  5
27A
100
AcDbEntity
  8
0
100
AcDbCircle
 62
7
  6
BYLAYER
 10
21.075799658
 20
28.8750129171
 40
13.75
  0
CIRCLE
  5
27B
100
AcDbEntity
  8
0
100
AcDbCircle
 62
7
  6
BYLAYER
 10
21.075799658
 20
28.8750129171
 40
12.5
  0
CIRCLE
  5
27C
100
AcDbEntity
  8
0
100
AcDbCircle
 62
7
  6
BYLAYER
 10
21.075799658
 20
28.8750129171
 40
12.0000503521
  0
CIRCLE
  5
27D
100
AcDbEntity
  8
0
100
AcDbCircle
 62
7
  6
BYLAYER
 10
21.075799658
 20
28.8750129171
 40
7.4999997878
  0
CIRCLE
  5
27E
100
AcDbEntity
  8
0
100
AcDbCircle
 62
7
  6
BYLAYER
 10
21.075799658
 20
28.8750129171
 40
7.0
  0
CIRCLE
  5
27F
100
AcDbEntity
  8
0
100
AcDbCircle
 62
7
  6
BYLAYER
 10
21.075799658
 20
28.8750129171
 40
6.0
  0
CIRCLE
  5
280
100
AcDbEntity
  8
0
100
AcDbCircle
 62
7
  6
BYLAYER
 10
21.075799658
 20
28.8750129171
 40
5.5
  0
CIRCLE
  5
281
100
AcDbEntity
  8
0
100
AcDbCircle
 62
7
  6
BYLAYER
 10
21.075799658
 20
28.8750129171
 40
4.0
  0
CIRCLE
  5
282
100
AcDbEntity
  8
0
100
AcDbCircle
 62
7
  6
BYLAYER
 10
21.075799658
 20
28.8750129171
 40
3.4999999716
  0
CIRCLE
  5
283
100
AcDbEntity
  8
0
100
AcDbCircle
 62
7
  6
BYLAYER
 10
33.075799658
 20
40.8750129171
 40
2.15
  0
CIRCLE
  5
284
100
AcDbEntity
  8
0
100
AcDbCircle
 62
7
  6
BYLAYER
 10
33.075799658
 20
40.8750129171
 40
2.0
  0
CIRCLE
  5
285
100
AcDbEntity
  8
0
100
AcDbCircle
 62
7
  6
BYLAYER
 10
33.075799658
 20
40.8750129171
 40
1.6
  0
ARC
  5
286
100
AcDbEntity
  8
0
100
AcDbCircle
 62
7
  6
BYLAYER
 10
36.075799658
 20
43.8750129171
 40
1.5
100
AcDbArc
 50
0.0000000822
 51
90.0000000259
  0
ARC
  5
287
100
AcDbEntity
  8
0
100
AcDbCircle
 62
7
  6
BYLAYER
 10
36.075799658
 20
43.8750129171
 40
1.300077221
100
AcDbArc
 50
0.0265749723
 51
89.97602556
  0
ARC
  5
288
100
AcDbEntity
  8
0
100
AcDbCircle
 62
7
  6
BYLAYER
 10
37.375799658
 20
37.0750129171
 40
0.2
100
AcDbArc
 50
0.0000000028
 51
89.9999279171
  0
ARC
  5
289
100
AcDbEntity
  8
0
100
AcDbCircle
 62
7
  6
BYLAYER
 10
32.0595376374
 20
37.4750129171
 40
0.2
100
AcDbArc
 50
218.0600852153
 51
270.0001002468
  0
ARC
  5
28A
100
AcDbEntity
  8
0
100
AcDbCircle
 62
7
  6
BYLAYER
 10
29.675799658
 20
39.8587508965
 40
0.2
100
AcDbArc
 50
180.0
 51
231.9399178326
  0
ARC
  5
28B
100
AcDbEntity
  8
0
100
AcDbCircle
 62
7
  6
BYLAYER
 10
29.275799658
 20
45.1750129171
 40
0.2
100
AcDbArc
 50
0.0013349032
 51
89.9999676575
  0
SPLINE
  5
28C
100
AcDbEntity
  8
0
100
AcDbSpline
 62
7
  6
BYLAYER
 70
0
 71
3
 72
26
 73
22
 74
0
 42
0.0000001
 43
0.0000001
 44
0.0000000001
 40
0.0
 40
0.0
 40
0.0
 40
0.0
 40
0.1550674212
 40
0.3088678534
 40
0.4599024998
 40
0.6061468332
 40
0.6764984069
 40
0.7441961014
 40
0.8083295628
 40
0.8674792063
 40
0.8945951201
 40
0.919666673
 40
0.9423078294
 40
0.961952906
 40
0.9780224754
 40
0.9845573001
 40
0.9900125373
 40
0.9943295748
 40
0.9974607452
 40
0.9993646614
 40
1.0
 40
1.0
 40
1.0
 40
1.0
 10
9.7902913559
 20
37.0750129171
 30
0.0
 10
9.8057049876
 20
37.0856256679
 30
0.0
 10
9.8364686078
 20
37.1066741379
 30
0.0
 10
9.882452595
 20
37.1377545294
 30
0.0
 10
9.9277138009
 20
37.168001421
 30
0.0
 10
9.9647238941
 20
37.1924689662
 30
0.0
 10
9.9934140658
 20
37.2112838555
 30
0.0
 10
10.0138492462
 20
37.2246165061
 30
0.0
 10
10.0331835791
 20
37.2371623047
 30
0.0
 10
10.0484235478
 20
37.2470203984
 30
0.0
 10
10.0597145169
 20
37.2543043325
 30
0.0
 10
10.0673133537
 20
37.2591829575
 30
0.0
 10
10.0741682594
 20
37.2635543686
 30
0.0
 10
10.0801051852
 20
37.267335685
 30
0.0
 10
10.0844051774
 20
37.2700922904
 30
0.0
 10
10.087237961
 20
37.271921545
 30
0.0
 10
10.0889224061
 20
37.2729980406
 30
0.0
 10
10.0901529496
 20
37.2738116631
 30
0.0
 10
10.0912887305
 20
37.2744827464
 30
0.0
 10
10.0915376214
 20
37.2747367233
 30
0.0
 10
10.0921380998
 20
37.275019361
 30
0.0
 10
10.0920616968
 20
37.2750129171
 30
0.0
  0
SPLINE
  5
28D
100
AcDbEntity
  8
0
100
AcDbSpline
 62
7
  6
BYLAYER
 70
0
 71
3
 72
26
 73
22
 74
0
 42
0.0000001
 43
0.0000001
 44
0.0000000001
 40
0.0
 40
0.0
 40
0.0
 40
0.0
 40
0.0006353671
 40
0.0025409272
 40
0.0056742407
 40
0.0099928097
 40
0.0154484957
 40
0.0219833024
 40
0.0380543244
 40
0.0577052706
 40
0.0803531535
 40
0.1054281173
 40
0.1325443374
 40
0.1916926525
 40
0.2558250374
 40
0.3235208969
 40
0.3938708075
 40
0.5401116677
 40
0.6911414643
 40
0.8449372739
 40
1.0
 40
1.0
 40
1.0
 40
1.0
 10
10.0920618042
 20
20.4750129178
 30
0.0
 10
10.0921382662
 20
20.4750071922
 30
0.0
 10
10.0915376376
 20
20.4752887645
 30
0.0
 10
10.0912886847
 20
20.4755444094
 30
0.0
 10
10.0901524792
 20
20.4762153985
 30
0.0
 10
10.0889218032
 20
20.4770299849
 30
0.0
 10
10.087237535
 20
20.4781069784
 30
0.0
 10
10.0844050559
 20
20.479937059
 30
0.0
 10
10.0801045669
 20
20.4826942871
 30
0.0
 10
10.0741655331
 20
20.4864751888
 30
0.0
 10
10.0673081936
 20
20.4908460525
 30
0.0
 10
10.0597080702
 20
20.4957246577
 30
0.0
 10
10.0484171891
 20
20.5030087366
 30
0.0
 10
10.033177986
 20
20.5128668426
 30
0.0
 10
10.0138446169
 20
20.5254122936
 30
0.0
 10
9.9934108379
 20
20.5387451393
 30
0.0
 10
9.9647215263
 20
20.5575584835
 30
0.0
 10
9.9277127932
 20
20.5820242102
 30
0.0
 10
9.8824542228
 20
20.6122701592
 30
0.0
 10
9.8364723049
 20
20.6433484938
 30
0.0
 10
9.8057137769
 20
20.6644010158
 30
0.0
 10
9.7903008449
 20
20.6750130874
 30
0.0
  0
SPLINE
  5
28E
100
AcDbEntity
  8
0
100
AcDbSpline
 62
7
  6
BYLAYER
 70
0
 71
3
 72
26
 73
22
 74
0
 42
0.0000001
 43
0.0000001
 44
0.0000000001
 40
0.0
 40
0.0
 40
0.0
 40
0.0
 40
0.0006353705
 40
0.0025409412
 40
0.0056742721
 40
0.009992865
 40
0.0154485807
 40
0.0219834214
 40
0.0380545188
 40
0.0577055422
 40
0.0803534984
 40
0.105428529
 40
0.132544809
 40
0.191693218
 40
0.2558256615
 40
0.3235215475
 40
0.3938714578
 40
0.5401122583
 40
0.6911419141
 40
0.8449375388
 40
1.0
 40
1.0
 40
1.0
 40
1.0
 10
29.4757996574
 20
17.8912750632
 30
0.0
 10
29.4758053835
 20
17.8913515262
 30
0.0
 10
29.4755238055
 20
17.8907508886
 30
0.0
 10
29.4752681579
 20
17.8905019319
 30
0.0
 10
29.4745971577
 20
17.889365709
 30
0.0
 10
29.473782559
 20
17.8881350141
 30
0.0
 10
29.4727055492
 20
17.8864507202
 30
0.0
 10
29.470875442
 20
17.883618199
 30
0.0
 10
29.468118175
 20
17.8793176486
 30
0.0
 10
29.4643372212
 20
17.8733785336
 30
0.0
 10
29.4599662998
 20
17.866521105
 30
0.0
 10
29.4550876329
 20
17.858920887
 30
0.0
 10
29.4478034673
 20
17.8476298731
 30
0.0
 10
29.437945249
 20
17.8323904996
 30
0.0
 10
29.425399661
 20
17.8130569237
 30
0.0
 10
29.4120666864
 20
17.7926229303
 30
0.0
 10
29.3932531107
 20
17.7639333723
 30
0.0
 10
29.3687873351
 20
17.7269241778
 30
0.0
 10
29.3385406811
 20
17.6816654889
 30
0.0
 10
29.3074622691
 20
17.6356830604
 30
0.0
 10
29.2864118149
 20
17.6049227367
 30
0.0
 10
29.275799658
 20
17.5895096789
 30
0.0
  0
SPLINE
  5
28F
100
AcDbEntity
  8
0
100
AcDbSpline
 62
7
  6
BYLAYER
 70
0
 71
3
 72
26
 73
22
 74
0
 42
0.0000001
 43
0.0000001
 44
0.0000000001
 40
0.0
 40
0.0
 40
0.0
 40
0.0
 40
0.1550675621
 40
0.3088680808
 40
0.4599027695
 40
0.6061470918
 40
0.6764986394
 40
0.7441962906
 40
0.8083296927
 40
0.867479263
 40
0.8945951378
 40
0.9196666536
 40
0.9423077758
 40
0.9619528285
 40
0.9780223938
 40
0.9845572242
 40
0.9900124715
 40
0.9943295233
 40
0.9974607104
 40
0.9993646443
 40
1.0
 40
1.0
 40
1.0
 40
1.0
 10
32.3613053518
 20
20.6750111215
 30
0.0
 10
32.3458918415
 20
20.6643984552
 30
0.0
 10
32.3151284607
 20
20.6433501685
 30
0.0
 10
32.2691448433
 20
20.6122700452
 30
0.0
 10
32.2238840197
 20
20.5820234195
 30
0.0
 10
32.1868742483
 20
20.5575560955
 30
0.0
 10
32.1581843355
 20
20.5387413805
 30
0.0
 10
32.1377493468
 20
20.5254088579
 30
0.0
 10
32.1184152013
 20
20.5128631827
 30
0.0
 10
32.1031753841
 20
20.5030051874
 30
0.0
 10
32.0918845291
 20
20.4957213282
 30
0.0
 10
32.0842857701
 20
20.4908427537
 30
0.0
 10
32.0774309346
 20
20.4864713876
 30
0.0
 10
32.0714940677
 20
20.4826901066
 30
0.0
 10
32.0671941143
 20
20.4799335329
 30
0.0
 10
32.0643613545
 20
20.4781042877
 30
0.0
 10
32.0626769208
 20
20.4770278129
 30
0.0
 10
32.061446388
 20
20.4762141552
 30
0.0
 10
32.0603106086
 20
20.4755431564
 30
0.0
 10
32.0600617296
 20
20.475289023
 30
0.0
 10
32.0594612379
 20
20.4750065398
 30
0.0
 10
32.0595376478
 20
20.4750129171
 30
0.0
  0
SPLINE
  5
290
100
AcDbEntity
  8
0
100
AcDbSpline
 62
7
  6
BYLAYER
 70
0
 71
3
 72
26
 73
22
 74
0
 42
0.0000001
 43
0.0000001
 44
0.0000000001
 40
0.0
 40
0.0
 40
0.0
 40
0.0
 40
0.000635367
 40
0.0025409278
 40
0.0056742426
 40
0.0099928136
 40
0.0154485024
 40
0.0219833123
 40
0.0380543418
 40
0.0577052959
 40
0.0803531863
 40
0.1054281568
 40
0.132544383
 40
0.1916927078
 40
0.2558250989
 40
0.3235209614
 40
0.3938708721
 40
0.5401117268
 40
0.6911415088
 40
0.8449373007
 40
1.0
 40
1.0
 40
1.0
 40
1.0
 10
32.0595375121
 20
37.2750129164
 30
0.0
 10
32.0594610502
 20
37.2750186429
 30
0.0
 10
32.0600616793
 20
37.274737068
 30
0.0
 10
32.0603106326
 20
37.2744814249
 30
0.0
 10
32.0614468397
 20
37.2738104336
 30
0.0
 10
32.0626775176
 20
37.2729958464
 30
0.0
 10
32.0643617883
 20
37.2719188511
 30
0.0
 10
32.0671942717
 20
37.2700887679
 30
0.0
 10
32.071494767
 20
37.2673315357
 30
0.0
 10
32.0774338092
 20
37.2635506287
 30
0.0
 10
32.0842911579
 20
37.259179759
 30
0.0
 10
32.0918912912
 20
37.2543011474
 30
0.0
 10
32.1031821861
 20
37.2470170595
 30
0.0
 10
32.1184214069
 20
37.2371589417
 30
0.0
 10
32.1377547975
 20
37.2246134763
 30
0.0
 10
32.1581885995
 20
37.211280618
 30
0.0
 10
32.1868779348
 20
37.1924672465
 30
0.0
 10
32.2238867245
 20
37.1680015274
 30
0.0
 10
32.269145288
 20
37.1377554754
 30
0.0
 10
32.3151272681
 20
37.1066771464
 30
0.0
 10
32.3458860917
 20
37.0856249976
 30
0.0
 10
32.361299037
 20
37.0750129171
 30
0.0
  0
SPLINE
  5
291
100
AcDbEntity
  8
0
100
AcDbSpline
 62
7
  6
BYLAYER
 70
0
 71
3
 72
26
 73
22
 74
0
 42
0.0000001
 43
0.0000001
 44
0.0000000001
 40
0.0
 40
0.0
 40
0.0
 40
0.0
 40
0.1550674365
 40
0.3088678683
 40
0.4599025048
 40
0.6061468134
 40
0.6764983703
 40
0.7441960431
 40
0.8083294824
 40
0.8674791047
 40
0.89459501
 40
0.9196665588
 40
0.9423077136
 40
0.9619527955
 40
0.9780223843
 40
0.9845572234
 40
0.9900124766
 40
0.9943295309
 40
0.9974607177
 40
0.9993646488
 40
1.0
 40
1.0
 40
1.0
 40
1.0
 10
12.8757989374
 20
17.5895054483
 30
0.0
 10
12.8651862188
 20
17.6049190347
 30
0.0
 10
12.8441379195
 20
17.6356826354
 30
0.0
 10
12.8130576378
 20
17.6816664917
 30
0.0
 10
12.7828108225
 20
17.7269275427
 30
0.0
 10
12.7583433669
 20
17.7639375246
 30
0.0
 10
12.7395285389
 20
17.7926276014
 30
0.0
 10
12.7261959333
 20
17.8130627132
 30
0.0
 10
12.7136501782
 20
17.8323969806
 30
0.0
 10
12.7037921181
 20
17.8476368973
 30
0.0
 10
12.696508209
 20
17.8589278286
 30
0.0
 10
12.6916296002
 20
17.8665266409
 30
0.0
 10
12.6872582025
 20
17.8733815253
 30
0.0
 10
12.6834768945
 20
17.8793184348
 30
0.0
 10
12.6807202989
 20
17.8836184188
 30
0.0
 10
12.678891043
 20
17.8864511988
 30
0.0
 10
12.6778145566
 20
17.888135644
 30
0.0
 10
12.6770009069
 20
17.8893661859
 30
0.0
 10
12.6763298773
 20
17.8905019709
 30
0.0
 10
12.6760757941
 20
17.8907508549
 30
0.0
 10
12.6757932588
 20
17.8913513449
 30
0.0
 10
12.675799658
 20
17.8912749369
 30
0.0
  0
SPLINE
  5
292
100
AcDbEntity
  8
0
100
AcDbSpline
 62
7
  6
BYLAYER
 70
0
 71
3
 72
26
 73
22
 74
0
 42
0.0000001
 43
0.0000001
 44
0.0000000001
 40
0.0
 40
0.0
 40
0.0
 40
0.0
 40
0.000635435
 40
0.0025411552
 40
0.0056746533
 40
0.009993364
 40
0.015449115
 40
0.0219839323
 40
0.0380549254
 40
0.0577058993
 40
0.0803538446
 40
0.1054288571
 40
0.1325451052
 40
0.1916934548
 40
0.2558258563
 40
0.3235217036
 40
0.3938715808
 40
0.5401123282
 40
0.6911419499
 40
0.8449375463
 40
1.0
 40
1.0
 40
1.0
 40
1.0
 10
12.6757996587
 20
39.8587505547
 30
0.0
 10
12.6757939317
 20
39.858674084
 30
0.0
 10
12.676075505
 20
39.8592747911
 30
0.0
 10
12.676331151
 20
39.8595237754
 30
0.0
 10
12.6770021405
 20
39.860660073
 30
0.0
 10
12.6778167374
 20
39.8618908113
 30
0.0
 10
12.678893746
 20
39.8635751194
 30
0.0
 10
12.6807238494
 20
39.8664076231
 30
0.0
 10
12.6834811177
 20
39.8707081357
 30
0.0
 10
12.6872620533
 20
39.8766472236
 30
0.0
 10
12.691632956
 20
39.883504635
 30
0.0
 10
12.6965116077
 20
39.8911048344
 30
0.0
 10
12.7037957542
 20
39.9023958155
 30
0.0
 10
12.7136539466
 20
39.9176351468
 30
0.0
 10
12.7261995002
 20
39.9369686744
 30
0.0
 10
12.739532447
 20
39.9574026159
 30
0.0
 10
12.7583459608
 20
39.9860921211
 30
0.0
 10
12.782811756
 20
40.0231011874
 30
0.0
 10
12.8130581735
 20
40.0683598962
 30
0.0
 10
12.8441366014
 20
40.1143421844
 30
0.0
 10
12.8651879252
 20
40.1451018237
 30
0.0
 10
12.8758000624
 20
40.1605148521
 30
0.0
  0
SPLINE
  5
293
100
AcDbEntity
  8
0
100
AcDbSpline
 62
7
  6
BYLAYER
 70
0
 71
3
 72
26
 73
22
 74
0
 42
0.0000001
 43
0.0000001
 44
0.0000000001
 40
0.0
 40
0.0
 40
0.0
 40
0.0
 40
0.1550673279
 40
0.3088676789
 40
0.4599022568
 40
0.6061465379
 40
0.6764980941
 40
0.7441957781
 40
0.8083292414
 40
0.867478903
 40
0.8945948336
 40
0.9196664098
 40
0.9423075958
 40
0.9619527115
 40
0.9780223323
 40
0.9845571854
 40
0.9900124511
 40
0.9943295158
 40
0.9974607105
 40
0.9993646468
 40
1.0
 40
1.0
 40
1.0
 40
1.0
 10
29.275799658
 20
40.1605217226
 30
0.0
 10
29.2864124137
 20
40.1451080827
 30
0.0
 10
29.3074606541
 20
40.1143442809
 30
0.0
 10
29.3385410424
 20
40.0683602539
 30
0.0
 10
29.3687880024
 20
40.0230990505
 30
0.0
 10
29.3932555459
 20
39.9860889175
 30
0.0
 10
29.4120704559
 20
39.9573987256
 30
0.0
 10
29.4254031196
 20
39.9369635253
 30
0.0
 10
29.4379489329
 20
39.9176291702
 30
0.0
 10
29.4478070401
 20
39.9023891811
 30
0.0
 10
29.455090986
 20
39.8910981937
 30
0.0
 10
29.4599696212
 20
39.8834993415
 30
0.0
 10
29.4643410434
 20
39.8766444192
 30
0.0
 10
29.4681223733
 20
39.870707475
 30
0.0
 10
29.4708789853
 20
39.8664074648
 30
0.0
 10
29.4727082528
 20
39.8635746671
 30
0.0
 10
29.4737847459
 20
39.861890211
 30
0.0
 10
29.4745984015
 20
39.8606596612
 30
0.0
 10
29.4752694344
 20
39.8595238685
 30
0.0
 10
29.4755235213
 20
39.8592749829
 30
0.0
 10
29.4758060565
 20
39.8586744885
 30
0.0
 10
29.475799658
 20
39.8587508971
 30
0.0
  0
ENDSEC
  0
SECTION
  2
OBJECTS
  0
DICTIONARY
  5
C
100
AcDbDictionary
280
0
281
1
  3
ACAD_GROUP
350
D
  3
ACAD_MLINESTYLE
350
17
  3
ACAD_LAYOUT
350
1A
  3
ACAD_PLOTSETTINGS
350
19
  3
ACAD_PLOTSTYLENAME
350
E
  0
DICTIONARY
  5
D
102
{ACAD_REACTORS
330
C
102
}
100
AcDbDictionary
280
0
281
1
  0
ACDBDICTIONARYWDFLT
  5
E
102
{ACAD_REACTORS
330
C
102
}
100
AcDbDictionary
281
1
  3
Normal
350
F
100
AcDbDictionaryWithDefault
340
F
  0
DICTIONARY
  5
17
102
{ACAD_REACTORS
330
C
102
}
100
AcDbDictionary
280
0
281
1
  3
Standard
350
18
  0
DICTIONARY
  5
19
102
{ACAD_REACTORS
330
C
102
}
100
AcDbDictionary
281
1
  0
DICTIONARY
  5
1A
102
{ACAD_REACTORS
330
C
102
}
100
AcDbDictionary
281
1
  3
Model
350
294
  3
Layout1
350
295
  0
ACDBPLACEHOLDER
  5
F
102
{ACAD_REACTORS
330
E
102
}
  0
MLINESTYLE
  5
18
102
{ACAD_REACTORS
330
17
102
}
100
AcDbMlineStyle
  2
STANDARD
 70
0
  3

 62
256
 51
90.0
 52
90.0
 71
2
 49
0.5
 62
256
  6
BYLAYER
 49
-0.5
 62
256
  6
BYLAYER
  0
LAYOUT
  5
294
102
{ACAD_REACTORS
330
1A
102
}
100
AcDbPlotSettings
  1

  2
none_device
  4

  6

 40
0.0
 41
0.0
 42
0.0
 43
0.0
 44
210.0
 45
297.0
 46
0.0
 47
0.0
 48
0.0
 49
0.0
140
0.0
141
0.0
142
1.0
143
1.0
 70
1024
 72
1
 73
0
 74
0
  7

 75
0
147
1.0
148
0.0
149
0.0
100
AcDbLayout
  1
Model
 70
0
 71
0
 10
0.0
 20
0.0
 11
210.0
 21
297.0
 12
0.0
 22
0.0
 32
0.0
 14
0.0
 24
0.0
 34
0.0
 15
0.0
 25
0.0
 35
0.0
146
0.0
 13
0.0
 23
0.0
 33
0.0
 16
1.0
 26
0.0
 36
0.0
 17
0.0
 27
1.0
 37
0.0
 76
0
330
210
345
0
346
0
  0
LAYOUT
  5
295
102
{ACAD_REACTORS
330
1A
102
}
100
AcDbPlotSettings
  1

  2
none_device
  4

  6

 40
0.0
 41
0.0
 42
0.0
 43
0.0
 44
210.0
 45
297.0
 46
0.0
 47
0.0
 48
0.0
 49
0.0
140
0.0
141
0.0
142
1.0
143
1.0
 70
0
 72
1
 73
0
 74
0
  7

 75
0
147
1.0
148
0.0
149
0.0
100
AcDbLayout
  1
Layout1
 70
0
 71
1
 10
0.0
 20
0.0
 11
210.0
 21
297.0
 12
0.0
 22
0.0
 32
0.0
 14
0.0
 24
0.0
 34
0.0
 15
0.0
 25
0.0
 35
0.0
146
0.0
 13
0.0
 23
0.0
 33
0.0
 16
1.0
 26
0.0
 36
0.0
 17
0.0
 27
1.0
 37
0.0
 76
0
330
211
345
0
346
0
  0
ENDSEC
  0
EOF
