999
DXF file: C:\Users\sesa63760\Dev\_Creo\CAD\MCADID0004756_3D-CAD\drw0001_5.dxf
999
Pro/ENGINEER 2019471 by Parametric Technology Corporation
  0
SECTION
  2
HEADER
  9
$ACADVER
  1
AC1024
  9
$DWGCODEPAGE
  3
ANSI_1252
  9
$EXTMAX
 10
28.8417342123
 20
40.7904526717
 30
0.0
  9
$EXTMIN
 10
0.0
 20
0.0
 30
0.0
  9
$LIMMIN
 10
0.0
 20
0.0
  9
$LIMMAX
 10
28.8417342123
 20
40.7904526717
  9
$VIEWCTR
 10
14.4208671062
 20
20.3952263359
  9
$VIEWSIZE
 40
40.7904526717
  9
$CLAYER
  8
0
  9
$LTSCALE
 40
2.6589332112
  9
$CELTYPE
  6
BYLAYER
  9
$DIMSCALE
 40
1.0
  9
$DIMASZ
 40
0.3433539787
  9
$DIMEXO
 40
1.0
  9
$DIMDLI
 40
1.8370811277
  9
$DIMEXE
 40
1.0
  9
$DIMCEN
 40
0.4350981618
  9
$DIMLFAC
 40
1.0
  9
$DIMBLK
  1
_FILLED
  9
$DIMALT
 70
0
  9
$DIMALTF
 40
0.0393700787
  9
$DIMTXT
 40
0.4806955702
  9
$DIMTOL
 70
1
  9
$DIMLIM
 70
0
  9
$DIMTFAC
 40
1.0
  9
$DIMTP
 40
0.01
  9
$DIMTM
 40
0.01
  9
$DIMGAP
 40
0.625
  9
$DIMDSEP
 70
46
  9
$AUNITS
 70
0
  9
$PDMODE
 70
3
  9
$PDSIZE
 40
0.3125
  9
$HANDSEED
  5
28A
  9
$TILEMODE
 70
1
  9
$MEASUREMENT
 70
1
  9
$INSUNITS
 70
4
  0
ENDSEC
  0
SECTION
  2
CLASSES
  0
CLASS
  1
ACDBDICTIONARYWDFLT
  2
AcDbDictionaryWithDefault
  3
AutoCAD 2000
 90
0
 91
1
280
0
281
0
  0
CLASS
  1
ACDBPLACEHOLDER
  2
AcDbPlaceHolder
  3
AutoCAD 2000
 90
0
 91
1
280
0
281
0
  0
CLASS
  1
LAYOUT
  2
AcDbLayout
  3
AutoCAD 2000
 90
0
 91
0
280
0
281
0
  0
ENDSEC
  0
SECTION
  2
TABLES
  0
TABLE
  2
VPORT
  5
8
100
AcDbSymbolTable
 70
2
  0
VPORT
  5
1F4
100
AcDbSymbolTableRecord
100
AcDbViewportTableRecord
  2
*ACTIVE
 70
0
 10
0.0
 20
0.0
 11
1.0
 21
1.0
 12
14.4208671062
 22
20.3952263359
 13
0.0
 23
0.0
 14
1.0
 24
1.0
 15
0.0
 25
0.0
 16
0.0
 26
0.0
 36
1.0
 17
0.0
 27
0.0
 37
0.0
 40
40.7904526717
 41
0.7070707071
 42
50.0
 43
0.0
 44
0.0
 50
0.0
 51
0.0
 71
0
 72
100
 73
1
 74
1
 75
0
 76
0
 77
0
 78
0
  0
ENDTAB
  0
TABLE
  2
LTYPE
  5
5
100
AcDbSymbolTable
 70
6
  0
LTYPE
  5
14
100
AcDbSymbolTableRecord
100
AcDbLinetypeTableRecord
  2
BYBLOCK
 70
0
  3

 72
65
 73
0
 40
0.0
  0
LTYPE
  5
15
100
AcDbSymbolTableRecord
100
AcDbLinetypeTableRecord
  2
BYLAYER
 70
0
  3

 72
65
 73
0
 40
0.0
  0
LTYPE
  5
16
100
AcDbSymbolTableRecord
100
AcDbLinetypeTableRecord
  2
CONTINUOUS
 70
64
  3
Solid line
 72
65
 73
0
 40
0.0
  0
LTYPE
  5
1F5
100
AcDbSymbolTableRecord
100
AcDbLinetypeTableRecord
  2
CENTER
 70
64
  3
____ _ ____ _ ____ _ ____ _ ____ _ ____ _ ____
 72
65
 73
4
 40
0.6
 49
0.375
 74
0
 49
-0.075
 74
0
 49
0.075
 74
0
 49
-0.075
 74
0
  0
LTYPE
  5
1F6
100
AcDbSymbolTableRecord
100
AcDbLinetypeTableRecord
  2
HIDDEN
 70
64
  3
- - - - - - - - - - - - - - - - - - - -
 72
65
 73
2
 40
0.2
 49
0.1
 74
0
 49
-0.1
 74
0
  0
LTYPE
  5
1F7
100
AcDbSymbolTableRecord
100
AcDbLinetypeTableRecord
  2
PHANTOM
 70
64
  3
_____ _ _ _____ _ _ _____ _ _ _____
 72
65
 73
6
 40
0.8
 49
0.45
 74
0
 49
-0.05
 74
0
 49
0.1
 74
0
 49
-0.05
 74
0
 49
0.1
 74
0
 49
-0.05
 74
0
  0
LTYPE
  5
1F8
100
AcDbSymbolTableRecord
100
AcDbLinetypeTableRecord
  2
DOT
 70
64
  3
. . . . . . . . . . . . . . . . . . . .
 72
65
 73
2
 40
0.2
 49
0.1
 74
0
 49
-0.1
 74
0
  0
LTYPE
  5
1F9
100
AcDbSymbolTableRecord
100
AcDbLinetypeTableRecord
  2
DASHED
 70
64
  3
- - - - - - - - - - - - - - - - - - - -
 72
65
 73
2
 40
0.2
 49
0.1
 74
0
 49
-0.1
 74
0
  0
ENDTAB
  0
TABLE
  2
LAYER
  5
2
100
AcDbSymbolTable
 70
36
  0
LAYER
  5
10
100
AcDbSymbolTableRecord
100
AcDbLayerTableRecord
  2
0
 70
0
 62
7
  6
CONTINUOUS
370
-3
390
F
  0
LAYER
  5
1FA
100
AcDbSymbolTableRecord
100
AcDbLayerTableRecord
  2
DEFAULT_1
 70
0
 62
7
  6
CENTER
370
-3
390
F
  0
LAYER
  5
1FB
100
AcDbSymbolTableRecord
100
AcDbLayerTableRecord
  2
DEFAULT_2
 70
0
 62
7
  6
HIDDEN
370
-3
390
F
  0
LAYER
  5
1FC
100
AcDbSymbolTableRecord
100
AcDbLayerTableRecord
  2
DEFAULT_3
 70
0
 62
7
  6
PHANTOM
370
-3
390
F
  0
LAYER
  5
1FD
100
AcDbSymbolTableRecord
100
AcDbLayerTableRecord
  2
00_COMPONENTS
 70
0
 62
7
  6
CONTINUOUS
370
-3
390
F
  0
LAYER
  5
1FE
100
AcDbSymbolTableRecord
100
AcDbLayerTableRecord
  2
01_1_DEFAULT_DATUMS
 70
0
 62
7
  6
CONTINUOUS
370
-3
390
F
  0
LAYER
  5
1FF
100
AcDbSymbolTableRecord
100
AcDbLayerTableRecord
  2
01_PLANES
 70
0
 62
7
  6
CONTINUOUS
370
-3
390
F
  0
LAYER
  5
200
100
AcDbSymbolTableRecord
100
AcDbLayerTableRecord
  2
02_COORD_SYS
 70
0
 62
7
  6
CONTINUOUS
370
-3
390
F
  0
LAYER
  5
201
100
AcDbSymbolTableRecord
100
AcDbLayerTableRecord
  2
03_AXES
 70
0
 62
7
  6
CONTINUOUS
370
-3
390
F
  0
LAYER
  5
202
100
AcDbSymbolTableRecord
100
AcDbLayerTableRecord
  2
04_POINTS
 70
0
 62
7
  6
CONTINUOUS
370
-3
390
F
  0
LAYER
  5
203
100
AcDbSymbolTableRecord
100
AcDbLayerTableRecord
  2
05_CURVES
 70
0
 62
7
  6
CONTINUOUS
370
-3
390
F
  0
LAYER
  5
204
100
AcDbSymbolTableRecord
100
AcDbLayerTableRecord
  2
06_SURFS
 70
0
 62
7
  6
CONTINUOUS
370
-3
390
F
  0
LAYER
  5
205
100
AcDbSymbolTableRecord
100
AcDbLayerTableRecord
  2
07_COSMETICS
 70
0
 62
7
  6
CONTINUOUS
370
-3
390
F
  0
LAYER
  5
206
100
AcDbSymbolTableRecord
100
AcDbLayerTableRecord
  2
10_NOTES
 70
0
 62
7
  6
CONTINUOUS
370
-3
390
F
  0
LAYER
  5
207
100
AcDbSymbolTableRecord
100
AcDbLayerTableRecord
  2
11_NOTES_PUB
 70
0
 62
7
  6
CONTINUOUS
370
-3
390
F
  0
LAYER
  5
208
100
AcDbSymbolTableRecord
100
AcDbLayerTableRecord
  2
13_REF_GTOL
 70
0
 62
7
  6
CONTINUOUS
370
-3
390
F
  0
LAYER
  5
209
100
AcDbSymbolTableRecord
100
AcDbLayerTableRecord
  2
16_MISC
 70
0
 62
7
  6
CONTINUOUS
370
-3
390
F
  0
LAYER
  5
20A
100
AcDbSymbolTableRecord
100
AcDbLayerTableRecord
  2
17_NO_PRINT
 70
0
 62
7
  6
CONTINUOUS
370
-3
390
F
  0
LAYER
  5
20B
100
AcDbSymbolTableRecord
100
AcDbLayerTableRecord
  2
18_DATUM_CAMS_JOINTS
 70
0
 62
7
  6
CONTINUOUS
370
-3
390
F
  0
LAYER
  5
20C
100
AcDbSymbolTableRecord
100
AcDbLayerTableRecord
  2
19_DATUM_FUNCTIONAL
 70
0
 62
7
  6
CONTINUOUS
370
-3
390
F
  0
LAYER
  5
20D
100
AcDbSymbolTableRecord
100
AcDbLayerTableRecord
  2
20_DATUM_KINEMATIC_SCHEME
 70
0
 62
7
  6
CONTINUOUS
370
-3
390
F
  0
ENDTAB
  0
TABLE
  2
STYLE
  5
3
100
AcDbSymbolTable
 70
1
  0
STYLE
  5
11
100
AcDbSymbolTableRecord
100
AcDbTextStyleTableRecord
  2
STANDARD
 70
0
 40
0.0
 41
1.0
 50
0.0
 71
0
 42
0.2
  3
ARIAL.TTF
  4

  0
STYLE
  5
20E
100
AcDbSymbolTableRecord
100
AcDbTextStyleTableRecord
  2
TEXTSTYLE_1
 70
0
 40
0.0
 41
0.8
 50
0.0
 71
0
 42
0.2
  3
gdt
  4

  0
ENDTAB
  0
TABLE
  2
VIEW
  5
6
100
AcDbSymbolTable
 70
0
  0
ENDTAB
  0
TABLE
  2
UCS
  5
7
100
AcDbSymbolTable
 70
0
  0
ENDTAB
  0
TABLE
  2
APPID
  5
9
100
AcDbSymbolTable
 70
1
  0
APPID
  5
20F
100
AcDbSymbolTableRecord
100
AcDbRegAppTableRecord
  2
ACAD
 70
0
  0
ENDTAB
  0
TABLE
  2
BLOCK_RECORD
  5
1
100
AcDbSymbolTable
 70
0
  0
BLOCK_RECORD
  5
210
100
AcDbSymbolTableRecord
100
AcDbBlockTableRecord
  2
*Model_Space
  0
BLOCK_RECORD
  5
211
100
AcDbSymbolTableRecord
100
AcDbBlockTableRecord
  2
*Paper_Space
  0
BLOCK_RECORD
  5
212
100
AcDbSymbolTableRecord
100
AcDbBlockTableRecord
  2
_FILLED
  0
ENDTAB
  0
TABLE
  2
DIMSTYLE
  5
A
100
AcDbSymbolTable
 70
1
100
AcDbDimStyleTable
 71
0
  0
DIMSTYLE
105
213
100
AcDbSymbolTableRecord
100
AcDbDimStyleTableRecord
  2
STANDARD
 70
0
  3

  4

 40
1.0
 41
0.3433539787
 42
1.0
 43
0.38
 44
1.0
 45
0.0
 46
0.0
 47
0.01
 48
0.01
140
0.4806955702
141
0.09
142
0.0
143
25.4
144
1.0
145
0.0
146
1.0
147
0.625
 71
1
 72
0
 73
0
 74
0
 75
0
 76
0
 77
1
 78
8
 79
2
170
0
171
1
172
0
173
0
174
0
175
0
176
0
177
0
178
0
270
2
179
2
271
2
272
2
273
2
274
2
275
0
280
0
281
0
282
0
283
1
284
8
285
0
286
0
287
3
288
0
340
11
278
46
341
212
342
212
343
212
344
212
  0
ENDTAB
  0
ENDSEC
  0
SECTION
  2
BLOCKS
  0
BLOCK
  5
20
100
AcDbEntity
  8
0
100
AcDbBlockBegin
  2
*Model_Space
 70
0
 10
0.0
 20
0.0
 30
0.0
  3
*Model_Space
  1

  0
ENDBLK
  5
21
100
AcDbEntity
  8
0
100
AcDbBlockEnd
  0
BLOCK
  5
1C
100
AcDbEntity
  8
0
100
AcDbBlockBegin
  2
*Paper_Space
 70
0
 10
0.0
 20
0.0
 30
0.0
  3
*Paper_Space
  1

  0
ENDBLK
  5
1D
100
AcDbEntity
  8
0
100
AcDbBlockEnd
  0
BLOCK
  5
214
100
AcDbEntity
  8
0
100
AcDbBlockBegin
  2
_FILLED
 70
64
 10
0.0
 20
0.0
  3
_FILLED
  1

  0
SOLID
  5
215
100
AcDbEntity
  8
0
  6
BYBLOCK
 62
0
100
AcDbTrace
 10
0.0
 20
0.0
 11
-1.0
 21
0.25
 12
-1.0
 22
-0.25
 13
-1.0
 23
-0.25
  0
ENDBLK
  5
216
100
AcDbEntity
  8
0
  6
BYBLOCK
 62
0
100
AcDbBlockEnd
  0
ENDSEC
  0
SECTION
  2
ENTITIES
  0
LINE
  5
217
100
AcDbEntity
  8
0
100
AcDbLine
 62
7
  6
BYLAYER
 10
8.9703828481
 20
3.3201531244
 11
20.6701851987
 21
3.3201531244
  0
LINE
  5
218
100
AcDbEntity
  8
0
100
AcDbLine
 62
7
  6
BYLAYER
 10
21.1702840234
 20
3.8201531244
 11
8.4702840234
 21
3.8201531244
  0
LINE
  5
219
100
AcDbEntity
  8
0
100
AcDbLine
 62
7
  6
BYLAYER
 10
9.2197012409
 20
3.8372514925
 11
9.4282414347
 21
3.8372514925
  0
LINE
  5
21A
100
AcDbEntity
  8
0
100
AcDbLine
 62
7
  6
BYLAYER
 10
20.2123198472
 20
3.8372514925
 11
20.4208332555
 21
3.8372514925
  0
LINE
  5
21B
100
AcDbEntity
  8
0
100
AcDbLine
 62
7
  6
BYLAYER
 10
8.4703009925
 20
5.8201531244
 11
21.1702654176
 21
5.8201531244
  0
LINE
  5
21C
100
AcDbEntity
  8
0
100
AcDbLine
 62
7
  6
BYLAYER
 10
20.9702775745
 20
7.0201531244
 11
8.6702904723
 21
7.0201531244
  0
LINE
  5
21D
100
AcDbEntity
  8
0
100
AcDbLine
 62
7
  6
BYLAYER
 10
21.1702840234
 20
7.2201531244
 11
20.4208332555
 21
7.2201531244
  0
LINE
  5
21E
100
AcDbEntity
  8
0
100
AcDbLine
 62
7
  6
BYLAYER
 10
20.212326612
 20
7.2201531244
 11
9.4282414347
 21
7.2201531244
  0
LINE
  5
21F
100
AcDbEntity
  8
0
100
AcDbLine
 62
7
  6
BYLAYER
 10
9.2197347912
 20
7.2201531244
 11
8.4702840234
 21
7.2201531244
  0
LINE
  5
220
100
AcDbEntity
  8
0
100
AcDbLine
 62
7
  6
BYLAYER
 10
8.6702840234
 20
7.0201531244
 11
8.4702840234
 21
7.2201531244
  0
LINE
  5
221
100
AcDbEntity
  8
0
100
AcDbLine
 62
7
  6
BYLAYER
 10
8.4703009925
 20
8.1701531244
 11
21.1702654176
 21
8.1701531244
  0
LINE
  5
222
100
AcDbEntity
  8
0
100
AcDbLine
 62
7
  6
BYLAYER
 10
21.5702820185
 20
9.5201531244
 11
8.0702860702
 21
9.5201531244
  0
LINE
  5
223
100
AcDbEntity
  8
0
100
AcDbLine
 62
7
  6
BYLAYER
 10
21.2055965151
 20
9.7201531244
 11
20.4074422579
 21
9.7201531244
  0
LINE
  5
224
100
AcDbEntity
  8
0
100
AcDbLine
 62
7
  6
BYLAYER
 10
9.2331257889
 20
9.7201531244
 11
8.4349715317
 21
9.7201531244
  0
LINE
  5
225
100
AcDbEntity
  8
0
100
AcDbLine
 62
7
  6
BYLAYER
 10
5.0053294472
 20
22.4778121077
 11
5.0053294472
 21
19.6824941412
  0
LINE
  5
226
100
AcDbEntity
  8
0
100
AcDbLine
 62
7
  6
BYLAYER
 10
5.0053294472
 20
18.4778121077
 11
5.0053294472
 21
15.6824941412
  0
LINE
  5
227
100
AcDbEntity
  8
0
100
AcDbLine
 62
7
  6
BYLAYER
 10
9.8202840234
 20
29.6201531244
 11
8.8202840234
 21
28.6201531244
  0
LINE
  5
228
100
AcDbEntity
  8
0
100
AcDbLine
 62
7
  6
BYLAYER
 10
6.8702840234
 20
13.4201531244
 11
6.8702840234
 21
11.6201531244
  0
LINE
  5
229
100
AcDbEntity
  8
0
100
AcDbLine
 62
7
  6
BYLAYER
 10
22.7701804891
 20
11.6201531244
 11
6.8703875577
 21
11.6201531244
  0
LINE
  5
22A
100
AcDbEntity
  8
0
100
AcDbLine
 62
7
  6
BYLAYER
 10
8.4885613702
 20
9.5201531244
 11
8.4349715317
 21
9.7201531244
  0
LINE
  5
22B
100
AcDbEntity
  8
0
100
AcDbLine
 62
7
  6
BYLAYER
 10
8.0702840234
 20
11.6201531244
 11
8.0702840234
 21
9.5201531244
  0
LINE
  5
22C
100
AcDbEntity
  8
0
100
AcDbLine
 62
7
  6
BYLAYER
 10
23.3202840234
 20
15.3301531244
 11
24.6352385996
 21
15.6824941412
  0
LINE
  5
22D
100
AcDbEntity
  8
0
100
AcDbLine
 62
7
  6
BYLAYER
 10
6.8702840234
 20
13.4201531244
 11
22.7702840234
 21
13.4201531244
  0
LINE
  5
22E
100
AcDbEntity
  8
0
100
AcDbLine
 62
7
  6
BYLAYER
 10
7.0703846145
 20
13.6201531244
 11
22.5701842066
 21
13.6201531244
  0
LINE
  5
22F
100
AcDbEntity
  8
0
100
AcDbLine
 62
7
  6
BYLAYER
 10
5.0053294472
 20
15.6824941412
 11
6.3202840234
 21
15.3301531244
  0
LINE
  5
230
100
AcDbEntity
  8
0
100
AcDbLine
 62
7
  6
BYLAYER
 10
8.4349715317
 20
9.7201531244
 11
8.4349715317
 21
11.6201531244
  0
LINE
  5
231
100
AcDbEntity
  8
0
100
AcDbLine
 62
7
  6
BYLAYER
 10
8.4702840234
 20
3.8201531244
 11
8.4702840234
 21
5.8201531244
  0
LINE
  5
232
100
AcDbEntity
  8
0
100
AcDbLine
 62
7
  6
BYLAYER
 10
8.4702840234
 20
7.2201531244
 11
8.4702840234
 21
8.1701531244
  0
LINE
  5
233
100
AcDbEntity
  8
0
100
AcDbLine
 62
7
  6
BYLAYER
 10
8.8202840234
 20
13.6201531244
 11
8.8202840234
 21
15.3301531244
  0
LINE
  5
234
100
AcDbEntity
  8
0
100
AcDbLine
 62
7
  6
BYLAYER
 10
8.8202840234
 20
18.8301531244
 11
8.8202840234
 21
19.3301531244
  0
LINE
  5
235
100
AcDbEntity
  8
0
100
AcDbLine
 62
7
  6
BYLAYER
 10
8.8202840234
 20
22.8301531244
 11
8.8202840234
 21
28.6201531244
  0
LINE
  5
236
100
AcDbEntity
  8
0
100
AcDbLine
 62
7
  6
BYLAYER
 10
9.2197347912
 20
3.8372514925
 11
9.2197347912
 21
5.8201531244
  0
LINE
  5
237
100
AcDbEntity
  8
0
100
AcDbLine
 62
7
  6
BYLAYER
 10
9.2197347912
 20
7.2201531244
 11
9.2197347912
 21
8.1701531244
  0
LINE
  5
238
100
AcDbEntity
  8
0
100
AcDbLine
 62
7
  6
BYLAYER
 10
9.2202840234
 20
7.0201531244
 11
9.2202840234
 21
5.8201531244
  0
LINE
  5
239
100
AcDbEntity
  8
0
100
AcDbLine
 62
7
  6
BYLAYER
 10
9.3202840234
 20
8.1701531244
 11
9.3202840234
 21
9.5201531244
  0
LINE
  5
23A
100
AcDbEntity
  8
0
100
AcDbLine
 62
7
  6
BYLAYER
 10
9.4282414347
 20
3.8372514925
 11
9.4282414347
 21
5.8201531244
  0
LINE
  5
23B
100
AcDbEntity
  8
0
100
AcDbLine
 62
7
  6
BYLAYER
 10
9.4282414347
 20
7.2201531244
 11
9.4282414347
 21
8.1701531244
  0
LINE
  5
23C
100
AcDbEntity
  8
0
100
AcDbLine
 62
7
  6
BYLAYER
 10
23.3202840234
 20
15.3301531244
 11
6.3202840234
 21
15.3301531244
  0
LINE
  5
23D
100
AcDbEntity
  8
0
100
AcDbLine
 62
7
  6
BYLAYER
 10
9.9128067353
 20
22.4778121077
 11
9.9128067353
 21
19.6824941412
  0
LINE
  5
23E
100
AcDbEntity
  8
0
100
AcDbLine
 62
7
  6
BYLAYER
 10
9.9128067353
 20
18.4778121077
 11
9.9128067353
 21
15.6824941412
  0
LINE
  5
23F
100
AcDbEntity
  8
0
100
AcDbLine
 62
7
  6
BYLAYER
 10
11.3202840234
 20
36.5140999948
 11
11.3202840234
 21
29.6201531244
  0
LINE
  5
240
100
AcDbEntity
  8
0
100
AcDbLine
 62
7
  6
BYLAYER
 10
23.3202840234
 20
19.3301531244
 11
24.6352385996
 21
19.6824941412
  0
LINE
  5
241
100
AcDbEntity
  8
0
100
AcDbLine
 62
7
  6
BYLAYER
 10
5.0053294472
 20
19.6824941412
 11
6.3202840234
 21
19.3301531244
  0
LINE
  5
242
100
AcDbEntity
  8
0
100
AcDbLine
 62
7
  6
BYLAYER
 10
6.3202840234
 20
18.8301531244
 11
23.3202840234
 21
18.8301531244
  0
LINE
  5
243
100
AcDbEntity
  8
0
100
AcDbLine
 62
7
  6
BYLAYER
 10
23.3202840234
 20
19.3301531244
 11
6.3202840234
 21
19.3301531244
  0
LINE
  5
244
100
AcDbEntity
  8
0
100
AcDbLine
 62
7
  6
BYLAYER
 10
6.3202840234
 20
18.8301531244
 11
5.0053294472
 21
18.4778121077
  0
LINE
  5
245
100
AcDbEntity
  8
0
100
AcDbLine
 62
7
  6
BYLAYER
 10
24.6352385996
 20
18.4778121077
 11
23.3202840234
 21
18.8301531244
  0
LINE
  5
246
100
AcDbEntity
  8
0
100
AcDbLine
 62
7
  6
BYLAYER
 10
6.3202840234
 20
22.8301531244
 11
23.3202840234
 21
22.8301531244
  0
LINE
  5
247
100
AcDbEntity
  8
0
100
AcDbLine
 62
7
  6
BYLAYER
 10
18.3202840234
 20
29.6201531244
 11
18.3202840234
 21
36.5140999948
  0
LINE
  5
248
100
AcDbEntity
  8
0
100
AcDbLine
 62
7
  6
BYLAYER
 10
19.7277613115
 20
22.4778121077
 11
19.7277613115
 21
19.6824941412
  0
LINE
  5
249
100
AcDbEntity
  8
0
100
AcDbLine
 62
7
  6
BYLAYER
 10
19.7277613115
 20
18.4778121077
 11
19.7277613115
 21
15.6824941412
  0
LINE
  5
24A
100
AcDbEntity
  8
0
100
AcDbLine
 62
7
  6
BYLAYER
 10
20.212326612
 20
3.8372514925
 11
20.212326612
 21
5.8201531244
  0
LINE
  5
24B
100
AcDbEntity
  8
0
100
AcDbLine
 62
7
  6
BYLAYER
 10
20.212326612
 20
7.2201531244
 11
20.212326612
 21
8.1701531244
  0
LINE
  5
24C
100
AcDbEntity
  8
0
100
AcDbLine
 62
7
  6
BYLAYER
 10
6.3202840234
 20
22.8301531244
 11
5.0053294472
 21
22.4778121077
  0
LINE
  5
24D
100
AcDbEntity
  8
0
100
AcDbLine
 62
7
  6
BYLAYER
 10
24.6352385996
 20
22.4778121077
 11
23.3202840234
 21
22.8301531244
  0
LINE
  5
24E
100
AcDbEntity
  8
0
100
AcDbLine
 62
7
  6
BYLAYER
 10
20.3202840234
 20
8.1701531244
 11
20.3202840234
 21
9.5201531244
  0
LINE
  5
24F
100
AcDbEntity
  8
0
100
AcDbLine
 62
7
  6
BYLAYER
 10
20.4202840234
 20
5.8201531244
 11
20.4202840234
 21
7.0201531244
  0
LINE
  5
250
100
AcDbEntity
  8
0
100
AcDbLine
 62
7
  6
BYLAYER
 10
20.4208332555
 20
3.8372514925
 11
20.4208332555
 21
5.8201531244
  0
LINE
  5
251
100
AcDbEntity
  8
0
100
AcDbLine
 62
7
  6
BYLAYER
 10
20.4208332555
 20
7.2201531244
 11
20.4208332555
 21
8.1701531244
  0
LINE
  5
252
100
AcDbEntity
  8
0
100
AcDbLine
 62
7
  6
BYLAYER
 10
20.8202840234
 20
13.6201531244
 11
20.8202840234
 21
15.3301531244
  0
LINE
  5
253
100
AcDbEntity
  8
0
100
AcDbLine
 62
7
  6
BYLAYER
 10
20.8202840234
 20
18.8301531244
 11
20.8202840234
 21
19.3301531244
  0
LINE
  5
254
100
AcDbEntity
  8
0
100
AcDbLine
 62
7
  6
BYLAYER
 10
20.8202840234
 20
22.8301531244
 11
20.8202840234
 21
28.6201531244
  0
LINE
  5
255
100
AcDbEntity
  8
0
100
AcDbLine
 62
7
  6
BYLAYER
 10
21.1702840234
 20
3.8201531244
 11
21.1702840234
 21
5.8201531244
  0
LINE
  5
256
100
AcDbEntity
  8
0
100
AcDbLine
 62
7
  6
BYLAYER
 10
21.1702840234
 20
7.2201531244
 11
21.1702840234
 21
8.1701531244
  0
LINE
  5
257
100
AcDbEntity
  8
0
100
AcDbLine
 62
7
  6
BYLAYER
 10
21.2055965151
 20
11.6201531244
 11
21.2055965151
 21
9.7201531244
  0
LINE
  5
258
100
AcDbEntity
  8
0
100
AcDbLine
 62
7
  6
BYLAYER
 10
21.5702840234
 20
11.6201531244
 11
21.5702840234
 21
9.5201531244
  0
LINE
  5
259
100
AcDbEntity
  8
0
100
AcDbLine
 62
7
  6
BYLAYER
 10
22.7702840234
 20
13.4201531244
 11
22.7702840234
 21
11.6201531244
  0
LINE
  5
25A
100
AcDbEntity
  8
0
100
AcDbLine
 62
7
  6
BYLAYER
 10
21.2055965151
 20
9.7201531244
 11
21.1520066766
 21
9.5201531244
  0
LINE
  5
25B
100
AcDbEntity
  8
0
100
AcDbLine
 62
7
  6
BYLAYER
 10
8.8202840234
 20
28.6201531244
 11
20.8202840234
 21
28.6201531244
  0
LINE
  5
25C
100
AcDbEntity
  8
0
100
AcDbLine
 62
7
  6
BYLAYER
 10
9.8203645091
 20
29.6201531244
 11
19.8202035377
 21
29.6201531244
  0
LINE
  5
25D
100
AcDbEntity
  8
0
100
AcDbLine
 62
7
  6
BYLAYER
 10
24.6352385996
 20
22.4778121077
 11
24.6352385996
 21
19.6824941412
  0
LINE
  5
25E
100
AcDbEntity
  8
0
100
AcDbLine
 62
7
  6
BYLAYER
 10
24.6352385996
 20
18.4778121077
 11
24.6352385996
 21
15.6824941412
  0
LINE
  5
25F
100
AcDbEntity
  8
0
100
AcDbLine
 62
7
  6
BYLAYER
 10
19.8202840234
 20
29.6201531244
 11
20.8202840234
 21
28.6201531244
  0
LINE
  5
260
100
AcDbEntity
  8
0
100
AcDbLine
 62
7
  6
BYLAYER
 10
20.9702840234
 20
7.0201531244
 11
21.1702840234
 21
7.2201531244
  0
LINE
  5
261
100
AcDbEntity
  8
0
100
AcDbLine
 62
7
  6
BYLAYER
 10
11.3202840234
 20
36.5140999948
 11
18.3202840234
 21
36.5140999948
  0
LINE
  5
262
100
AcDbEntity
  8
0
100
AcDbLine
 62
7
  6
BYLAYER
 10
18.2250457726
 20
36.6844671608
 11
11.4155222742
 21
36.6844671608
  0
LINE
  5
263
100
AcDbEntity
  8
0
100
AcDbLine
 62
7
  6
BYLAYER
 10
13.8202840234
 20
37.5701531244
 11
15.8202840234
 21
37.5701531244
  0
ARC
  5
264
100
AcDbEntity
  8
0
100
AcDbCircle
 62
7
  6
BYLAYER
 10
14.8202840234
 20
31.1475368351
 40
6.5
100
AcDbArc
 50
58.4118661046
 51
81.1501169016
  0
ARC
  5
265
100
AcDbEntity
  8
0
100
AcDbCircle
 62
7
  6
BYLAYER
 10
14.8202840234
 20
31.1475368351
 40
6.5
100
AcDbArc
 50
98.8498830984
 51
121.5881338954
  0
ARC
  5
266
100
AcDbEntity
  8
0
100
AcDbCircle
 62
7
  6
BYLAYER
 10
8.9702840234
 20
3.8201531244
 40
0.5
100
AcDbArc
 50
180.0
 51
270.0
  0
ARC
  5
267
100
AcDbEntity
  8
0
100
AcDbCircle
 62
7
  6
BYLAYER
 10
20.6702840234
 20
3.8201531244
 40
0.5
100
AcDbArc
 50
270.0
 51
360.0
  0
ARC
  5
268
100
AcDbEntity
  8
0
100
AcDbCircle
 62
7
  6
BYLAYER
 10
18.1202840234
 20
36.5140999811
 40
0.2
100
AcDbArc
 50
0.0
 51
58.4118644948
  0
ARC
  5
269
100
AcDbEntity
  8
0
100
AcDbCircle
 62
7
  6
BYLAYER
 10
11.5202840234
 20
36.5140999811
 40
0.2
100
AcDbArc
 50
121.5881355052
 51
180.0
  0
ARC
  5
26A
100
AcDbEntity
  8
0
100
AcDbCircle
 62
7
  6
BYLAYER
 10
22.5702840234
 20
13.4201531244
 40
0.2
100
AcDbArc
 50
0.0
 51
90.0
  0
ARC
  5
26B
100
AcDbEntity
  8
0
100
AcDbCircle
 62
7
  6
BYLAYER
 10
7.0702840234
 20
13.4201531244
 40
0.2
100
AcDbArc
 50
90.0
 51
180.0
  0
SPLINE
  5
26C
100
AcDbEntity
  8
0
100
AcDbSpline
 62
7
  6
BYLAYER
 70
0
 71
3
 72
11
 73
7
 74
0
 42
0.0000001
 43
0.0000001
 44
0.0000000001
 40
0.0
 40
0.0
 40
0.0
 40
0.0
 40
0.2477305731
 40
0.4965105923
 40
0.7471297326
 40
1.0
 40
1.0
 40
1.0
 40
1.0
 10
22.1814999548
 20
18.8301531244
 30
0.0
 10
22.3867635268
 20
18.8301531245
 30
0.0
 10
22.7983300196
 20
18.8140548008
 30
0.0
 10
23.4138458218
 20
18.743381176
 30
0.0
 10
24.0272958229
 20
18.6307108711
 30
0.0
 10
24.4328556968
 20
18.532040443
 30
0.0
 10
24.6352385996
 20
18.4778121077
 30
0.0
  0
SPLINE
  5
26D
100
AcDbEntity
  8
0
100
AcDbSpline
 62
7
  6
BYLAYER
 70
0
 71
3
 72
11
 73
7
 74
0
 42
0.0000001
 43
0.0000001
 44
0.0000000001
 40
0.0
 40
0.0
 40
0.0
 40
0.0
 40
0.2477305731
 40
0.4965105922
 40
0.7471297364
 40
1.0
 40
1.0
 40
1.0
 40
1.0
 10
22.1814999548
 20
15.3301531244
 30
0.0
 10
21.976236383
 20
15.3301531245
 30
0.0
 10
21.5646698927
 20
15.3462514573
 30
0.0
 10
20.9491540802
 20
15.4169250356
 30
0.0
 10
20.3357041046
 20
15.5295954684
 30
0.0
 10
19.930144211
 20
15.6282658067
 30
0.0
 10
19.7277613115
 20
15.6824941412
 30
0.0
  0
SPLINE
  5
26E
100
AcDbEntity
  8
0
100
AcDbSpline
 62
7
  6
BYLAYER
 70
0
 71
3
 72
11
 73
7
 74
0
 42
0.0000001
 43
0.0000001
 44
0.0000000001
 40
0.0
 40
0.0
 40
0.0
 40
0.0
 40
0.2500019724
 40
0.5000023334
 40
0.7500012115
 40
1.0
 40
1.0
 40
1.0
 40
1.0
 10
19.7277613115
 20
15.6824941412
 30
0.0
 10
19.3210914462
 20
15.6280107102
 30
0.0
 10
18.5063672365
 20
15.5290069315
 30
0.0
 10
17.2804016076
 20
15.4165909908
 30
0.0
 10
16.0512638982
 20
15.3461688656
 30
0.0
 10
15.2305820775
 20
15.3301531237
 30
0.0
 10
14.8202839717
 20
15.3301531237
 30
0.0
  0
SPLINE
  5
26F
100
AcDbEntity
  8
0
100
AcDbSpline
 62
7
  6
BYLAYER
 70
0
 71
3
 72
11
 73
7
 74
0
 42
0.0000001
 43
0.0000001
 44
0.0000000001
 40
0.0
 40
0.0
 40
0.0
 40
0.0
 40
0.2528702647
 40
0.5034894097
 40
0.7522694285
 40
1.0
 40
1.0
 40
1.0
 40
1.0
 10
5.0053294472
 20
18.4778121077
 30
0.0
 10
5.2077123477
 20
18.5320404424
 30
0.0
 10
5.613272243
 20
18.6307107813
 30
0.0
 10
6.2267222198
 20
18.7433812173
 30
0.0
 10
6.8422380322
 20
18.8140547912
 30
0.0
 10
7.2538045211
 20
18.8301531245
 30
0.0
 10
7.4590680916
 20
18.8301531245
 30
0.0
  0
SPLINE
  5
270
100
AcDbEntity
  8
0
100
AcDbSpline
 62
7
  6
BYLAYER
 70
0
 71
3
 72
11
 73
7
 74
0
 42
0.0000001
 43
0.0000001
 44
0.0000000001
 40
0.0
 40
0.0
 40
0.0
 40
0.0
 40
0.2477305731
 40
0.4965105922
 40
0.7471297364
 40
1.0
 40
1.0
 40
1.0
 40
1.0
 10
7.4590680916
 20
15.3301531244
 30
0.0
 10
7.2538045198
 20
15.3301531244
 30
0.0
 10
6.8422380293
 20
15.3462514573
 30
0.0
 10
6.2267222165
 20
15.4169250355
 30
0.0
 10
5.6132722406
 20
15.5295954683
 30
0.0
 10
5.2077123468
 20
15.6282658067
 30
0.0
 10
5.0053294472
 20
15.6824941412
 30
0.0
  0
SPLINE
  5
271
100
AcDbEntity
  8
0
100
AcDbSpline
 62
7
  6
BYLAYER
 70
0
 71
3
 72
11
 73
7
 74
0
 42
0.0000001
 43
0.0000001
 44
0.0000000001
 40
0.0
 40
0.0
 40
0.0
 40
0.0
 40
0.2528702685
 40
0.5034894095
 40
0.7522694284
 40
1.0
 40
1.0
 40
1.0
 40
1.0
 10
24.6352385996
 20
15.6824941412
 30
0.0
 10
24.4328556958
 20
15.6282658056
 30
0.0
 10
24.0272958205
 20
15.5295953769
 30
0.0
 10
23.4138458185
 20
15.416925069
 30
0.0
 10
22.7983300167
 20
15.3462514486
 30
0.0
 10
22.3867635256
 20
15.3301531244
 30
0.0
 10
22.1814999548
 20
15.3301531244
 30
0.0
  0
SPLINE
  5
272
100
AcDbEntity
  8
0
100
AcDbSpline
 62
7
  6
BYLAYER
 70
0
 71
3
 72
11
 73
7
 74
0
 42
0.0000001
 43
0.0000001
 44
0.0000000001
 40
0.0
 40
0.0
 40
0.0
 40
0.0
 40
0.2528702647
 40
0.5034894097
 40
0.7522694285
 40
1.0
 40
1.0
 40
1.0
 40
1.0
 10
19.7277613115
 20
18.4778121077
 30
0.0
 10
19.930144212
 20
18.5320404424
 30
0.0
 10
20.335704107
 20
18.6307107813
 30
0.0
 10
20.9491540835
 20
18.7433812172
 30
0.0
 10
21.5646698956
 20
18.8140547911
 30
0.0
 10
21.9762363843
 20
18.8301531244
 30
0.0
 10
22.1814999548
 20
18.8301531244
 30
0.0
  0
SPLINE
  5
273
100
AcDbEntity
  8
0
100
AcDbSpline
 62
7
  6
BYLAYER
 70
0
 71
3
 72
11
 73
7
 74
0
 42
0.0000001
 43
0.0000001
 44
0.0000000001
 40
0.0
 40
0.0
 40
0.0
 40
0.0
 40
0.2477305731
 40
0.4965105923
 40
0.7471297326
 40
1.0
 40
1.0
 40
1.0
 40
1.0
 10
7.4590680916
 20
18.8301531245
 30
0.0
 10
7.6643316636
 20
18.8301531244
 30
0.0
 10
8.0758981561
 20
18.8140548007
 30
0.0
 10
8.691413958
 20
18.7433811759
 30
0.0
 10
9.3048639589
 20
18.6307108711
 30
0.0
 10
9.7104238325
 20
18.532040443
 30
0.0
 10
9.9128067353
 20
18.4778121077
 30
0.0
  0
SPLINE
  5
274
100
AcDbEntity
  8
0
100
AcDbSpline
 62
7
  6
BYLAYER
 70
0
 71
3
 72
11
 73
7
 74
0
 42
0.0000001
 43
0.0000001
 44
0.0000000001
 40
0.0
 40
0.0
 40
0.0
 40
0.0
 40
0.2500019719
 40
0.5000023336
 40
0.7500012116
 40
1.0
 40
1.0
 40
1.0
 40
1.0
 10
9.9128067353
 20
18.4778121077
 30
0.0
 10
10.3194765953
 20
18.5322955379
 30
0.0
 10
11.1342008069
 20
18.6312992228
 30
0.0
 10
12.3601664101
 20
18.7437152949
 30
0.0
 10
13.5893041112
 20
18.8141373722
 30
0.0
 10
14.4099859218
 20
18.8301531244
 30
0.0
 10
14.8202840229
 20
18.8301531244
 30
0.0
  0
SPLINE
  5
275
100
AcDbEntity
  8
0
100
AcDbSpline
 62
7
  6
BYLAYER
 70
0
 71
3
 72
11
 73
7
 74
0
 42
0.0000001
 43
0.0000001
 44
0.0000000001
 40
0.0
 40
0.0
 40
0.0
 40
0.0
 40
0.24999879
 40
0.4999976682
 40
0.7499980293
 40
1.0
 40
1.0
 40
1.0
 40
1.0
 10
14.8202839717
 20
15.3301531237
 30
0.0
 10
14.4099858723
 20
15.330153125
 30
0.0
 10
13.5893040673
 20
15.346168878
 30
0.0
 10
12.3601663775
 20
15.4165909599
 30
0.0
 10
11.1342007895
 20
15.5290070284
 30
0.0
 10
10.3194765892
 20
15.6280107118
 30
0.0
 10
9.9128067353
 20
15.6824941412
 30
0.0
  0
SPLINE
  5
276
100
AcDbEntity
  8
0
100
AcDbSpline
 62
7
  6
BYLAYER
 70
0
 71
3
 72
11
 73
7
 74
0
 42
0.0000001
 43
0.0000001
 44
0.0000000001
 40
0.0
 40
0.0
 40
0.0
 40
0.0
 40
0.2528702685
 40
0.5034894095
 40
0.7522694284
 40
1.0
 40
1.0
 40
1.0
 40
1.0
 10
9.9128067353
 20
15.6824941412
 30
0.0
 10
9.7104238316
 20
15.6282658056
 30
0.0
 10
9.3048639565
 20
15.529595377
 30
0.0
 10
8.6914139548
 20
15.4169250691
 30
0.0
 10
8.0758981533
 20
15.3462514486
 30
0.0
 10
7.6643316623
 20
15.3301531244
 30
0.0
 10
7.4590680916
 20
15.3301531244
 30
0.0
  0
SPLINE
  5
277
100
AcDbEntity
  8
0
100
AcDbSpline
 62
7
  6
BYLAYER
 70
0
 71
3
 72
11
 73
7
 74
0
 42
0.0000001
 43
0.0000001
 44
0.0000000001
 40
0.0
 40
0.0
 40
0.0
 40
0.0
 40
0.2499987901
 40
0.4999976683
 40
0.7499980287
 40
1.0
 40
1.0
 40
1.0
 40
1.0
 10
14.8202840229
 20
18.8301531244
 30
0.0
 10
15.2305821269
 20
18.8301531244
 30
0.0
 10
16.051263942
 20
18.8141373823
 30
0.0
 10
17.2804016401
 20
18.7437152521
 30
0.0
 10
18.5063672539
 20
18.6312993151
 30
0.0
 10
19.3210914523
 20
18.5322955378
 30
0.0
 10
19.7277613115
 20
18.4778121077
 30
0.0
  0
SPLINE
  5
278
100
AcDbEntity
  8
0
100
AcDbSpline
 62
7
  6
BYLAYER
 70
0
 71
3
 72
11
 73
7
 74
0
 42
0.0000001
 43
0.0000001
 44
0.0000000001
 40
0.0
 40
0.0
 40
0.0
 40
0.0
 40
0.2477305731
 40
0.4965105923
 40
0.7471297326
 40
1.0
 40
1.0
 40
1.0
 40
1.0
 10
22.1814999548
 20
22.8301531244
 30
0.0
 10
22.3867635268
 20
22.8301531245
 30
0.0
 10
22.7983300196
 20
22.8140548008
 30
0.0
 10
23.4138458218
 20
22.743381176
 30
0.0
 10
24.0272958229
 20
22.6307108711
 30
0.0
 10
24.4328556968
 20
22.532040443
 30
0.0
 10
24.6352385996
 20
22.4778121077
 30
0.0
  0
SPLINE
  5
279
100
AcDbEntity
  8
0
100
AcDbSpline
 62
7
  6
BYLAYER
 70
0
 71
3
 72
11
 73
7
 74
0
 42
0.0000001
 43
0.0000001
 44
0.0000000001
 40
0.0
 40
0.0
 40
0.0
 40
0.0
 40
0.2477305731
 40
0.4965105922
 40
0.7471297364
 40
1.0
 40
1.0
 40
1.0
 40
1.0
 10
22.1814999548
 20
19.3301531244
 30
0.0
 10
21.976236383
 20
19.3301531245
 30
0.0
 10
21.5646698927
 20
19.3462514573
 30
0.0
 10
20.9491540802
 20
19.4169250356
 30
0.0
 10
20.3357041046
 20
19.5295954684
 30
0.0
 10
19.930144211
 20
19.6282658067
 30
0.0
 10
19.7277613115
 20
19.6824941412
 30
0.0
  0
SPLINE
  5
27A
100
AcDbEntity
  8
0
100
AcDbSpline
 62
7
  6
BYLAYER
 70
0
 71
3
 72
11
 73
7
 74
0
 42
0.0000001
 43
0.0000001
 44
0.0000000001
 40
0.0
 40
0.0
 40
0.0
 40
0.0
 40
0.2500019724
 40
0.5000023334
 40
0.7500012115
 40
1.0
 40
1.0
 40
1.0
 40
1.0
 10
19.7277613115
 20
19.6824941412
 30
0.0
 10
19.3210914462
 20
19.6280107102
 30
0.0
 10
18.5063672365
 20
19.5290069315
 30
0.0
 10
17.2804016076
 20
19.4165909908
 30
0.0
 10
16.0512638982
 20
19.3461688656
 30
0.0
 10
15.2305820775
 20
19.3301531237
 30
0.0
 10
14.8202839717
 20
19.3301531237
 30
0.0
  0
SPLINE
  5
27B
100
AcDbEntity
  8
0
100
AcDbSpline
 62
7
  6
BYLAYER
 70
0
 71
3
 72
11
 73
7
 74
0
 42
0.0000001
 43
0.0000001
 44
0.0000000001
 40
0.0
 40
0.0
 40
0.0
 40
0.0
 40
0.2528702647
 40
0.5034894097
 40
0.7522694285
 40
1.0
 40
1.0
 40
1.0
 40
1.0
 10
5.0053294472
 20
22.4778121077
 30
0.0
 10
5.2077123477
 20
22.5320404424
 30
0.0
 10
5.613272243
 20
22.6307107813
 30
0.0
 10
6.2267222198
 20
22.7433812173
 30
0.0
 10
6.8422380322
 20
22.8140547912
 30
0.0
 10
7.2538045211
 20
22.8301531245
 30
0.0
 10
7.4590680916
 20
22.8301531245
 30
0.0
  0
SPLINE
  5
27C
100
AcDbEntity
  8
0
100
AcDbSpline
 62
7
  6
BYLAYER
 70
0
 71
3
 72
11
 73
7
 74
0
 42
0.0000001
 43
0.0000001
 44
0.0000000001
 40
0.0
 40
0.0
 40
0.0
 40
0.0
 40
0.2477305731
 40
0.4965105922
 40
0.7471297364
 40
1.0
 40
1.0
 40
1.0
 40
1.0
 10
7.4590680916
 20
19.3301531244
 30
0.0
 10
7.2538045198
 20
19.3301531244
 30
0.0
 10
6.8422380293
 20
19.3462514573
 30
0.0
 10
6.2267222165
 20
19.4169250355
 30
0.0
 10
5.6132722406
 20
19.5295954683
 30
0.0
 10
5.2077123468
 20
19.6282658067
 30
0.0
 10
5.0053294472
 20
19.6824941412
 30
0.0
  0
SPLINE
  5
27D
100
AcDbEntity
  8
0
100
AcDbSpline
 62
7
  6
BYLAYER
 70
0
 71
3
 72
11
 73
7
 74
0
 42
0.0000001
 43
0.0000001
 44
0.0000000001
 40
0.0
 40
0.0
 40
0.0
 40
0.0
 40
0.2528702685
 40
0.5034894095
 40
0.7522694284
 40
1.0
 40
1.0
 40
1.0
 40
1.0
 10
24.6352385996
 20
19.6824941412
 30
0.0
 10
24.4328556958
 20
19.6282658056
 30
0.0
 10
24.0272958205
 20
19.5295953769
 30
0.0
 10
23.4138458185
 20
19.416925069
 30
0.0
 10
22.7983300167
 20
19.3462514486
 30
0.0
 10
22.3867635256
 20
19.3301531244
 30
0.0
 10
22.1814999548
 20
19.3301531244
 30
0.0
  0
SPLINE
  5
27E
100
AcDbEntity
  8
0
100
AcDbSpline
 62
7
  6
BYLAYER
 70
0
 71
3
 72
11
 73
7
 74
0
 42
0.0000001
 43
0.0000001
 44
0.0000000001
 40
0.0
 40
0.0
 40
0.0
 40
0.0
 40
0.2528702647
 40
0.5034894097
 40
0.7522694285
 40
1.0
 40
1.0
 40
1.0
 40
1.0
 10
19.7277613115
 20
22.4778121077
 30
0.0
 10
19.930144212
 20
22.5320404424
 30
0.0
 10
20.335704107
 20
22.6307107813
 30
0.0
 10
20.9491540835
 20
22.7433812172
 30
0.0
 10
21.5646698956
 20
22.8140547911
 30
0.0
 10
21.9762363843
 20
22.8301531244
 30
0.0
 10
22.1814999548
 20
22.8301531244
 30
0.0
  0
SPLINE
  5
27F
100
AcDbEntity
  8
0
100
AcDbSpline
 62
7
  6
BYLAYER
 70
0
 71
3
 72
11
 73
7
 74
0
 42
0.0000001
 43
0.0000001
 44
0.0000000001
 40
0.0
 40
0.0
 40
0.0
 40
0.0
 40
0.2477305731
 40
0.4965105923
 40
0.7471297326
 40
1.0
 40
1.0
 40
1.0
 40
1.0
 10
7.4590680916
 20
22.8301531245
 30
0.0
 10
7.6643316636
 20
22.8301531244
 30
0.0
 10
8.0758981561
 20
22.8140548007
 30
0.0
 10
8.691413958
 20
22.7433811759
 30
0.0
 10
9.3048639589
 20
22.6307108711
 30
0.0
 10
9.7104238325
 20
22.532040443
 30
0.0
 10
9.9128067353
 20
22.4778121077
 30
0.0
  0
SPLINE
  5
280
100
AcDbEntity
  8
0
100
AcDbSpline
 62
7
  6
BYLAYER
 70
0
 71
3
 72
11
 73
7
 74
0
 42
0.0000001
 43
0.0000001
 44
0.0000000001
 40
0.0
 40
0.0
 40
0.0
 40
0.0
 40
0.2500019719
 40
0.5000023336
 40
0.7500012116
 40
1.0
 40
1.0
 40
1.0
 40
1.0
 10
9.9128067353
 20
22.4778121077
 30
0.0
 10
10.3194765953
 20
22.5322955379
 30
0.0
 10
11.1342008069
 20
22.6312992228
 30
0.0
 10
12.3601664101
 20
22.7437152949
 30
0.0
 10
13.5893041112
 20
22.8141373722
 30
0.0
 10
14.4099859218
 20
22.8301531244
 30
0.0
 10
14.8202840229
 20
22.8301531244
 30
0.0
  0
SPLINE
  5
281
100
AcDbEntity
  8
0
100
AcDbSpline
 62
7
  6
BYLAYER
 70
0
 71
3
 72
11
 73
7
 74
0
 42
0.0000001
 43
0.0000001
 44
0.0000000001
 40
0.0
 40
0.0
 40
0.0
 40
0.0
 40
0.24999879
 40
0.4999976682
 40
0.7499980293
 40
1.0
 40
1.0
 40
1.0
 40
1.0
 10
14.8202839717
 20
19.3301531237
 30
0.0
 10
14.4099858723
 20
19.330153125
 30
0.0
 10
13.5893040673
 20
19.346168878
 30
0.0
 10
12.3601663775
 20
19.4165909599
 30
0.0
 10
11.1342007895
 20
19.5290070284
 30
0.0
 10
10.3194765892
 20
19.6280107118
 30
0.0
 10
9.9128067353
 20
19.6824941412
 30
0.0
  0
SPLINE
  5
282
100
AcDbEntity
  8
0
100
AcDbSpline
 62
7
  6
BYLAYER
 70
0
 71
3
 72
11
 73
7
 74
0
 42
0.0000001
 43
0.0000001
 44
0.0000000001
 40
0.0
 40
0.0
 40
0.0
 40
0.0
 40
0.2528702685
 40
0.5034894095
 40
0.7522694284
 40
1.0
 40
1.0
 40
1.0
 40
1.0
 10
9.9128067353
 20
19.6824941412
 30
0.0
 10
9.7104238316
 20
19.6282658056
 30
0.0
 10
9.3048639565
 20
19.529595377
 30
0.0
 10
8.6914139548
 20
19.4169250691
 30
0.0
 10
8.0758981533
 20
19.3462514486
 30
0.0
 10
7.6643316623
 20
19.3301531244
 30
0.0
 10
7.4590680916
 20
19.3301531244
 30
0.0
  0
SPLINE
  5
283
100
AcDbEntity
  8
0
100
AcDbSpline
 62
7
  6
BYLAYER
 70
0
 71
3
 72
11
 73
7
 74
0
 42
0.0000001
 43
0.0000001
 44
0.0000000001
 40
0.0
 40
0.0
 40
0.0
 40
0.0
 40
0.2499987901
 40
0.4999976683
 40
0.7499980287
 40
1.0
 40
1.0
 40
1.0
 40
1.0
 10
14.8202840229
 20
22.8301531244
 30
0.0
 10
15.2305821269
 20
22.8301531244
 30
0.0
 10
16.051263942
 20
22.8141373823
 30
0.0
 10
17.2804016401
 20
22.7437152521
 30
0.0
 10
18.5063672539
 20
22.6312993151
 30
0.0
 10
19.3210914523
 20
22.5322955378
 30
0.0
 10
19.7277613115
 20
22.4778121077
 30
0.0
  0
SPLINE
  5
284
100
AcDbEntity
  8
0
100
AcDbSpline
 62
7
  6
BYLAYER
 70
0
 71
3
 72
14
 73
10
 74
0
 42
0.0000001
 43
0.0000001
 44
0.0000000001
 40
0.0
 40
0.0
 40
0.0
 40
0.0
 40
0.2460516339
 40
0.3614512404
 40
0.4757392068
 40
0.5928346931
 40
0.7169504725
 40
0.8518087069
 40
1.0
 40
1.0
 40
1.0
 40
1.0
 10
20.212326612
 20
7.2201531244
 30
0.0
 10
20.2136564497
 20
7.2129461992
 30
0.0
 10
20.2169475928
 20
7.2024482659
 30
0.0
 10
20.2247600455
 20
7.1905339806
 30
0.0
 10
20.2320856095
 20
7.1831467419
 30
0.0
 10
20.2409943663
 20
7.1772866912
 30
0.0
 10
20.2514587261
 20
7.1731029065
 30
0.0
 10
20.2633851432
 20
7.1706408096
 30
0.0
 10
20.2718302241
 20
7.170153123
 30
0.0
 10
20.2762440672
 20
7.1701531244
 30
0.0
  0
SPLINE
  5
285
100
AcDbEntity
  8
0
100
AcDbSpline
 62
7
  6
BYLAYER
 70
0
 71
3
 72
11
 73
7
 74
0
 42
0.0000001
 43
0.0000001
 44
0.0000000001
 40
0.0
 40
0.0
 40
0.0
 40
0.0
 40
0.1985534713
 40
0.434200307
 40
0.7034171911
 40
1.0
 40
1.0
 40
1.0
 40
1.0
 10
20.2762440672
 20
7.1701529627
 30
0.0
 10
20.2864575828
 20
7.1701529662
 30
0.0
 10
20.3087903951
 20
7.1730372344
 30
0.0
 10
20.343544823
 20
7.1833950418
 30
0.0
 10
20.3815996718
 20
7.1994074809
 30
0.0
 10
20.4074894654
 20
7.2127577145
 30
0.0
 10
20.4208332555
 20
7.2201531244
 30
0.0
  0
SPLINE
  5
286
100
AcDbEntity
  8
0
100
AcDbSpline
 62
7
  6
BYLAYER
 70
0
 71
3
 72
11
 73
7
 74
0
 42
0.0000001
 43
0.0000001
 44
0.0000000001
 40
0.0
 40
0.0
 40
0.0
 40
0.0
 40
0.296586088
 40
0.5658057608
 40
0.8014504034
 40
1.0
 40
1.0
 40
1.0
 40
1.0
 10
9.2197347912
 20
7.2201531244
 30
0.0
 10
9.2330787271
 20
7.2127576338
 30
0.0
 10
9.258968682
 20
7.1994069862
 30
0.0
 10
9.2970240011
 20
7.1833952498
 30
0.0
 10
9.3317780938
 20
7.1730368448
 30
0.0
 10
9.3541106646
 20
7.170153121
 30
0.0
 10
9.3643239795
 20
7.1701531244
 30
0.0
  0
SPLINE
  5
287
100
AcDbEntity
  8
0
100
AcDbSpline
 62
7
  6
BYLAYER
 70
0
 71
3
 72
14
 73
10
 74
0
 42
0.0000001
 43
0.0000001
 44
0.0000000001
 40
0.0
 40
0.0
 40
0.0
 40
0.0
 40
0.1481914593
 40
0.2830518448
 40
0.4071706195
 40
0.5242657925
 40
0.6385533657
 40
0.7539521842
 40
1.0
 40
1.0
 40
1.0
 40
1.0
 10
9.3643239795
 20
7.1701529627
 30
0.0
 10
9.3687378316
 20
7.1701529642
 30
0.0
 10
9.3771830002
 20
7.1706408021
 30
0.0
 10
9.3891094793
 20
7.1731032325
 30
0.0
 10
9.3995741823
 20
7.1772865686
 30
0.0
 10
9.408482945
 20
7.1831468412
 30
0.0
 10
9.415808202
 20
7.1905343111
 30
0.0
 10
9.4236205576
 20
7.2024484763
 30
0.0
 10
9.4269116165
 20
7.2129463046
 30
0.0
 10
9.4282414347
 20
7.2201531244
 30
0.0
  0
ENDSEC
  0
SECTION
  2
OBJECTS
  0
DICTIONARY
  5
C
100
AcDbDictionary
280
0
281
1
  3
ACAD_GROUP
350
D
  3
ACAD_MLINESTYLE
350
17
  3
ACAD_LAYOUT
350
1A
  3
ACAD_PLOTSETTINGS
350
19
  3
ACAD_PLOTSTYLENAME
350
E
  0
DICTIONARY
  5
D
102
{ACAD_REACTORS
330
C
102
}
100
AcDbDictionary
280
0
281
1
  0
ACDBDICTIONARYWDFLT
  5
E
102
{ACAD_REACTORS
330
C
102
}
100
AcDbDictionary
281
1
  3
Normal
350
F
100
AcDbDictionaryWithDefault
340
F
  0
DICTIONARY
  5
17
102
{ACAD_REACTORS
330
C
102
}
100
AcDbDictionary
280
0
281
1
  3
Standard
350
18
  0
DICTIONARY
  5
19
102
{ACAD_REACTORS
330
C
102
}
100
AcDbDictionary
281
1
  0
DICTIONARY
  5
1A
102
{ACAD_REACTORS
330
C
102
}
100
AcDbDictionary
281
1
  3
Model
350
288
  3
Layout1
350
289
  0
ACDBPLACEHOLDER
  5
F
102
{ACAD_REACTORS
330
E
102
}
  0
MLINESTYLE
  5
18
102
{ACAD_REACTORS
330
17
102
}
100
AcDbMlineStyle
  2
STANDARD
 70
0
  3

 62
256
 51
90.0
 52
90.0
 71
2
 49
0.5
 62
256
  6
BYLAYER
 49
-0.5
 62
256
  6
BYLAYER
  0
LAYOUT
  5
288
102
{ACAD_REACTORS
330
1A
102
}
100
AcDbPlotSettings
  1

  2
none_device
  4

  6

 40
0.0
 41
0.0
 42
0.0
 43
0.0
 44
210.0
 45
297.0
 46
0.0
 47
0.0
 48
0.0
 49
0.0
140
0.0
141
0.0
142
1.0
143
1.0
 70
1024
 72
1
 73
0
 74
0
  7

 75
0
147
1.0
148
0.0
149
0.0
100
AcDbLayout
  1
Model
 70
0
 71
0
 10
0.0
 20
0.0
 11
210.0
 21
297.0
 12
0.0
 22
0.0
 32
0.0
 14
0.0
 24
0.0
 34
0.0
 15
0.0
 25
0.0
 35
0.0
146
0.0
 13
0.0
 23
0.0
 33
0.0
 16
1.0
 26
0.0
 36
0.0
 17
0.0
 27
1.0
 37
0.0
 76
0
330
210
345
0
346
0
  0
LAYOUT
  5
289
102
{ACAD_REACTORS
330
1A
102
}
100
AcDbPlotSettings
  1

  2
none_device
  4

  6

 40
0.0
 41
0.0
 42
0.0
 43
0.0
 44
210.0
 45
297.0
 46
0.0
 47
0.0
 48
0.0
 49
0.0
140
0.0
141
0.0
142
1.0
143
1.0
 70
0
 72
1
 73
0
 74
0
  7

 75
0
147
1.0
148
0.0
149
0.0
100
AcDbLayout
  1
Layout1
 70
0
 71
1
 10
0.0
 20
0.0
 11
210.0
 21
297.0
 12
0.0
 22
0.0
 32
0.0
 14
0.0
 24
0.0
 34
0.0
 15
0.0
 25
0.0
 35
0.0
146
0.0
 13
0.0
 23
0.0
 33
0.0
 16
1.0
 26
0.0
 36
0.0
 17
0.0
 27
1.0
 37
0.0
 76
0
330
211
345
0
346
0
  0
ENDSEC
  0
EOF
