999
DXF file: C:\Users\sesa63760\Dev\_Creo\CAD\MCADID0004393_3D-CAD\drw0001_1.dxf
999
Pro/ENGINEER 2019471 by Parametric Technology Corporation
  0
SECTION
  2
HEADER
  9
$ACADVER
  1
AC1024
  9
$DWGCODEPAGE
  3
ANSI_1252
  9
$EXTMAX
 10
65.0357611804
 20
91.9791479552
 30
0.0
  9
$EXTMIN
 10
0.0
 20
0.0
 30
0.0
  9
$LIMMIN
 10
0.0
 20
0.0
  9
$LIMMAX
 10
65.0357611804
 20
91.9791479552
  9
$VIEWCTR
 10
32.5178805902
 20
45.9895739776
  9
$VIEWSIZE
 40
91.9791479552
  9
$CLAYER
  8
0
  9
$LTSCALE
 40
5.9956777926
  9
$CELTYPE
  6
BYLAYER
  9
$DIMSCALE
 40
1.0
  9
$DIMASZ
 40
0.7742352521
  9
$DIMEXO
 40
1.0
  9
$DIMDLI
 40
4.1424682931
  9
$DIMEXE
 40
1.0
  9
$DIMCEN
 40
0.9811109115
  9
$DIMLFAC
 40
1.0
  9
$DIMBLK
  1
_FILLED
  9
$DIMALT
 70
0
  9
$DIMALTF
 40
0.0393700787
  9
$DIMTXT
 40
1.083929353
  9
$DIMTOL
 70
1
  9
$DIMLIM
 70
0
  9
$DIMTFAC
 40
1.0
  9
$DIMTP
 40
0.01
  9
$DIMTM
 40
0.01
  9
$DIMGAP
 40
0.625
  9
$DIMDSEP
 70
46
  9
$AUNITS
 70
0
  9
$PDMODE
 70
3
  9
$PDSIZE
 40
0.3125
  9
$HANDSEED
  5
25B
  9
$TILEMODE
 70
1
  9
$MEASUREMENT
 70
1
  9
$INSUNITS
 70
4
  0
ENDSEC
  0
SECTION
  2
CLASSES
  0
CLASS
  1
ACDBDICTIONARYWDFLT
  2
AcDbDictionaryWithDefault
  3
AutoCAD 2000
 90
0
 91
1
280
0
281
0
  0
CLASS
  1
ACDBPLACEHOLDER
  2
AcDbPlaceHolder
  3
AutoCAD 2000
 90
0
 91
1
280
0
281
0
  0
CLASS
  1
LAYOUT
  2
AcDbLayout
  3
AutoCAD 2000
 90
0
 91
0
280
0
281
0
  0
ENDSEC
  0
SECTION
  2
TABLES
  0
TABLE
  2
VPORT
  5
8
100
AcDbSymbolTable
 70
2
  0
VPORT
  5
1F4
100
AcDbSymbolTableRecord
100
AcDbViewportTableRecord
  2
*ACTIVE
 70
0
 10
0.0
 20
0.0
 11
1.0
 21
1.0
 12
32.5178805902
 22
45.9895739776
 13
0.0
 23
0.0
 14
1.0
 24
1.0
 15
0.0
 25
0.0
 16
0.0
 26
0.0
 36
1.0
 17
0.0
 27
0.0
 37
0.0
 40
91.9791479552
 41
0.7070707071
 42
50.0
 43
0.0
 44
0.0
 50
0.0
 51
0.0
 71
0
 72
100
 73
1
 74
1
 75
0
 76
0
 77
0
 78
0
  0
ENDTAB
  0
TABLE
  2
LTYPE
  5
5
100
AcDbSymbolTable
 70
6
  0
LTYPE
  5
14
100
AcDbSymbolTableRecord
100
AcDbLinetypeTableRecord
  2
BYBLOCK
 70
0
  3

 72
65
 73
0
 40
0.0
  0
LTYPE
  5
15
100
AcDbSymbolTableRecord
100
AcDbLinetypeTableRecord
  2
BYLAYER
 70
0
  3

 72
65
 73
0
 40
0.0
  0
LTYPE
  5
16
100
AcDbSymbolTableRecord
100
AcDbLinetypeTableRecord
  2
CONTINUOUS
 70
64
  3
Solid line
 72
65
 73
0
 40
0.0
  0
LTYPE
  5
1F5
100
AcDbSymbolTableRecord
100
AcDbLinetypeTableRecord
  2
CENTER
 70
64
  3
____ _ ____ _ ____ _ ____ _ ____ _ ____ _ ____
 72
65
 73
4
 40
0.6
 49
0.375
 74
0
 49
-0.075
 74
0
 49
0.075
 74
0
 49
-0.075
 74
0
  0
LTYPE
  5
1F6
100
AcDbSymbolTableRecord
100
AcDbLinetypeTableRecord
  2
HIDDEN
 70
64
  3
- - - - - - - - - - - - - - - - - - - -
 72
65
 73
2
 40
0.2
 49
0.1
 74
0
 49
-0.1
 74
0
  0
LTYPE
  5
1F7
100
AcDbSymbolTableRecord
100
AcDbLinetypeTableRecord
  2
PHANTOM
 70
64
  3
_____ _ _ _____ _ _ _____ _ _ _____
 72
65
 73
6
 40
0.8
 49
0.45
 74
0
 49
-0.05
 74
0
 49
0.1
 74
0
 49
-0.05
 74
0
 49
0.1
 74
0
 49
-0.05
 74
0
  0
LTYPE
  5
1F8
100
AcDbSymbolTableRecord
100
AcDbLinetypeTableRecord
  2
DOT
 70
64
  3
. . . . . . . . . . . . . . . . . . . .
 72
65
 73
2
 40
0.2
 49
0.1
 74
0
 49
-0.1
 74
0
  0
LTYPE
  5
1F9
100
AcDbSymbolTableRecord
100
AcDbLinetypeTableRecord
  2
DASHED
 70
64
  3
- - - - - - - - - - - - - - - - - - - -
 72
65
 73
2
 40
0.2
 49
0.1
 74
0
 49
-0.1
 74
0
  0
ENDTAB
  0
TABLE
  2
LAYER
  5
2
100
AcDbSymbolTable
 70
36
  0
LAYER
  5
10
100
AcDbSymbolTableRecord
100
AcDbLayerTableRecord
  2
0
 70
0
 62
7
  6
CONTINUOUS
370
-3
390
F
  0
LAYER
  5
1FA
100
AcDbSymbolTableRecord
100
AcDbLayerTableRecord
  2
DEFAULT_1
 70
0
 62
7
  6
CENTER
370
-3
390
F
  0
LAYER
  5
1FB
100
AcDbSymbolTableRecord
100
AcDbLayerTableRecord
  2
DEFAULT_2
 70
0
 62
7
  6
HIDDEN
370
-3
390
F
  0
LAYER
  5
1FC
100
AcDbSymbolTableRecord
100
AcDbLayerTableRecord
  2
DEFAULT_3
 70
0
 62
7
  6
PHANTOM
370
-3
390
F
  0
LAYER
  5
1FD
100
AcDbSymbolTableRecord
100
AcDbLayerTableRecord
  2
00_COMPONENTS
 70
0
 62
7
  6
CONTINUOUS
370
-3
390
F
  0
LAYER
  5
1FE
100
AcDbSymbolTableRecord
100
AcDbLayerTableRecord
  2
01_1_DEFAULT_DATUMS
 70
0
 62
7
  6
CONTINUOUS
370
-3
390
F
  0
LAYER
  5
1FF
100
AcDbSymbolTableRecord
100
AcDbLayerTableRecord
  2
01_PLANES
 70
0
 62
7
  6
CONTINUOUS
370
-3
390
F
  0
LAYER
  5
200
100
AcDbSymbolTableRecord
100
AcDbLayerTableRecord
  2
02_COORD_SYS
 70
0
 62
7
  6
CONTINUOUS
370
-3
390
F
  0
LAYER
  5
201
100
AcDbSymbolTableRecord
100
AcDbLayerTableRecord
  2
03_AXES
 70
0
 62
7
  6
CONTINUOUS
370
-3
390
F
  0
LAYER
  5
202
100
AcDbSymbolTableRecord
100
AcDbLayerTableRecord
  2
04_POINTS
 70
0
 62
7
  6
CONTINUOUS
370
-3
390
F
  0
LAYER
  5
203
100
AcDbSymbolTableRecord
100
AcDbLayerTableRecord
  2
05_CURVES
 70
0
 62
7
  6
CONTINUOUS
370
-3
390
F
  0
LAYER
  5
204
100
AcDbSymbolTableRecord
100
AcDbLayerTableRecord
  2
06_SURFS
 70
0
 62
7
  6
CONTINUOUS
370
-3
390
F
  0
LAYER
  5
205
100
AcDbSymbolTableRecord
100
AcDbLayerTableRecord
  2
07_COSMETICS
 70
0
 62
7
  6
CONTINUOUS
370
-3
390
F
  0
LAYER
  5
206
100
AcDbSymbolTableRecord
100
AcDbLayerTableRecord
  2
10_NOTES
 70
0
 62
7
  6
CONTINUOUS
370
-3
390
F
  0
LAYER
  5
207
100
AcDbSymbolTableRecord
100
AcDbLayerTableRecord
  2
11_NOTES_PUB
 70
0
 62
7
  6
CONTINUOUS
370
-3
390
F
  0
LAYER
  5
208
100
AcDbSymbolTableRecord
100
AcDbLayerTableRecord
  2
13_REF_GTOL
 70
0
 62
7
  6
CONTINUOUS
370
-3
390
F
  0
LAYER
  5
209
100
AcDbSymbolTableRecord
100
AcDbLayerTableRecord
  2
16_MISC
 70
0
 62
7
  6
CONTINUOUS
370
-3
390
F
  0
LAYER
  5
20A
100
AcDbSymbolTableRecord
100
AcDbLayerTableRecord
  2
17_NO_PRINT
 70
0
 62
7
  6
CONTINUOUS
370
-3
390
F
  0
LAYER
  5
20B
100
AcDbSymbolTableRecord
100
AcDbLayerTableRecord
  2
18_DATUM_CAMS_JOINTS
 70
0
 62
7
  6
CONTINUOUS
370
-3
390
F
  0
LAYER
  5
20C
100
AcDbSymbolTableRecord
100
AcDbLayerTableRecord
  2
19_DATUM_FUNCTIONAL
 70
0
 62
7
  6
CONTINUOUS
370
-3
390
F
  0
LAYER
  5
20D
100
AcDbSymbolTableRecord
100
AcDbLayerTableRecord
  2
20_DATUM_KINEMATIC_SCHEME
 70
0
 62
7
  6
CONTINUOUS
370
-3
390
F
  0
ENDTAB
  0
TABLE
  2
STYLE
  5
3
100
AcDbSymbolTable
 70
1
  0
STYLE
  5
11
100
AcDbSymbolTableRecord
100
AcDbTextStyleTableRecord
  2
STANDARD
 70
0
 40
0.0
 41
1.0
 50
0.0
 71
0
 42
0.2
  3
ARIAL.TTF
  4

  0
STYLE
  5
20E
100
AcDbSymbolTableRecord
100
AcDbTextStyleTableRecord
  2
TEXTSTYLE_1
 70
0
 40
0.0
 41
0.8
 50
0.0
 71
0
 42
0.2
  3
gdt
  4

  0
ENDTAB
  0
TABLE
  2
VIEW
  5
6
100
AcDbSymbolTable
 70
0
  0
ENDTAB
  0
TABLE
  2
UCS
  5
7
100
AcDbSymbolTable
 70
0
  0
ENDTAB
  0
TABLE
  2
APPID
  5
9
100
AcDbSymbolTable
 70
1
  0
APPID
  5
20F
100
AcDbSymbolTableRecord
100
AcDbRegAppTableRecord
  2
ACAD
 70
0
  0
ENDTAB
  0
TABLE
  2
BLOCK_RECORD
  5
1
100
AcDbSymbolTable
 70
0
  0
BLOCK_RECORD
  5
210
100
AcDbSymbolTableRecord
100
AcDbBlockTableRecord
  2
*Model_Space
  0
BLOCK_RECORD
  5
211
100
AcDbSymbolTableRecord
100
AcDbBlockTableRecord
  2
*Paper_Space
  0
BLOCK_RECORD
  5
212
100
AcDbSymbolTableRecord
100
AcDbBlockTableRecord
  2
_FILLED
  0
ENDTAB
  0
TABLE
  2
DIMSTYLE
  5
A
100
AcDbSymbolTable
 70
1
100
AcDbDimStyleTable
 71
0
  0
DIMSTYLE
105
213
100
AcDbSymbolTableRecord
100
AcDbDimStyleTableRecord
  2
STANDARD
 70
0
  3

  4

 40
1.0
 41
0.7742352521
 42
1.0
 43
0.38
 44
1.0
 45
0.0
 46
0.0
 47
0.01
 48
0.01
140
1.083929353
141
0.09
142
0.0
143
25.4
144
1.0
145
0.0
146
1.0
147
0.625
 71
1
 72
0
 73
0
 74
0
 75
0
 76
0
 77
1
 78
8
 79
2
170
0
171
1
172
0
173
0
174
0
175
0
176
0
177
0
178
0
270
2
179
2
271
2
272
2
273
2
274
2
275
0
280
0
281
0
282
0
283
1
284
8
285
0
286
0
287
3
288
0
340
11
278
46
341
212
342
212
343
212
344
212
  0
ENDTAB
  0
ENDSEC
  0
SECTION
  2
BLOCKS
  0
BLOCK
  5
20
100
AcDbEntity
  8
0
100
AcDbBlockBegin
  2
*Model_Space
 70
0
 10
0.0
 20
0.0
 30
0.0
  3
*Model_Space
  1

  0
ENDBLK
  5
21
100
AcDbEntity
  8
0
100
AcDbBlockEnd
  0
BLOCK
  5
1C
100
AcDbEntity
  8
0
100
AcDbBlockBegin
  2
*Paper_Space
 70
0
 10
0.0
 20
0.0
 30
0.0
  3
*Paper_Space
  1

  0
ENDBLK
  5
1D
100
AcDbEntity
  8
0
100
AcDbBlockEnd
  0
BLOCK
  5
214
100
AcDbEntity
  8
0
100
AcDbBlockBegin
  2
_FILLED
 70
64
 10
0.0
 20
0.0
  3
_FILLED
  1

  0
SOLID
  5
215
100
AcDbEntity
  8
0
  6
BYBLOCK
 62
0
100
AcDbTrace
 10
0.0
 20
0.0
 11
-1.0
 21
0.25
 12
-1.0
 22
-0.25
 13
-1.0
 23
-0.25
  0
ENDBLK
  5
216
100
AcDbEntity
  8
0
  6
BYBLOCK
 62
0
100
AcDbBlockEnd
  0
ENDSEC
  0
SECTION
  2
ENTITIES
  0
LINE
  5
217
100
AcDbEntity
  8
0
100
AcDbLine
 62
7
  6
BYLAYER
 10
11.124644388
 20
72.2296676146
 11
18.1956827601
 21
76.3121091533
  0
LINE
  5
218
100
AcDbEntity
  8
0
100
AcDbLine
 62
7
  6
BYLAYER
 10
7.5450021313
 20
47.6836104863
 11
7.5518868003
 21
46.9064340937
  0
LINE
  5
219
100
AcDbEntity
  8
0
100
AcDbLine
 62
7
  6
BYLAYER
 10
10.4246057012
 20
42.1203320469
 11
10.4246057012
 21
46.8249827924
  0
LINE
  5
21A
100
AcDbEntity
  8
0
100
AcDbLine
 62
7
  6
BYLAYER
 10
11.124644388
 20
72.2296676146
 11
11.124644388
 21
56.3078704805
  0
LINE
  5
21B
100
AcDbEntity
  8
0
100
AcDbLine
 62
7
  6
BYLAYER
 10
11.124644388
 20
54.674783996
 11
11.124644388
 21
39.1612380706
  0
LINE
  5
21C
100
AcDbEntity
  8
0
100
AcDbLine
 62
7
  6
BYLAYER
 10
11.4781992506
 20
56.1037501033
 11
11.4781992506
 21
54.4706636188
  0
LINE
  5
21D
100
AcDbEntity
  8
0
100
AcDbLine
 62
7
  6
BYLAYER
 10
11.124644388
 20
54.674783996
 11
11.4781992506
 21
54.8789077727
  0
LINE
  5
21E
100
AcDbEntity
  8
0
100
AcDbLine
 62
7
  6
BYLAYER
 10
10.4246057012
 20
46.8249827924
 11
11.124644388
 21
47.6958456408
  0
LINE
  5
21F
100
AcDbEntity
  8
0
100
AcDbLine
 62
7
  6
BYLAYER
 10
10.3801556875
 20
51.8385724652
 11
10.4088667183
 21
51.8549804164
  0
LINE
  5
220
100
AcDbEntity
  8
0
100
AcDbLine
 62
7
  6
BYLAYER
 10
9.710395498
 20
51.4597789271
 11
10.3800835752
 21
51.8386999566
  0
LINE
  5
221
100
AcDbEntity
  8
0
100
AcDbLine
 62
7
  6
BYLAYER
 10
11.124644388
 20
39.1612380706
 11
51.4298987214
 21
15.8915150629
  0
LINE
  5
222
100
AcDbEntity
  8
0
100
AcDbLine
 62
7
  6
BYLAYER
 10
11.1317154264
 20
41.7120912924
 11
10.4246057012
 21
42.1203320469
  0
LINE
  5
223
100
AcDbEntity
  8
0
100
AcDbLine
 62
7
  6
BYLAYER
 10
8.3801896216
 20
45.10844159
 11
10.4246057012
 21
43.9281241184
  0
LINE
  5
224
100
AcDbEntity
  8
0
100
AcDbLine
 62
7
  6
BYLAYER
 10
11.1317154264
 20
46.4167420378
 11
10.4246057012
 21
46.8249827924
  0
LINE
  5
225
100
AcDbEntity
  8
0
100
AcDbLine
 62
7
  6
BYLAYER
 10
22.4383999904
 20
47.3265111568
 11
23.1454331172
 21
48.5511352532
  0
LINE
  5
226
100
AcDbEntity
  8
0
100
AcDbLine
 62
7
  6
BYLAYER
 10
23.1454331174
 20
48.5511352531
 11
24.5598365359
 21
49.367736573
  0
LINE
  5
227
100
AcDbEntity
  8
0
100
AcDbLine
 62
7
  6
BYLAYER
 10
22.4383999904
 20
47.3265111568
 11
51.4298280104
 21
30.5886810456
  0
LINE
  5
228
100
AcDbEntity
  8
0
100
AcDbLine
 62
7
  6
BYLAYER
 10
11.4781992506
 20
54.4706636188
 11
11.124644388
 21
54.674783996
  0
LINE
  5
229
100
AcDbEntity
  8
0
100
AcDbLine
 62
7
  6
BYLAYER
 10
51.4298221231
 20
32.2215050724
 11
23.1454331172
 21
48.5511352532
  0
LINE
  5
22A
100
AcDbEntity
  8
0
100
AcDbLine
 62
7
  6
BYLAYER
 10
11.124644388
 20
56.3078704805
 11
11.4781992506
 21
56.1037501033
  0
LINE
  5
22B
100
AcDbEntity
  8
0
100
AcDbLine
 62
7
  6
BYLAYER
 10
51.4298987214
 20
33.85464989
 11
22.4383999904
 21
50.5925208253
  0
LINE
  5
22C
100
AcDbEntity
  8
0
100
AcDbLine
 62
7
  6
BYLAYER
 10
55.6724674213
 20
36.3040834498
 11
58.5008663825
 21
34.6711225843
  0
LINE
  5
22D
100
AcDbEntity
  8
0
100
AcDbLine
 62
7
  6
BYLAYER
 10
51.4298987214
 20
48.9599446069
 11
58.5009370935
 21
53.0423861456
  0
LINE
  5
22E
100
AcDbEntity
  8
0
100
AcDbLine
 62
7
  6
BYLAYER
 10
51.4298987214
 20
48.9599446069
 11
11.124644388
 21
72.2296676146
  0
LINE
  5
22F
100
AcDbEntity
  8
0
100
AcDbLine
 62
7
  6
BYLAYER
 10
51.4298987214
 20
15.8915150629
 11
51.4298221231
 21
32.2215050724
  0
LINE
  5
230
100
AcDbEntity
  8
0
100
AcDbLine
 62
7
  6
BYLAYER
 10
51.4298987214
 20
33.85464989
 11
51.4298987214
 21
48.9599446069
  0
LINE
  5
231
100
AcDbEntity
  8
0
100
AcDbLine
 62
7
  6
BYLAYER
 10
58.5009370935
 20
53.0423861456
 11
18.1956827601
 21
76.3121091533
  0
LINE
  5
232
100
AcDbEntity
  8
0
100
AcDbLine
 62
7
  6
BYLAYER
 10
51.4298987214
 20
33.85464989
 11
58.5009370935
 21
37.9370914287
  0
LINE
  5
233
100
AcDbEntity
  8
0
100
AcDbLine
 62
7
  6
BYLAYER
 10
51.4298221231
 20
32.2215050724
 11
57.0867942415
 21
35.4875399522
  0
LINE
  5
234
100
AcDbEntity
  8
0
100
AcDbLine
 62
7
  6
BYLAYER
 10
51.429828011
 20
30.5885177468
 11
58.5010078039
 21
34.6710409344
  0
LINE
  5
235
100
AcDbEntity
  8
0
100
AcDbLine
 62
7
  6
BYLAYER
 10
58.5009370935
 20
19.9739566016
 11
58.5009370935
 21
34.67100011
  0
LINE
  5
236
100
AcDbEntity
  8
0
100
AcDbLine
 62
7
  6
BYLAYER
 10
58.5009370935
 20
37.9370914287
 11
58.5009370935
 21
53.0423861456
  0
LINE
  5
237
100
AcDbEntity
  8
0
100
AcDbLine
 62
7
  6
BYLAYER
 10
51.4298987214
 20
15.8915150629
 11
58.5009370935
 21
19.9739566016
  0
ARC
  5
238
100
AcDbEntity
  8
0
100
AcDbCircle
 62
7
  6
BYLAYER
 10
53.7598678195
 20
34.443516688
 40
0.5877891084
100
AcDbArc
 50
21.7964963436
 51
24.7804251641
  0
ARC
  5
239
100
AcDbEntity
  8
0
100
AcDbCircle
 62
7
  6
BYLAYER
 10
53.7606717734
 20
34.694002413
 40
0.5868754247
100
AcDbArc
 50
335.5113009545
 51
338.1978965492
  0
SPLINE
  5
23A
100
AcDbEntity
  8
0
100
AcDbSpline
 62
7
  6
BYLAYER
 70
0
 71
3
 72
9
 73
5
 74
0
 42
0.0000001
 43
0.0000001
 44
0.0000000001
 40
0.0
 40
0.0
 40
0.0
 40
0.0
 40
0.4938440067
 40
1.0
 40
1.0
 40
1.0
 40
1.0
 10
54.3440818352
 20
34.6710040384
 30
0.0
 10
54.3440773448
 20
34.6381396165
 30
0.0
 10
54.3374009254
 20
34.5714382535
 30
0.0
 10
54.3180752155
 20
34.5073119026
 30
0.0
 10
54.3055692857
 20
34.4760357522
 30
0.0
  0
SPLINE
  5
23B
100
AcDbEntity
  8
0
100
AcDbSpline
 62
7
  6
BYLAYER
 70
0
 71
3
 72
10
 73
6
 74
0
 42
0.0000001
 43
0.0000001
 44
0.0000000001
 40
0.0
 40
0.0
 40
0.0
 40
0.0
 40
0.4620168855
 40
0.7214509654
 40
1.0
 40
1.0
 40
1.0
 40
1.0
 10
54.294753673
 20
34.450734477
 30
0.0
 10
54.2590014378
 20
34.372215163
 30
0.0
 10
54.176145046
 20
34.2613382232
 30
0.0
 10
54.0341804397
 20
34.1398541992
 30
0.0
 10
53.9498001079
 20
34.0846505096
 30
0.0
 10
53.9047533197
 20
34.0586428895
 30
0.0
  0
SPLINE
  5
23C
100
AcDbEntity
  8
0
100
AcDbSpline
 62
7
  6
BYLAYER
 70
0
 71
3
 72
11
 73
7
 74
0
 42
0.0000001
 43
0.0000001
 44
0.0000000001
 40
0.0
 40
0.0
 40
0.0
 40
0.0
 40
0.217751359
 40
0.4508943812
 40
0.7104652431
 40
1.0
 40
1.0
 40
1.0
 40
1.0
 10
22.6455290535
 20
50.233746445
 30
0.0
 10
22.6785096576
 20
50.2527877002
 30
0.0
 10
22.7542633713
 20
50.2803754754
 30
0.0
 10
22.880197144
 20
50.283533208
 30
0.0
 10
23.0143415723
 20
50.2510632017
 30
0.0
 10
23.1016507285
 20
50.2095805879
 30
0.0
 10
23.1455038278
 20
50.184262562
 30
0.0
  0
SPLINE
  5
23D
100
AcDbEntity
  8
0
100
AcDbSpline
 62
7
  6
BYLAYER
 70
0
 71
3
 72
19
 73
15
 74
0
 42
0.0000001
 43
0.0000001
 44
0.0000000001
 40
0.0
 40
0.0
 40
0.0
 40
0.0
 40
0.0428394104
 40
0.0874448899
 40
0.1352571039
 40
0.1871950253
 40
0.2436735499
 40
0.3046656819
 40
0.4382689093
 40
0.5825434307
 40
0.7296392143
 40
0.871166535
 40
0.9376088396
 40
1.0
 40
1.0
 40
1.0
 40
1.0
 10
13.6602009024
 20
49.4666948614
 30
0.0
 10
13.7095052917
 20
49.4951655616
 30
0.0
 10
13.8182051269
 20
49.5403010603
 30
0.0
 10
13.9976078266
 20
49.5666369981
 30
0.0
 10
14.1902682639
 20
49.5524274061
 30
0.0
 10
14.3918970165
 20
49.4988713972
 30
0.0
 10
14.5985575932
 20
49.4075608389
 30
0.0
 10
14.8838239372
 20
49.2329368194
 30
0.0
 10
15.2236667665
 20
48.9319818138
 30
0.0
 10
15.5729594086
 20
48.4847901345
 30
0.0
 10
15.8480008671
 20
47.976542004
 30
0.0
 10
16.0001920993
 20
47.5267342369
 30
0.0
 10
16.0631144651
 20
47.1724242453
 30
0.0
 10
16.074412464
 20
47.0010846277
 30
0.0
 10
16.074412464
 20
46.9181658619
 30
0.0
  0
SPLINE
  5
23E
100
AcDbEntity
  8
0
100
AcDbSpline
 62
7
  6
BYLAYER
 70
0
 71
3
 72
19
 73
15
 74
0
 42
0.0000001
 43
0.0000001
 44
0.0000000001
 40
0.0
 40
0.0
 40
0.0
 40
0.0
 40
0.0428394104
 40
0.0874448899
 40
0.1352571039
 40
0.1871950253
 40
0.2436735499
 40
0.3046656819
 40
0.4382689093
 40
0.5825434307
 40
0.7296392143
 40
0.871166535
 40
0.9376088396
 40
1.0
 40
1.0
 40
1.0
 40
1.0
 10
13.6602009024
 20
54.3657093642
 30
0.0
 10
13.7095052917
 20
54.3941800644
 30
0.0
 10
13.8182051269
 20
54.4393155631
 30
0.0
 10
13.9976078266
 20
54.4656515009
 30
0.0
 10
14.1902682639
 20
54.4514419089
 30
0.0
 10
14.3918970165
 20
54.3978859
 30
0.0
 10
14.5985575932
 20
54.3065753417
 30
0.0
 10
14.8838239372
 20
54.1319513222
 30
0.0
 10
15.2236667665
 20
53.8309963166
 30
0.0
 10
15.5729594086
 20
53.3838046373
 30
0.0
 10
15.8480008671
 20
52.8755565068
 30
0.0
 10
16.0001920993
 20
52.4257487397
 30
0.0
 10
16.0631144651
 20
52.0714387481
 30
0.0
 10
16.074412464
 20
51.9000991305
 30
0.0
 10
16.074412464
 20
51.8171803646
 30
0.0
  0
SPLINE
  5
23F
100
AcDbEntity
  8
0
100
AcDbSpline
 62
7
  6
BYLAYER
 70
0
 71
3
 72
19
 73
15
 74
0
 42
0.0000001
 43
0.0000001
 44
0.0000000001
 40
0.0
 40
0.0
 40
0.0
 40
0.0
 40
0.0428394104
 40
0.0874448899
 40
0.1352571039
 40
0.1871950253
 40
0.2436735499
 40
0.3046656819
 40
0.4382689093
 40
0.5825434307
 40
0.7296392143
 40
0.871166535
 40
0.9376088396
 40
1.0
 40
1.0
 40
1.0
 40
1.0
 10
13.6602009024
 20
60.8977287012
 30
0.0
 10
13.7095052917
 20
60.9261994014
 30
0.0
 10
13.8182051269
 20
60.9713349002
 30
0.0
 10
13.9976078266
 20
60.9976708379
 30
0.0
 10
14.1902682639
 20
60.9834612459
 30
0.0
 10
14.3918970165
 20
60.929905237
 30
0.0
 10
14.5985575932
 20
60.8385946788
 30
0.0
 10
14.8838239372
 20
60.6639706592
 30
0.0
 10
15.2236667665
 20
60.3630156536
 30
0.0
 10
15.5729594086
 20
59.9158239743
 30
0.0
 10
15.8480008671
 20
59.4075758438
 30
0.0
 10
16.0001920993
 20
58.9577680767
 30
0.0
 10
16.0631144651
 20
58.6034580851
 30
0.0
 10
16.074412464
 20
58.4321184675
 30
0.0
 10
16.074412464
 20
58.3491997017
 30
0.0
  0
SPLINE
  5
240
100
AcDbEntity
  8
0
100
AcDbSpline
 62
7
  6
BYLAYER
 70
0
 71
3
 72
12
 73
8
 74
0
 42
0.0000001
 43
0.0000001
 44
0.0000000001
 40
0.0
 40
0.0
 40
0.0
 40
0.0
 40
0.2894832083
 40
0.5486755374
 40
0.7816290778
 40
0.8918324007
 40
1.0
 40
1.0
 40
1.0
 40
1.0
 10
46.4801306454
 20
29.3638134175
 30
0.0
 10
46.4801306454
 20
29.2624774856
 30
0.0
 10
46.4647180354
 20
29.0697306752
 30
0.0
 10
46.3868662584
 20
28.8050456979
 30
0.0
 10
46.2748227947
 20
28.6224197226
 30
0.0
 10
46.1617153478
 20
28.5112197844
 30
0.0
 10
46.0986939251
 20
28.4671822994
 30
0.0
 10
46.0659033064
 20
28.448247436
 30
0.0
  0
SPLINE
  5
241
100
AcDbEntity
  8
0
100
AcDbSpline
 62
7
  6
BYLAYER
 70
0
 71
3
 72
12
 73
8
 74
0
 42
0.0000001
 43
0.0000001
 44
0.0000000001
 40
0.0
 40
0.0
 40
0.0
 40
0.0
 40
0.2894832083
 40
0.5486755374
 40
0.7816290778
 40
0.8918324007
 40
1.0
 40
1.0
 40
1.0
 40
1.0
 10
16.074412464
 20
58.3491997017
 30
0.0
 10
16.074412464
 20
58.2478637698
 30
0.0
 10
16.0589998541
 20
58.0551169594
 30
0.0
 10
15.9811480771
 20
57.7904319821
 30
0.0
 10
15.8691046133
 20
57.6078060068
 30
0.0
 10
15.7559971665
 20
57.4966060686
 30
0.0
 10
15.6929757438
 20
57.4525685836
 30
0.0
 10
15.6601851251
 20
57.4336337202
 30
0.0
  0
SPLINE
  5
242
100
AcDbEntity
  8
0
100
AcDbSpline
 62
7
  6
BYLAYER
 70
0
 71
3
 72
12
 73
8
 74
0
 42
0.0000001
 43
0.0000001
 44
0.0000000001
 40
0.0
 40
0.0
 40
0.0
 40
0.0
 40
0.2894832083
 40
0.5486755374
 40
0.7816290778
 40
0.8918324007
 40
1.0
 40
1.0
 40
1.0
 40
1.0
 10
16.074412464
 20
51.8171803646
 30
0.0
 10
16.074412464
 20
51.7158444327
 30
0.0
 10
16.0589998541
 20
51.5230976223
 30
0.0
 10
15.9811480771
 20
51.258412645
 30
0.0
 10
15.8691046133
 20
51.0757866697
 30
0.0
 10
15.7559971665
 20
50.9645867316
 30
0.0
 10
15.6929757438
 20
50.9205492465
 30
0.0
 10
15.6601851251
 20
50.9016143832
 30
0.0
  0
SPLINE
  5
243
100
AcDbEntity
  8
0
100
AcDbSpline
 62
7
  6
BYLAYER
 70
0
 71
3
 72
12
 73
8
 74
0
 42
0.0000001
 43
0.0000001
 44
0.0000000001
 40
0.0
 40
0.0
 40
0.0
 40
0.0
 40
0.2894832083
 40
0.5486755374
 40
0.7816290778
 40
0.8918324007
 40
1.0
 40
1.0
 40
1.0
 40
1.0
 10
16.074412464
 20
46.9181658619
 30
0.0
 10
16.074412464
 20
46.81682993
 30
0.0
 10
16.0589998541
 20
46.6240831195
 30
0.0
 10
15.9811480771
 20
46.3593981423
 30
0.0
 10
15.8691046133
 20
46.176772167
 30
0.0
 10
15.7559971665
 20
46.0655722288
 30
0.0
 10
15.6929757438
 20
46.0215347437
 30
0.0
 10
15.6601851251
 20
46.0025998804
 30
0.0
  0
SPLINE
  5
244
100
AcDbEntity
  8
0
100
AcDbSpline
 62
7
  6
BYLAYER
 70
0
 71
3
 72
15
 73
11
 74
0
 42
0.0000001
 43
0.0000001
 44
0.0000000001
 40
0.0
 40
0.0
 40
0.0
 40
0.0
 40
0.1141259136
 40
0.2373540757
 40
0.3669857852
 40
0.5000162477
 40
0.6330378371
 40
0.762681582
 40
0.8858496234
 40
1.0
 40
1.0
 40
1.0
 40
1.0
 10
53.9047533197
 20
34.0586428895
 30
0.0
 10
53.8321574065
 20
34.0167298697
 30
0.0
 10
53.6733420546
 20
33.9428121704
 30
0.0
 10
53.4147779305
 20
33.864175796
 30
0.0
 10
53.1347931668
 20
33.8158379247
 30
0.0
 10
52.8440051849
 20
33.7995005171
 30
0.0
 10
52.5532056759
 20
33.8158438571
 30
0.0
 10
52.2732753982
 20
33.8642396822
 30
0.0
 10
52.0147175813
 20
33.9428346929
 30
0.0
 10
51.8559389569
 20
34.016774193
 30
0.0
 10
51.7833316634
 20
34.0587034375
 30
0.0
  0
SPLINE
  5
245
100
AcDbEntity
  8
0
100
AcDbSpline
 62
7
  6
BYLAYER
 70
0
 71
3
 72
19
 73
15
 74
0
 42
0.0000001
 43
0.0000001
 44
0.0000000001
 40
0.0
 40
0.0
 40
0.0
 40
0.0
 40
0.0428394104
 40
0.0874448899
 40
0.1352571039
 40
0.1871950253
 40
0.2436735499
 40
0.3046656819
 40
0.4382689093
 40
0.5825434307
 40
0.7296392143
 40
0.871166535
 40
0.9376088396
 40
1.0
 40
1.0
 40
1.0
 40
1.0
 10
44.0659190837
 20
31.912342417
 30
0.0
 10
44.115223473
 20
31.9408131172
 30
0.0
 10
44.2239233082
 20
31.985948616
 30
0.0
 10
44.4033260079
 20
32.0122845538
 30
0.0
 10
44.5959864452
 20
31.9980749617
 30
0.0
 10
44.7976151979
 20
31.9445189528
 30
0.0
 10
45.0042757745
 20
31.8532083946
 30
0.0
 10
45.2895421186
 20
31.6785843751
 30
0.0
 10
45.6293849478
 20
31.3776293695
 30
0.0
 10
45.9786775899
 20
30.9304376901
 30
0.0
 10
46.2537190484
 20
30.4221895597
 30
0.0
 10
46.4059102806
 20
29.9723817925
 30
0.0
 10
46.4688326464
 20
29.6180718009
 30
0.0
 10
46.4801306454
 20
29.4467321833
 30
0.0
 10
46.4801306454
 20
29.3638134175
 30
0.0
  0
SPLINE
  5
246
100
AcDbEntity
  8
0
100
AcDbSpline
 62
7
  6
BYLAYER
 70
0
 71
3
 72
14
 73
10
 74
0
 42
0.0000001
 43
0.0000001
 44
0.0000000001
 40
0.0
 40
0.0
 40
0.0
 40
0.0
 40
0.1083452369
 40
0.2186842558
 40
0.3328271038
 40
0.4522901787
 40
0.5781959192
 40
0.7113049609
 40
1.0
 40
1.0
 40
1.0
 40
1.0
 10
8.3801944419
 20
45.1084499399
 30
0.0
 10
8.3154617817
 20
45.1458129362
 30
0.0
 10
8.190963745
 20
45.2324875883
 30
0.0
 10
8.0261250425
 20
45.393678528
 30
0.0
 10
7.8839130028
 20
45.5847508292
 30
0.0
 10
7.7657164554
 20
45.8036587483
 30
0.0
 10
7.6723011039
 20
46.0482014435
 30
0.0
 10
7.5794815818
 20
46.4151192755
 30
0.0
 10
7.5536617395
 20
46.7072947597
 30
0.0
 10
7.5519008247
 20
46.9064423552
 30
0.0
  0
SPLINE
  5
247
100
AcDbEntity
  8
0
100
AcDbSpline
 62
7
  6
BYLAYER
 70
0
 71
3
 72
9
 73
5
 74
0
 42
0.0000001
 43
0.0000001
 44
0.0000000001
 40
0.0
 40
0.0
 40
0.0
 40
0.0
 40
0.2635201797
 40
1.0
 40
1.0
 40
1.0
 40
1.0
 10
10.4088667083
 20
51.8549792853
 30
0.0
 10
10.4688843935
 20
51.8889222948
 30
0.0
 10
10.7001105771
 20
52.0112859011
 30
0.0
 10
10.9462165169
 20
52.1071146721
 30
0.0
 10
11.1327840093
 20
52.1553529943
 30
0.0
  0
SPLINE
  5
248
100
AcDbEntity
  8
0
100
AcDbSpline
 62
7
  6
BYLAYER
 70
0
 71
3
 72
15
 73
11
 74
0
 42
0.0000001
 43
0.0000001
 44
0.0000000001
 40
0.0
 40
0.0
 40
0.0
 40
0.0
 40
0.1137602025
 40
0.2366989364
 40
0.3662743027
 40
0.4993522315
 40
0.6325252761
 40
0.7623578859
 40
0.8857266347
 40
1.0
 40
1.0
 40
1.0
 40
1.0
 10
7.545009336
 20
47.6836147352
 30
0.0
 10
7.5434853481
 20
47.8551559877
 30
0.0
 10
7.5723253397
 20
48.2126999171
 30
0.0
 10
7.6948324594
 20
48.7527870482
 30
0.0
 10
7.8937735626
 20
49.3006850256
 30
0.0
 10
8.161599183
 20
49.8355569788
 30
0.0
 10
8.4881878517
 20
50.3371722338
 30
0.0
 10
8.861181048
 20
50.7866313222
 30
0.0
 10
9.2664217283
 20
51.166733185
 30
0.0
 10
9.5611601663
 20
51.3736183824
 30
0.0
 10
9.710395498
 20
51.4597789271
 30
0.0
  0
SPLINE
  5
249
100
AcDbEntity
  8
0
100
AcDbSpline
 62
7
  6
BYLAYER
 70
0
 71
3
 72
11
 73
7
 74
0
 42
0.0000001
 43
0.0000001
 44
0.0000000001
 40
0.0
 40
0.0
 40
0.0
 40
0.0
 40
0.2898011193
 40
0.5490467489
 40
0.7822256932
 40
1.0
 40
1.0
 40
1.0
 40
1.0
 10
53.9046308395
 20
35.2834287155
 30
0.0
 10
53.9704848593
 20
35.2454148412
 30
0.0
 10
54.0899401623
 20
35.163200883
 30
0.0
 10
54.2326302129
 20
35.0131505284
 30
0.0
 10
54.3229722914
 20
34.8472643361
 30
0.0
 10
54.3440896425
 20
34.7281437911
 30
0.0
 10
54.3440818352
 20
34.6710040384
 30
0.0
  0
SPLINE
  5
24A
100
AcDbEntity
  8
0
100
AcDbSpline
 62
7
  6
BYLAYER
 70
0
 71
3
 72
19
 73
15
 74
0
 42
0.0000001
 43
0.0000001
 44
0.0000000001
 40
0.0
 40
0.0
 40
0.0
 40
0.0
 40
0.0428394104
 40
0.0874448899
 40
0.1352571039
 40
0.1871950253
 40
0.2436735499
 40
0.3046656819
 40
0.4382689093
 40
0.5825434307
 40
0.7296392143
 40
0.871166535
 40
0.9376088396
 40
1.0
 40
1.0
 40
1.0
 40
1.0
 10
15.6601851251
 20
57.4336337202
 30
0.0
 10
15.6108807358
 20
57.40516302
 30
0.0
 10
15.5021809006
 20
57.3600275213
 30
0.0
 10
15.3227782009
 20
57.3336915835
 30
0.0
 10
15.1301177636
 20
57.3479011755
 30
0.0
 10
14.9284890109
 20
57.4014571844
 30
0.0
 10
14.7218284343
 20
57.4927677427
 30
0.0
 10
14.4365620902
 20
57.6673917622
 30
0.0
 10
14.096719261
 20
57.9683467678
 30
0.0
 10
13.7474266189
 20
58.4155384471
 30
0.0
 10
13.4723851604
 20
58.9237865776
 30
0.0
 10
13.3201939282
 20
59.3735943447
 30
0.0
 10
13.2572715624
 20
59.7279043363
 30
0.0
 10
13.2459735634
 20
59.8992439539
 30
0.0
 10
13.2459735634
 20
59.9821627198
 30
0.0
  0
SPLINE
  5
24B
100
AcDbEntity
  8
0
100
AcDbSpline
 62
7
  6
BYLAYER
 70
0
 71
3
 72
14
 73
10
 74
0
 42
0.0000001
 43
0.0000001
 44
0.0000000001
 40
0.0
 40
0.0
 40
0.0
 40
0.0
 40
0.1141168482
 40
0.2374485836
 40
0.4997647652
 40
0.6328404015
 40
0.7625278708
 40
0.8858689915
 40
1.0
 40
1.0
 40
1.0
 40
1.0
 10
23.1454331171
 20
48.5511352529
 30
0.0
 10
23.0970634881
 20
48.5790608394
 30
0.0
 10
23.0014714547
 20
48.6461562296
 30
0.0
 10
22.8224338646
 20
48.8135765115
 30
0.0
 10
22.6708605567
 20
49.0207517047
 30
0.0
 10
22.5547909904
 20
49.2504131137
 30
0.0
 10
22.4893497892
 20
49.4282280254
 30
0.0
 10
22.4486625638
 20
49.603730276
 30
0.0
 10
22.4383940914
 20
49.7200601915
 30
0.0
 10
22.4383940914
 20
49.7759192426
 30
0.0
  0
SPLINE
  5
24C
100
AcDbEntity
  8
0
100
AcDbSpline
 62
7
  6
BYLAYER
 70
0
 71
3
 72
11
 73
7
 74
0
 42
0.0000001
 43
0.0000001
 44
0.0000000001
 40
0.0
 40
0.0
 40
0.0
 40
0.0
 40
0.289538234
 40
0.5491182222
 40
0.7822569943
 40
1.0
 40
1.0
 40
1.0
 40
1.0
 10
22.4383941062
 20
49.7759192471
 30
0.0
 10
22.438385334
 20
49.8265659284
 30
0.0
 10
22.4461088
 20
49.922940302
 30
0.0
 10
22.4850614436
 20
50.0553749458
 30
0.0
 10
22.5507663216
 20
50.1628820826
 30
0.0
 10
22.6125437469
 20
50.2147024749
 30
0.0
 10
22.6455290535
 20
50.233746445
 30
0.0
  0
SPLINE
  5
24D
100
AcDbEntity
  8
0
100
AcDbSpline
 62
7
  6
BYLAYER
 70
0
 71
3
 72
19
 73
15
 74
0
 42
0.0000001
 43
0.0000001
 44
0.0000000001
 40
0.0
 40
0.0
 40
0.0
 40
0.0
 40
0.0428394104
 40
0.0874448899
 40
0.1352571039
 40
0.1871950253
 40
0.2436735499
 40
0.3046656819
 40
0.4382689093
 40
0.5825434307
 40
0.7296392143
 40
0.871166535
 40
0.9376088396
 40
1.0
 40
1.0
 40
1.0
 40
1.0
 10
46.0659033064
 20
28.448247436
 30
0.0
 10
46.0165989171
 20
28.4197767358
 30
0.0
 10
45.9078990819
 20
28.3746412371
 30
0.0
 10
45.7284963822
 20
28.3483052993
 30
0.0
 10
45.5358359449
 20
28.3625148913
 30
0.0
 10
45.3342071923
 20
28.4160709002
 30
0.0
 10
45.1275466156
 20
28.5073814585
 30
0.0
 10
44.8422802716
 20
28.682005478
 30
0.0
 10
44.5024374423
 20
28.9829604836
 30
0.0
 10
44.1531448002
 20
29.4301521629
 30
0.0
 10
43.8781033417
 20
29.9384002934
 30
0.0
 10
43.7259121095
 20
30.3882080605
 30
0.0
 10
43.6629897437
 20
30.7425180521
 30
0.0
 10
43.6516917448
 20
30.9138576697
 30
0.0
 10
43.6516917448
 20
30.9967764356
 30
0.0
  0
SPLINE
  5
24E
100
AcDbEntity
  8
0
100
AcDbSpline
 62
7
  6
BYLAYER
 70
0
 71
3
 72
19
 73
15
 74
0
 42
0.0000001
 43
0.0000001
 44
0.0000000001
 40
0.0
 40
0.0
 40
0.0
 40
0.0
 40
0.0428394104
 40
0.0874448899
 40
0.1352571039
 40
0.1871950253
 40
0.2436735499
 40
0.3046656819
 40
0.4382689093
 40
0.5825434307
 40
0.7296392143
 40
0.871166535
 40
0.9376088396
 40
1.0
 40
1.0
 40
1.0
 40
1.0
 10
15.6601851251
 20
46.0025998804
 30
0.0
 10
15.6108807358
 20
45.9741291802
 30
0.0
 10
15.5021809006
 20
45.9289936815
 30
0.0
 10
15.3227782009
 20
45.9026577437
 30
0.0
 10
15.1301177636
 20
45.9168673357
 30
0.0
 10
14.9284890109
 20
45.9704233446
 30
0.0
 10
14.7218284343
 20
46.0617339029
 30
0.0
 10
14.4365620902
 20
46.2363579224
 30
0.0
 10
14.096719261
 20
46.537312928
 30
0.0
 10
13.7474266189
 20
46.9845046073
 30
0.0
 10
13.4723851604
 20
47.4927527378
 30
0.0
 10
13.3201939282
 20
47.9425605049
 30
0.0
 10
13.2572715624
 20
48.2968704965
 30
0.0
 10
13.2459735634
 20
48.4682101141
 30
0.0
 10
13.2459735634
 20
48.5511288799
 30
0.0
  0
SPLINE
  5
24F
100
AcDbEntity
  8
0
100
AcDbSpline
 62
7
  6
BYLAYER
 70
0
 71
3
 72
23
 73
19
 74
0
 42
0.0000001
 43
0.0000001
 44
0.0000000001
 40
0.0
 40
0.0
 40
0.0
 40
0.0
 40
0.0665683776
 40
0.1384455768
 40
0.2140577917
 40
0.2916527583
 40
0.3692432281
 40
0.4448644449
 40
0.5167096936
 40
0.5832963211
 40
0.6436741191
 40
0.6976870354
 40
0.7462701876
 40
0.7916442227
 40
0.8370209949
 40
0.8855954532
 40
0.9396408553
 40
1.0
 40
1.0
 40
1.0
 40
1.0
 10
22.4383999904
 20
47.3265111568
 30
0.0
 10
22.3416127763
 20
47.3823900167
 30
0.0
 10
22.1503966277
 20
47.5164811245
 30
0.0
 10
21.8872354411
 20
47.7625937637
 30
0.0
 10
21.6447755818
 20
48.0536359073
 30
0.0
 10
21.4320588692
 20
48.3784818483
 30
0.0
 10
21.2570632547
 20
48.7251394373
 30
0.0
 10
21.1263179703
 20
49.0805839303
 30
0.0
 10
21.0446783011
 20
49.4316127242
 30
0.0
 10
21.015260942
 20
49.7653824255
 30
0.0
 10
21.0395111228
 20
50.0699851134
 30
0.0
 10
21.1175947163
 20
50.3347728198
 30
0.0
 10
21.2490661756
 20
50.5497343993
 30
0.0
 10
21.4315717816
 20
50.7033086264
 30
0.0
 10
21.6557925089
 20
50.784582815
 30
0.0
 10
21.9077506156
 20
50.7910643076
 30
0.0
 10
22.176041583
 20
50.7262330165
 30
0.0
 10
22.3506407018
 20
50.643187528
 30
0.0
 10
22.4383999904
 20
50.5925208253
 30
0.0
  0
SPLINE
  5
250
100
AcDbEntity
  8
0
100
AcDbSpline
 62
7
  6
BYLAYER
 70
0
 71
3
 72
12
 73
8
 74
0
 42
0.0000001
 43
0.0000001
 44
0.0000000001
 40
0.0
 40
0.0
 40
0.0
 40
0.0
 40
0.2894832083
 40
0.5486755374
 40
0.7816290778
 40
0.8918324007
 40
1.0
 40
1.0
 40
1.0
 40
1.0
 10
43.6516917448
 20
30.9967764356
 30
0.0
 10
43.6516917448
 20
31.0981123675
 30
0.0
 10
43.6671043547
 20
31.2908591779
 30
0.0
 10
43.7449561317
 20
31.5555441552
 30
0.0
 10
43.8569995955
 20
31.7381701305
 30
0.0
 10
43.9701070423
 20
31.8493700686
 30
0.0
 10
44.033128465
 20
31.8934075537
 30
0.0
 10
44.0659190837
 20
31.912342417
 30
0.0
  0
SPLINE
  5
251
100
AcDbEntity
  8
0
100
AcDbSpline
 62
7
  6
BYLAYER
 70
0
 71
3
 72
12
 73
8
 74
0
 42
0.0000001
 43
0.0000001
 44
0.0000000001
 40
0.0
 40
0.0
 40
0.0
 40
0.0
 40
0.2894832083
 40
0.5486755374
 40
0.7816290778
 40
0.8918324007
 40
1.0
 40
1.0
 40
1.0
 40
1.0
 10
13.2459735634
 20
59.9821627198
 30
0.0
 10
13.2459735634
 20
60.0834986516
 30
0.0
 10
13.2613861734
 20
60.2762454621
 30
0.0
 10
13.3392379504
 20
60.5409304393
 30
0.0
 10
13.4512814141
 20
60.7235564146
 30
0.0
 10
13.564388861
 20
60.8347563528
 30
0.0
 10
13.6274102837
 20
60.8787938379
 30
0.0
 10
13.6602009024
 20
60.8977287012
 30
0.0
  0
SPLINE
  5
252
100
AcDbEntity
  8
0
100
AcDbSpline
 62
7
  6
BYLAYER
 70
0
 71
3
 72
12
 73
8
 74
0
 42
0.0000001
 43
0.0000001
 44
0.0000000001
 40
0.0
 40
0.0
 40
0.0
 40
0.0
 40
0.2894832083
 40
0.5486755374
 40
0.7816290778
 40
0.8918324007
 40
1.0
 40
1.0
 40
1.0
 40
1.0
 10
13.2459735634
 20
53.4501433827
 30
0.0
 10
13.2459735634
 20
53.5514793146
 30
0.0
 10
13.2613861734
 20
53.744226125
 30
0.0
 10
13.3392379504
 20
54.0089111023
 30
0.0
 10
13.4512814141
 20
54.1915370776
 30
0.0
 10
13.564388861
 20
54.3027370158
 30
0.0
 10
13.6274102837
 20
54.3467745008
 30
0.0
 10
13.6602009024
 20
54.3657093642
 30
0.0
  0
SPLINE
  5
253
100
AcDbEntity
  8
0
100
AcDbSpline
 62
7
  6
BYLAYER
 70
0
 71
3
 72
9
 73
5
 74
0
 42
0.0000001
 43
0.0000001
 44
0.0000000001
 40
0.0
 40
0.0
 40
0.0
 40
0.0
 40
0.2470413052
 40
1.0
 40
1.0
 40
1.0
 40
1.0
 10
54.3335740125
 20
34.5692216343
 30
0.0
 10
54.331966294
 20
34.5770243675
 30
0.0
 10
54.3247376538
 20
34.6084576038
 30
0.0
 10
54.3146471686
 20
34.6392220803
 30
0.0
 10
54.3056350231
 20
34.6617692835
 30
0.0
  0
SPLINE
  5
254
100
AcDbEntity
  8
0
100
AcDbSpline
 62
7
  6
BYLAYER
 70
0
 71
3
 72
11
 73
7
 74
0
 42
0.0000001
 43
0.0000001
 44
0.0000000001
 40
0.0
 40
0.0
 40
0.0
 40
0.0
 40
0.2152420104
 40
0.4525145409
 40
0.7143294501
 40
1.0
 40
1.0
 40
1.0
 40
1.0
 10
54.2935337356
 20
34.6898837434
 30
0.0
 10
54.2701411227
 20
34.7405771635
 30
0.0
 10
54.2058882133
 20
34.8404925928
 30
0.0
 10
54.0729204682
 20
34.9711472702
 30
0.0
 10
53.9037906031
 20
35.0860321868
 30
0.0
 10
53.7752518286
 20
35.1476076637
 30
0.0
 10
53.7065929436
 20
35.1754742269
 30
0.0
  0
SPLINE
  5
255
100
AcDbEntity
  8
0
100
AcDbSpline
 62
7
  6
BYLAYER
 70
0
 71
3
 72
15
 73
11
 74
0
 42
0.0000001
 43
0.0000001
 44
0.0000000001
 40
0.0
 40
0.0
 40
0.0
 40
0.0
 40
0.1116720876
 40
0.2314437405
 40
0.3575435938
 40
0.4877642084
 40
0.6196393359
 40
0.7506108645
 40
0.8781588987
 40
1.0
 40
1.0
 40
1.0
 40
1.0
 10
7.5519008247
 20
46.9064423552
 30
0.0
 10
7.550194133
 20
47.0994576968
 30
0.0
 10
7.5776011618
 20
47.5000877093
 30
0.0
 10
7.6975660304
 20
48.1076900432
 30
0.0
 10
7.8944435843
 20
48.7285691999
 30
0.0
 10
8.1626006837
 20
49.344870869
 30
0.0
 10
8.4943293855
 20
49.9390359515
 30
0.0
 10
8.8801707008
 20
50.4940159783
 30
0.0
 10
9.3089424588
 20
50.9938734502
 30
0.0
 10
9.62439257
 20
51.2893443022
 30
0.0
 10
9.7868462258
 20
51.4233633019
 30
0.0
  0
SPLINE
  5
256
100
AcDbEntity
  8
0
100
AcDbSpline
 62
7
  6
BYLAYER
 70
0
 71
3
 72
9
 73
5
 74
0
 42
0.0000001
 43
0.0000001
 44
0.0000000001
 40
0.0
 40
0.0
 40
0.0
 40
0.0
 40
0.2588628005
 40
1.0
 40
1.0
 40
1.0
 40
1.0
 10
9.7868462258
 20
51.4233633019
 30
0.0
 10
9.8350776216
 20
51.4631526399
 30
0.0
 10
10.0242709368
 20
51.6133067157
 30
0.0
 10
10.2251246778
 20
51.7490658043
 30
0.0
 10
10.3801556875
 20
51.8385724652
 30
0.0
  0
SPLINE
  5
257
100
AcDbEntity
  8
0
100
AcDbSpline
 62
7
  6
BYLAYER
 70
0
 71
3
 72
12
 73
8
 74
0
 42
0.0000001
 43
0.0000001
 44
0.0000000001
 40
0.0
 40
0.0
 40
0.0
 40
0.0
 40
0.2894832083
 40
0.5486755374
 40
0.7816290778
 40
0.8918324007
 40
1.0
 40
1.0
 40
1.0
 40
1.0
 10
13.2459735634
 20
48.5511288799
 30
0.0
 10
13.2459735634
 20
48.6524648118
 30
0.0
 10
13.2613861734
 20
48.8452116223
 30
0.0
 10
13.3392379504
 20
49.1098965995
 30
0.0
 10
13.4512814141
 20
49.2925225748
 30
0.0
 10
13.564388861
 20
49.403722513
 30
0.0
 10
13.6274102837
 20
49.4477599981
 30
0.0
 10
13.6602009024
 20
49.4666948614
 30
0.0
  0
SPLINE
  5
258
100
AcDbEntity
  8
0
100
AcDbSpline
 62
7
  6
BYLAYER
 70
0
 71
3
 72
19
 73
15
 74
0
 42
0.0000001
 43
0.0000001
 44
0.0000000001
 40
0.0
 40
0.0
 40
0.0
 40
0.0
 40
0.0428394104
 40
0.0874448899
 40
0.1352571039
 40
0.1871950253
 40
0.2436735499
 40
0.3046656819
 40
0.4382689093
 40
0.5825434307
 40
0.7296392143
 40
0.871166535
 40
0.9376088396
 40
1.0
 40
1.0
 40
1.0
 40
1.0
 10
15.6601851251
 20
50.9016143832
 30
0.0
 10
15.6108807358
 20
50.873143683
 30
0.0
 10
15.5021809006
 20
50.8280081842
 30
0.0
 10
15.3227782009
 20
50.8016722464
 30
0.0
 10
15.1301177636
 20
50.8158818385
 30
0.0
 10
14.9284890109
 20
50.8694378474
 30
0.0
 10
14.7218284343
 20
50.9607484056
 30
0.0
 10
14.4365620902
 20
51.1353724251
 30
0.0
 10
14.096719261
 20
51.4363274307
 30
0.0
 10
13.7474266189
 20
51.8835191101
 30
0.0
 10
13.4723851604
 20
52.3917672406
 30
0.0
 10
13.3201939282
 20
52.8415750077
 30
0.0
 10
13.2572715624
 20
53.1958849993
 30
0.0
 10
13.2459735634
 20
53.3672246169
 30
0.0
 10
13.2459735634
 20
53.4501433827
 30
0.0
  0
ENDSEC
  0
SECTION
  2
OBJECTS
  0
DICTIONARY
  5
C
100
AcDbDictionary
280
0
281
1
  3
ACAD_GROUP
350
D
  3
ACAD_MLINESTYLE
350
17
  3
ACAD_LAYOUT
350
1A
  3
ACAD_PLOTSETTINGS
350
19
  3
ACAD_PLOTSTYLENAME
350
E
  0
DICTIONARY
  5
D
102
{ACAD_REACTORS
330
C
102
}
100
AcDbDictionary
280
0
281
1
  0
ACDBDICTIONARYWDFLT
  5
E
102
{ACAD_REACTORS
330
C
102
}
100
AcDbDictionary
281
1
  3
Normal
350
F
100
AcDbDictionaryWithDefault
340
F
  0
DICTIONARY
  5
17
102
{ACAD_REACTORS
330
C
102
}
100
AcDbDictionary
280
0
281
1
  3
Standard
350
18
  0
DICTIONARY
  5
19
102
{ACAD_REACTORS
330
C
102
}
100
AcDbDictionary
281
1
  0
DICTIONARY
  5
1A
102
{ACAD_REACTORS
330
C
102
}
100
AcDbDictionary
281
1
  3
Model
350
259
  3
Layout1
350
25A
  0
ACDBPLACEHOLDER
  5
F
102
{ACAD_REACTORS
330
E
102
}
  0
MLINESTYLE
  5
18
102
{ACAD_REACTORS
330
17
102
}
100
AcDbMlineStyle
  2
STANDARD
 70
0
  3

 62
256
 51
90.0
 52
90.0
 71
2
 49
0.5
 62
256
  6
BYLAYER
 49
-0.5
 62
256
  6
BYLAYER
  0
LAYOUT
  5
259
102
{ACAD_REACTORS
330
1A
102
}
100
AcDbPlotSettings
  1

  2
none_device
  4

  6

 40
0.0
 41
0.0
 42
0.0
 43
0.0
 44
210.0
 45
297.0
 46
0.0
 47
0.0
 48
0.0
 49
0.0
140
0.0
141
0.0
142
1.0
143
1.0
 70
1024
 72
1
 73
0
 74
0
  7

 75
0
147
1.0
148
0.0
149
0.0
100
AcDbLayout
  1
Model
 70
0
 71
0
 10
0.0
 20
0.0
 11
210.0
 21
297.0
 12
0.0
 22
0.0
 32
0.0
 14
0.0
 24
0.0
 34
0.0
 15
0.0
 25
0.0
 35
0.0
146
0.0
 13
0.0
 23
0.0
 33
0.0
 16
1.0
 26
0.0
 36
0.0
 17
0.0
 27
1.0
 37
0.0
 76
0
330
210
345
0
346
0
  0
LAYOUT
  5
25A
102
{ACAD_REACTORS
330
1A
102
}
100
AcDbPlotSettings
  1

  2
none_device
  4

  6

 40
0.0
 41
0.0
 42
0.0
 43
0.0
 44
210.0
 45
297.0
 46
0.0
 47
0.0
 48
0.0
 49
0.0
140
0.0
141
0.0
142
1.0
143
1.0
 70
0
 72
1
 73
0
 74
0
  7

 75
0
147
1.0
148
0.0
149
0.0
100
AcDbLayout
  1
Layout1
 70
0
 71
1
 10
0.0
 20
0.0
 11
210.0
 21
297.0
 12
0.0
 22
0.0
 32
0.0
 14
0.0
 24
0.0
 34
0.0
 15
0.0
 25
0.0
 35
0.0
146
0.0
 13
0.0
 23
0.0
 33
0.0
 16
1.0
 26
0.0
 36
0.0
 17
0.0
 27
1.0
 37
0.0
 76
0
330
211
345
0
346
0
  0
ENDSEC
  0
EOF
