999
DXF file: C:\Users\sesa63760\Dev\_Creo\CAD\MCADID0004795_3D-CAD\drw0001_3.dxf
999
Pro/ENGINEER 2019471 by Parametric Technology Corporation
  0
SECTION
  2
HEADER
  9
$ACADVER
  1
AC1024
  9
$DWGCODEPAGE
  3
ANSI_1252
  9
$EXTMAX
 10
65.7312733462
 20
92.9628008753
 30
0.0
  9
$EXTMIN
 10
0.0
 20
0.0
 30
0.0
  9
$LIMMIN
 10
0.0
 20
0.0
  9
$LIMMAX
 10
65.7312733462
 20
92.9628008753
  9
$VIEWCTR
 10
32.8656366731
 20
46.4814004376
  9
$VIEWSIZE
 40
92.9628008753
  9
$CLAYER
  8
0
  9
$LTSCALE
 40
6.0597973904
  9
$CELTYPE
  6
BYLAYER
  9
$DIMSCALE
 40
1.0
  9
$DIMASZ
 40
0.7825151589
  9
$DIMEXO
 40
1.0
  9
$DIMDLI
 40
4.1867691061
  9
$DIMEXE
 40
1.0
  9
$DIMCEN
 40
0.9916032093
  9
$DIMLFAC
 40
1.0
  9
$DIMBLK
  1
_FILLED
  9
$DIMALT
 70
0
  9
$DIMALTF
 40
0.0393700787
  9
$DIMTXT
 40
1.0955212224
  9
$DIMTOL
 70
1
  9
$DIMLIM
 70
0
  9
$DIMTFAC
 40
1.0
  9
$DIMTP
 40
0.01
  9
$DIMTM
 40
0.01
  9
$DIMGAP
 40
0.625
  9
$DIMDSEP
 70
46
  9
$AUNITS
 70
0
  9
$PDMODE
 70
3
  9
$PDSIZE
 40
0.3125
  9
$HANDSEED
  5
2B4
  9
$TILEMODE
 70
1
  9
$MEASUREMENT
 70
1
  9
$INSUNITS
 70
4
  0
ENDSEC
  0
SECTION
  2
CLASSES
  0
CLASS
  1
ACDBDICTIONARYWDFLT
  2
AcDbDictionaryWithDefault
  3
AutoCAD 2000
 90
0
 91
1
280
0
281
0
  0
CLASS
  1
ACDBPLACEHOLDER
  2
AcDbPlaceHolder
  3
AutoCAD 2000
 90
0
 91
1
280
0
281
0
  0
CLASS
  1
LAYOUT
  2
AcDbLayout
  3
AutoCAD 2000
 90
0
 91
0
280
0
281
0
  0
ENDSEC
  0
SECTION
  2
TABLES
  0
TABLE
  2
VPORT
  5
8
100
AcDbSymbolTable
 70
2
  0
VPORT
  5
1F4
100
AcDbSymbolTableRecord
100
AcDbViewportTableRecord
  2
*ACTIVE
 70
0
 10
0.0
 20
0.0
 11
1.0
 21
1.0
 12
32.8656366731
 22
46.4814004376
 13
0.0
 23
0.0
 14
1.0
 24
1.0
 15
0.0
 25
0.0
 16
0.0
 26
0.0
 36
1.0
 17
0.0
 27
0.0
 37
0.0
 40
92.9628008753
 41
0.7070707071
 42
50.0
 43
0.0
 44
0.0
 50
0.0
 51
0.0
 71
0
 72
100
 73
1
 74
1
 75
0
 76
0
 77
0
 78
0
  0
ENDTAB
  0
TABLE
  2
LTYPE
  5
5
100
AcDbSymbolTable
 70
6
  0
LTYPE
  5
14
100
AcDbSymbolTableRecord
100
AcDbLinetypeTableRecord
  2
BYBLOCK
 70
0
  3

 72
65
 73
0
 40
0.0
  0
LTYPE
  5
15
100
AcDbSymbolTableRecord
100
AcDbLinetypeTableRecord
  2
BYLAYER
 70
0
  3

 72
65
 73
0
 40
0.0
  0
LTYPE
  5
16
100
AcDbSymbolTableRecord
100
AcDbLinetypeTableRecord
  2
CONTINUOUS
 70
64
  3
Solid line
 72
65
 73
0
 40
0.0
  0
LTYPE
  5
1F5
100
AcDbSymbolTableRecord
100
AcDbLinetypeTableRecord
  2
CENTER
 70
64
  3
____ _ ____ _ ____ _ ____ _ ____ _ ____ _ ____
 72
65
 73
4
 40
0.6
 49
0.375
 74
0
 49
-0.075
 74
0
 49
0.075
 74
0
 49
-0.075
 74
0
  0
LTYPE
  5
1F6
100
AcDbSymbolTableRecord
100
AcDbLinetypeTableRecord
  2
HIDDEN
 70
64
  3
- - - - - - - - - - - - - - - - - - - -
 72
65
 73
2
 40
0.2
 49
0.1
 74
0
 49
-0.1
 74
0
  0
LTYPE
  5
1F7
100
AcDbSymbolTableRecord
100
AcDbLinetypeTableRecord
  2
PHANTOM
 70
64
  3
_____ _ _ _____ _ _ _____ _ _ _____
 72
65
 73
6
 40
0.8
 49
0.45
 74
0
 49
-0.05
 74
0
 49
0.1
 74
0
 49
-0.05
 74
0
 49
0.1
 74
0
 49
-0.05
 74
0
  0
LTYPE
  5
1F8
100
AcDbSymbolTableRecord
100
AcDbLinetypeTableRecord
  2
DOT
 70
64
  3
. . . . . . . . . . . . . . . . . . . .
 72
65
 73
2
 40
0.2
 49
0.1
 74
0
 49
-0.1
 74
0
  0
LTYPE
  5
1F9
100
AcDbSymbolTableRecord
100
AcDbLinetypeTableRecord
  2
DASHED
 70
64
  3
- - - - - - - - - - - - - - - - - - - -
 72
65
 73
2
 40
0.2
 49
0.1
 74
0
 49
-0.1
 74
0
  0
ENDTAB
  0
TABLE
  2
LAYER
  5
2
100
AcDbSymbolTable
 70
36
  0
LAYER
  5
10
100
AcDbSymbolTableRecord
100
AcDbLayerTableRecord
  2
0
 70
0
 62
7
  6
CONTINUOUS
370
-3
390
F
  0
LAYER
  5
1FA
100
AcDbSymbolTableRecord
100
AcDbLayerTableRecord
  2
DEFAULT_1
 70
0
 62
7
  6
CENTER
370
-3
390
F
  0
LAYER
  5
1FB
100
AcDbSymbolTableRecord
100
AcDbLayerTableRecord
  2
DEFAULT_2
 70
0
 62
7
  6
HIDDEN
370
-3
390
F
  0
LAYER
  5
1FC
100
AcDbSymbolTableRecord
100
AcDbLayerTableRecord
  2
DEFAULT_3
 70
0
 62
7
  6
PHANTOM
370
-3
390
F
  0
LAYER
  5
1FD
100
AcDbSymbolTableRecord
100
AcDbLayerTableRecord
  2
00_COMPONENTS
 70
0
 62
7
  6
CONTINUOUS
370
-3
390
F
  0
LAYER
  5
1FE
100
AcDbSymbolTableRecord
100
AcDbLayerTableRecord
  2
01_1_DEFAULT_DATUMS
 70
0
 62
7
  6
CONTINUOUS
370
-3
390
F
  0
LAYER
  5
1FF
100
AcDbSymbolTableRecord
100
AcDbLayerTableRecord
  2
01_PLANES
 70
0
 62
7
  6
CONTINUOUS
370
-3
390
F
  0
LAYER
  5
200
100
AcDbSymbolTableRecord
100
AcDbLayerTableRecord
  2
02_COORD_SYS
 70
0
 62
7
  6
CONTINUOUS
370
-3
390
F
  0
LAYER
  5
201
100
AcDbSymbolTableRecord
100
AcDbLayerTableRecord
  2
03_AXES
 70
0
 62
7
  6
CONTINUOUS
370
-3
390
F
  0
LAYER
  5
202
100
AcDbSymbolTableRecord
100
AcDbLayerTableRecord
  2
04_POINTS
 70
0
 62
7
  6
CONTINUOUS
370
-3
390
F
  0
LAYER
  5
203
100
AcDbSymbolTableRecord
100
AcDbLayerTableRecord
  2
05_CURVES
 70
0
 62
7
  6
CONTINUOUS
370
-3
390
F
  0
LAYER
  5
204
100
AcDbSymbolTableRecord
100
AcDbLayerTableRecord
  2
06_SURFS
 70
0
 62
7
  6
CONTINUOUS
370
-3
390
F
  0
LAYER
  5
205
100
AcDbSymbolTableRecord
100
AcDbLayerTableRecord
  2
07_COSMETICS
 70
0
 62
7
  6
CONTINUOUS
370
-3
390
F
  0
LAYER
  5
206
100
AcDbSymbolTableRecord
100
AcDbLayerTableRecord
  2
10_NOTES
 70
0
 62
7
  6
CONTINUOUS
370
-3
390
F
  0
LAYER
  5
207
100
AcDbSymbolTableRecord
100
AcDbLayerTableRecord
  2
11_NOTES_PUB
 70
0
 62
7
  6
CONTINUOUS
370
-3
390
F
  0
LAYER
  5
208
100
AcDbSymbolTableRecord
100
AcDbLayerTableRecord
  2
13_REF_GTOL
 70
0
 62
7
  6
CONTINUOUS
370
-3
390
F
  0
LAYER
  5
209
100
AcDbSymbolTableRecord
100
AcDbLayerTableRecord
  2
16_MISC
 70
0
 62
7
  6
CONTINUOUS
370
-3
390
F
  0
LAYER
  5
20A
100
AcDbSymbolTableRecord
100
AcDbLayerTableRecord
  2
17_NO_PRINT
 70
0
 62
7
  6
CONTINUOUS
370
-3
390
F
  0
LAYER
  5
20B
100
AcDbSymbolTableRecord
100
AcDbLayerTableRecord
  2
18_DATUM_CAMS_JOINTS
 70
0
 62
7
  6
CONTINUOUS
370
-3
390
F
  0
LAYER
  5
20C
100
AcDbSymbolTableRecord
100
AcDbLayerTableRecord
  2
19_DATUM_FUNCTIONAL
 70
0
 62
7
  6
CONTINUOUS
370
-3
390
F
  0
LAYER
  5
20D
100
AcDbSymbolTableRecord
100
AcDbLayerTableRecord
  2
20_DATUM_KINEMATIC_SCHEME
 70
0
 62
7
  6
CONTINUOUS
370
-3
390
F
  0
ENDTAB
  0
TABLE
  2
STYLE
  5
3
100
AcDbSymbolTable
 70
1
  0
STYLE
  5
11
100
AcDbSymbolTableRecord
100
AcDbTextStyleTableRecord
  2
STANDARD
 70
0
 40
0.0
 41
1.0
 50
0.0
 71
0
 42
0.2
  3
ARIAL.TTF
  4

  0
STYLE
  5
20E
100
AcDbSymbolTableRecord
100
AcDbTextStyleTableRecord
  2
TEXTSTYLE_1
 70
0
 40
0.0
 41
0.8
 50
0.0
 71
0
 42
0.2
  3
gdt
  4

  0
ENDTAB
  0
TABLE
  2
VIEW
  5
6
100
AcDbSymbolTable
 70
0
  0
ENDTAB
  0
TABLE
  2
UCS
  5
7
100
AcDbSymbolTable
 70
0
  0
ENDTAB
  0
TABLE
  2
APPID
  5
9
100
AcDbSymbolTable
 70
1
  0
APPID
  5
20F
100
AcDbSymbolTableRecord
100
AcDbRegAppTableRecord
  2
ACAD
 70
0
  0
ENDTAB
  0
TABLE
  2
BLOCK_RECORD
  5
1
100
AcDbSymbolTable
 70
0
  0
BLOCK_RECORD
  5
210
100
AcDbSymbolTableRecord
100
AcDbBlockTableRecord
  2
*Model_Space
  0
BLOCK_RECORD
  5
211
100
AcDbSymbolTableRecord
100
AcDbBlockTableRecord
  2
*Paper_Space
  0
BLOCK_RECORD
  5
212
100
AcDbSymbolTableRecord
100
AcDbBlockTableRecord
  2
_FILLED
  0
ENDTAB
  0
TABLE
  2
DIMSTYLE
  5
A
100
AcDbSymbolTable
 70
1
100
AcDbDimStyleTable
 71
0
  0
DIMSTYLE
105
213
100
AcDbSymbolTableRecord
100
AcDbDimStyleTableRecord
  2
STANDARD
 70
0
  3

  4

 40
1.0
 41
0.7825151589
 42
1.0
 43
0.38
 44
1.0
 45
0.0
 46
0.0
 47
0.01
 48
0.01
140
1.0955212224
141
0.09
142
0.0
143
25.4
144
1.0
145
0.0
146
1.0
147
0.625
 71
1
 72
0
 73
0
 74
0
 75
0
 76
0
 77
1
 78
8
 79
2
170
0
171
1
172
0
173
0
174
0
175
0
176
0
177
0
178
0
270
2
179
2
271
2
272
2
273
2
274
2
275
0
280
0
281
0
282
0
283
1
284
8
285
0
286
0
287
3
288
0
340
11
278
46
341
212
342
212
343
212
344
212
  0
ENDTAB
  0
ENDSEC
  0
SECTION
  2
BLOCKS
  0
BLOCK
  5
20
100
AcDbEntity
  8
0
100
AcDbBlockBegin
  2
*Model_Space
 70
0
 10
0.0
 20
0.0
 30
0.0
  3
*Model_Space
  1

  0
ENDBLK
  5
21
100
AcDbEntity
  8
0
100
AcDbBlockEnd
  0
BLOCK
  5
1C
100
AcDbEntity
  8
0
100
AcDbBlockBegin
  2
*Paper_Space
 70
0
 10
0.0
 20
0.0
 30
0.0
  3
*Paper_Space
  1

  0
ENDBLK
  5
1D
100
AcDbEntity
  8
0
100
AcDbBlockEnd
  0
BLOCK
  5
214
100
AcDbEntity
  8
0
100
AcDbBlockBegin
  2
_FILLED
 70
64
 10
0.0
 20
0.0
  3
_FILLED
  1

  0
SOLID
  5
215
100
AcDbEntity
  8
0
  6
BYBLOCK
 62
0
100
AcDbTrace
 10
0.0
 20
0.0
 11
-1.0
 21
0.25
 12
-1.0
 22
-0.25
 13
-1.0
 23
-0.25
  0
ENDBLK
  5
216
100
AcDbEntity
  8
0
  6
BYBLOCK
 62
0
100
AcDbBlockEnd
  0
ENDSEC
  0
SECTION
  2
ENTITIES
  0
LINE
  5
217
100
AcDbEntity
  8
0
100
AcDbLine
 62
7
  6
BYLAYER
 10
7.775921137
 20
59.7089715536
 11
7.775921137
 21
58.2089715536
  0
LINE
  5
218
100
AcDbEntity
  8
0
100
AcDbLine
 62
7
  6
BYLAYER
 10
7.775921137
 20
56.7089715536
 11
7.775921137
 21
32.2089715536
  0
LINE
  5
219
100
AcDbEntity
  8
0
100
AcDbLine
 62
7
  6
BYLAYER
 10
8.8765331
 20
60.8589715536
 11
8.775921137
 21
59.7089715536
  0
LINE
  5
21A
100
AcDbEntity
  8
0
100
AcDbLine
 62
7
  6
BYLAYER
 10
8.275921137
 20
31.7089715536
 11
8.275921137
 21
32.2089715536
  0
LINE
  5
21B
100
AcDbEntity
  8
0
100
AcDbLine
 62
7
  6
BYLAYER
 10
8.575921137
 20
57.0089715536
 11
8.575921137
 21
56.7089715536
  0
LINE
  5
21C
100
AcDbEntity
  8
0
100
AcDbLine
 62
7
  6
BYLAYER
 10
10.475921137
 20
58.2089715536
 11
10.475921137
 21
57.0089715536
  0
LINE
  5
21D
100
AcDbEntity
  8
0
100
AcDbLine
 62
7
  6
BYLAYER
 10
11.775921137
 20
32.2089715536
 11
11.775921137
 21
56.7089715536
  0
LINE
  5
21E
100
AcDbEntity
  8
0
100
AcDbLine
 62
7
  6
BYLAYER
 10
11.775921137
 20
58.2089715536
 11
11.775921137
 21
59.7089715536
  0
LINE
  5
21F
100
AcDbEntity
  8
0
100
AcDbLine
 62
7
  6
BYLAYER
 10
11.875921137
 20
56.7089715536
 11
11.875921137
 21
57.0089715536
  0
LINE
  5
220
100
AcDbEntity
  8
0
100
AcDbLine
 62
7
  6
BYLAYER
 10
13.075921137
 20
57.0089715536
 11
13.075921137
 21
58.2089715536
  0
LINE
  5
221
100
AcDbEntity
  8
0
100
AcDbLine
 62
7
  6
BYLAYER
 10
14.775921137
 20
59.7089715536
 11
14.6753091739
 21
60.8589715536
  0
LINE
  5
222
100
AcDbEntity
  8
0
100
AcDbLine
 62
7
  6
BYLAYER
 10
18.1067868419
 20
37.3839715536
 11
18.4964982736
 21
36.7089715536
  0
LINE
  5
223
100
AcDbEntity
  8
0
100
AcDbLine
 62
7
  6
BYLAYER
 10
18.8862097053
 20
36.0339715536
 11
19.275921137
 21
35.3589715536
  0
LINE
  5
224
100
AcDbEntity
  8
0
100
AcDbLine
 62
7
  6
BYLAYER
 10
19.275921137
 20
35.6589715536
 11
18.9728122456
 21
36.1839715536
  0
LINE
  5
225
100
AcDbEntity
  8
0
100
AcDbLine
 62
7
  6
BYLAYER
 10
18.6697033543
 20
36.7089715536
 11
18.366594463
 21
37.2339715536
  0
LINE
  5
226
100
AcDbEntity
  8
0
100
AcDbLine
 62
7
  6
BYLAYER
 10
16.525921137
 20
60.0089715536
 11
16.525921137
 21
59.7089715536
  0
LINE
  5
227
100
AcDbEntity
  8
0
100
AcDbLine
 62
7
  6
BYLAYER
 10
18.8765331
 20
60.8589715536
 11
18.775921137
 21
59.7089715536
  0
LINE
  5
228
100
AcDbEntity
  8
0
100
AcDbLine
 62
7
  6
BYLAYER
 10
19.275921137
 20
37.7589715536
 11
19.5790300283
 21
37.2339715536
  0
LINE
  5
229
100
AcDbEntity
  8
0
100
AcDbLine
 62
7
  6
BYLAYER
 10
19.8821389196
 20
36.7089715536
 11
20.1852478109
 21
36.1839715536
  0
LINE
  5
22A
100
AcDbEntity
  8
0
100
AcDbLine
 62
7
  6
BYLAYER
 10
20.4450554321
 20
36.0339715536
 11
20.0553440004
 21
36.7089715536
  0
LINE
  5
22B
100
AcDbEntity
  8
0
100
AcDbLine
 62
7
  6
BYLAYER
 10
19.6656325687
 20
37.3839715536
 11
19.275921137
 21
38.0589715536
  0
LINE
  5
22C
100
AcDbEntity
  8
0
100
AcDbLine
 62
7
  6
BYLAYER
 10
18.075921137
 20
57.0089715536
 11
18.075921137
 21
56.7089715536
  0
LINE
  5
22D
100
AcDbEntity
  8
0
100
AcDbLine
 62
7
  6
BYLAYER
 10
18.275921137
 20
32.2089715536
 11
18.275921137
 21
31.7089715536
  0
LINE
  5
22E
100
AcDbEntity
  8
0
100
AcDbLine
 62
7
  6
BYLAYER
 10
19.075921137
 20
56.7089715536
 11
19.075921137
 21
57.0089715536
  0
LINE
  5
22F
100
AcDbEntity
  8
0
100
AcDbLine
 62
7
  6
BYLAYER
 10
59.275921137
 20
31.7089715536
 11
49.275921137
 21
31.7089715536
  0
LINE
  5
230
100
AcDbEntity
  8
0
100
AcDbLine
 62
7
  6
BYLAYER
 10
38.275921137
 20
31.7089715536
 11
29.275921137
 21
31.7089715536
  0
LINE
  5
231
100
AcDbEntity
  8
0
100
AcDbLine
 62
7
  6
BYLAYER
 10
18.275921137
 20
31.7089715536
 11
8.275921137
 21
31.7089715536
  0
LINE
  5
232
100
AcDbEntity
  8
0
100
AcDbLine
 62
7
  6
BYLAYER
 10
7.775921137
 20
32.2089715536
 11
59.775921137
 21
32.2089715536
  0
LINE
  5
233
100
AcDbEntity
  8
0
100
AcDbLine
 62
7
  6
BYLAYER
 10
20.208037117
 20
57.0089715536
 11
20.208037117
 21
58.2089715536
  0
LINE
  5
234
100
AcDbEntity
  8
0
100
AcDbLine
 62
7
  6
BYLAYER
 10
20.475921137
 20
58.2089715536
 11
20.475921137
 21
56.7089715536
  0
LINE
  5
235
100
AcDbEntity
  8
0
100
AcDbLine
 62
7
  6
BYLAYER
 10
37.9963857895
 20
33.2089715536
 11
35.8573368499
 21
33.2089715536
  0
LINE
  5
236
100
AcDbEntity
  8
0
100
AcDbLine
 62
7
  6
BYLAYER
 10
31.694505424
 20
33.2089715536
 11
29.555482654
 21
33.2089715536
  0
LINE
  5
237
100
AcDbEntity
  8
0
100
AcDbLine
 62
7
  6
BYLAYER
 10
24.1226092055
 20
37.5806078736
 11
32.4292330684
 21
32.7847763503
  0
LINE
  5
238
100
AcDbEntity
  8
0
100
AcDbLine
 62
7
  6
BYLAYER
 10
22.775921137
 20
49.5048030769
 11
22.775921137
 21
39.9131400303
  0
LINE
  5
239
100
AcDbEntity
  8
0
100
AcDbLine
 62
7
  6
BYLAYER
 10
23.075921137
 20
56.7089715536
 11
23.075921137
 21
58.2089715536
  0
LINE
  5
23A
100
AcDbEntity
  8
0
100
AcDbLine
 62
7
  6
BYLAYER
 10
20.4450554321
 20
36.0339715536
 11
19.6656325687
 21
36.0339715536
  0
LINE
  5
23B
100
AcDbEntity
  8
0
100
AcDbLine
 62
7
  6
BYLAYER
 10
18.8862097053
 20
36.0339715536
 11
18.1067868419
 21
36.0339715536
  0
LINE
  5
23C
100
AcDbEntity
  8
0
100
AcDbLine
 62
7
  6
BYLAYER
 10
18.366594463
 20
36.1839715536
 11
18.9728122457
 21
36.1839715536
  0
LINE
  5
23D
100
AcDbEntity
  8
0
100
AcDbLine
 62
7
  6
BYLAYER
 10
19.5790300283
 20
36.1839715536
 11
20.1852478109
 21
36.1839715536
  0
LINE
  5
23E
100
AcDbEntity
  8
0
100
AcDbLine
 62
7
  6
BYLAYER
 10
24.775921137
 20
59.7089715536
 11
24.6753091739
 21
60.8589715536
  0
LINE
  5
23F
100
AcDbEntity
  8
0
100
AcDbLine
 62
7
  6
BYLAYER
 10
19.275921137
 20
38.0589715536
 11
18.8862097053
 21
37.3839715536
  0
LINE
  5
240
100
AcDbEntity
  8
0
100
AcDbLine
 62
7
  6
BYLAYER
 10
18.4964982736
 20
36.7089715536
 11
18.1067868419
 21
36.0339715536
  0
LINE
  5
241
100
AcDbEntity
  8
0
100
AcDbLine
 62
7
  6
BYLAYER
 10
18.366594463
 20
36.1839715536
 11
18.6697033543
 21
36.7089715536
  0
LINE
  5
242
100
AcDbEntity
  8
0
100
AcDbLine
 62
7
  6
BYLAYER
 10
18.9728122457
 20
37.2339715536
 11
19.275921137
 21
37.7589715536
  0
LINE
  5
243
100
AcDbEntity
  8
0
100
AcDbLine
 62
7
  6
BYLAYER
 10
32.4292330684
 20
56.6331667569
 11
24.1226092055
 21
51.8373352336
  0
LINE
  5
244
100
AcDbEntity
  8
0
100
AcDbLine
 62
7
  6
BYLAYER
 10
20.1852478109
 20
37.2339715536
 11
19.5790300283
 21
37.2339715536
  0
LINE
  5
245
100
AcDbEntity
  8
0
100
AcDbLine
 62
7
  6
BYLAYER
 10
18.9728122457
 20
37.2339715536
 11
18.366594463
 21
37.2339715536
  0
LINE
  5
246
100
AcDbEntity
  8
0
100
AcDbLine
 62
7
  6
BYLAYER
 10
18.1067868419
 20
37.3839715536
 11
18.8862097053
 21
37.3839715536
  0
LINE
  5
247
100
AcDbEntity
  8
0
100
AcDbLine
 62
7
  6
BYLAYER
 10
19.6656325687
 20
37.3839715536
 11
20.4450554321
 21
37.3839715536
  0
LINE
  5
248
100
AcDbEntity
  8
0
100
AcDbLine
 62
7
  6
BYLAYER
 10
32.0099962116
 20
38.1813887738
 11
35.5418460623
 21
38.1813887738
  0
LINE
  5
249
100
AcDbEntity
  8
0
100
AcDbLine
 62
7
  6
BYLAYER
 10
20.1852478109
 20
37.2339715536
 11
19.8821389196
 21
36.7089715536
  0
LINE
  5
24A
100
AcDbEntity
  8
0
100
AcDbLine
 62
7
  6
BYLAYER
 10
19.5790300283
 20
36.1839715536
 11
19.275921137
 21
35.6589715536
  0
LINE
  5
24B
100
AcDbEntity
  8
0
100
AcDbLine
 62
7
  6
BYLAYER
 10
19.275921137
 20
35.3589715536
 11
19.6656325687
 21
36.0339715536
  0
LINE
  5
24C
100
AcDbEntity
  8
0
100
AcDbLine
 62
7
  6
BYLAYER
 10
20.0553440004
 20
36.7089715536
 11
20.4450554321
 21
37.3839715536
  0
LINE
  5
24D
100
AcDbEntity
  8
0
100
AcDbLine
 62
7
  6
BYLAYER
 10
33.1808467804
 20
40.2089715536
 11
34.3709954936
 21
40.2089715536
  0
LINE
  5
24E
100
AcDbEntity
  8
0
100
AcDbLine
 62
7
  6
BYLAYER
 10
29.275921137
 20
31.7089715536
 11
29.275921137
 21
32.2089715536
  0
LINE
  5
24F
100
AcDbEntity
  8
0
100
AcDbLine
 62
7
  6
BYLAYER
 10
34.3712205986
 20
40.2089715536
 11
35.5418460623
 21
38.1813887738
  0
LINE
  5
250
100
AcDbEntity
  8
0
100
AcDbLine
 62
7
  6
BYLAYER
 10
32.0099962116
 20
38.1813887738
 11
32.0086236446
 21
38.0066317136
  0
LINE
  5
251
100
AcDbEntity
  8
0
100
AcDbLine
 62
7
  6
BYLAYER
 10
35.5418460623
 20
38.1813887738
 11
35.5432193869
 21
38.0065352487
  0
LINE
  5
252
100
AcDbEntity
  8
0
100
AcDbLine
 62
7
  6
BYLAYER
 10
33.1806216754
 20
40.2089715536
 11
32.0099962116
 21
38.1813887738
  0
LINE
  5
253
100
AcDbEntity
  8
0
100
AcDbLine
 62
7
  6
BYLAYER
 10
38.275921137
 20
32.2089715536
 11
38.275921137
 21
31.7089715536
  0
LINE
  5
254
100
AcDbEntity
  8
0
100
AcDbLine
 62
7
  6
BYLAYER
 10
42.8765331
 20
60.8589715536
 11
42.775921137
 21
59.7089715536
  0
LINE
  5
255
100
AcDbEntity
  8
0
100
AcDbLine
 62
7
  6
BYLAYER
 10
28.3849744307
 20
55.7089715536
 11
30.8284800202
 21
55.7089715536
  0
LINE
  5
256
100
AcDbEntity
  8
0
100
AcDbLine
 62
7
  6
BYLAYER
 10
36.7233622537
 20
55.7089715536
 11
39.1668748315
 21
55.7089715536
  0
LINE
  5
257
100
AcDbEntity
  8
0
100
AcDbLine
 62
7
  6
BYLAYER
 10
7.775921137
 20
56.7089715536
 11
59.775921137
 21
56.7089715536
  0
LINE
  5
258
100
AcDbEntity
  8
0
100
AcDbLine
 62
7
  6
BYLAYER
 10
43.4292330684
 20
51.8373352336
 11
35.1226092055
 21
56.6331667569
  0
LINE
  5
259
100
AcDbEntity
  8
0
100
AcDbLine
 62
7
  6
BYLAYER
 10
44.475921137
 20
58.2089715536
 11
44.475921137
 21
56.7089715536
  0
LINE
  5
25A
100
AcDbEntity
  8
0
100
AcDbLine
 62
7
  6
BYLAYER
 10
44.775921137
 20
39.9131400303
 11
44.775921137
 21
49.5048030769
  0
LINE
  5
25B
100
AcDbEntity
  8
0
100
AcDbLine
 62
7
  6
BYLAYER
 10
44.475921137
 20
57.0089715536
 11
23.075921137
 21
57.0089715536
  0
LINE
  5
25C
100
AcDbEntity
  8
0
100
AcDbLine
 62
7
  6
BYLAYER
 10
8.575921137
 20
57.0089715536
 11
20.475921137
 21
57.0089715536
  0
LINE
  5
25D
100
AcDbEntity
  8
0
100
AcDbLine
 62
7
  6
BYLAYER
 10
47.075921137
 20
57.0089715536
 11
58.975921137
 21
57.0089715536
  0
LINE
  5
25E
100
AcDbEntity
  8
0
100
AcDbLine
 62
7
  6
BYLAYER
 10
59.775921137
 20
58.2089715536
 11
7.775921137
 21
58.2089715536
  0
LINE
  5
25F
100
AcDbEntity
  8
0
100
AcDbLine
 62
7
  6
BYLAYER
 10
47.075921137
 20
56.7089715536
 11
47.075921137
 21
58.2089715536
  0
LINE
  5
260
100
AcDbEntity
  8
0
100
AcDbLine
 62
7
  6
BYLAYER
 10
47.343805157
 20
58.2089715536
 11
47.343805157
 21
57.0089715536
  0
LINE
  5
261
100
AcDbEntity
  8
0
100
AcDbLine
 62
7
  6
BYLAYER
 10
35.1226092055
 20
32.7847763503
 11
43.4292330684
 21
37.5806078736
  0
LINE
  5
262
100
AcDbEntity
  8
0
100
AcDbLine
 62
7
  6
BYLAYER
 10
7.775921137
 20
59.7089715536
 11
59.775921137
 21
59.7089715536
  0
LINE
  5
263
100
AcDbEntity
  8
0
100
AcDbLine
 62
7
  6
BYLAYER
 10
16.525921137
 20
60.0089715536
 11
18.802167736
 21
60.0089715536
  0
LINE
  5
264
100
AcDbEntity
  8
0
100
AcDbLine
 62
7
  6
BYLAYER
 10
24.7496745379
 20
60.0089715536
 11
42.802167736
 21
60.0089715536
  0
LINE
  5
265
100
AcDbEntity
  8
0
100
AcDbLine
 62
7
  6
BYLAYER
 10
48.7496745379
 20
60.0089715536
 11
51.025921137
 21
60.0089715536
  0
LINE
  5
266
100
AcDbEntity
  8
0
100
AcDbLine
 62
7
  6
BYLAYER
 10
24.7379852746
 20
60.1425804443
 11
42.8138569993
 21
60.1425804443
  0
LINE
  5
267
100
AcDbEntity
  8
0
100
AcDbLine
 62
7
  6
BYLAYER
 10
8.8765331
 20
60.8589715536
 11
8.8993339559
 21
60.8589715536
  0
LINE
  5
268
100
AcDbEntity
  8
0
100
AcDbLine
 62
7
  6
BYLAYER
 10
14.652508318
 20
60.8589715536
 11
14.6753091739
 21
60.8589715536
  0
LINE
  5
269
100
AcDbEntity
  8
0
100
AcDbLine
 62
7
  6
BYLAYER
 10
18.8765331
 20
60.8589715536
 11
18.8993339559
 21
60.8589715536
  0
LINE
  5
26A
100
AcDbEntity
  8
0
100
AcDbLine
 62
7
  6
BYLAYER
 10
24.652508318
 20
60.8589715536
 11
24.6753091739
 21
60.8589715536
  0
LINE
  5
26B
100
AcDbEntity
  8
0
100
AcDbLine
 62
7
  6
BYLAYER
 10
42.8765331
 20
60.8589715536
 11
42.8993339559
 21
60.8589715536
  0
LINE
  5
26C
100
AcDbEntity
  8
0
100
AcDbLine
 62
7
  6
BYLAYER
 10
48.652508318
 20
60.8589715536
 11
48.6753091739
 21
60.8589715536
  0
LINE
  5
26D
100
AcDbEntity
  8
0
100
AcDbLine
 62
7
  6
BYLAYER
 10
52.8765331
 20
60.8589715536
 11
52.8993339559
 21
60.8589715536
  0
LINE
  5
26E
100
AcDbEntity
  8
0
100
AcDbLine
 62
7
  6
BYLAYER
 10
58.652508318
 20
60.8589715536
 11
58.6753091739
 21
60.8589715536
  0
LINE
  5
26F
100
AcDbEntity
  8
0
100
AcDbLine
 62
7
  6
BYLAYER
 10
48.775921137
 20
59.7089715536
 11
48.6753091739
 21
60.8589715536
  0
LINE
  5
270
100
AcDbEntity
  8
0
100
AcDbLine
 62
7
  6
BYLAYER
 10
48.475921137
 20
57.0089715536
 11
48.475921137
 21
56.7089715536
  0
LINE
  5
271
100
AcDbEntity
  8
0
100
AcDbLine
 62
7
  6
BYLAYER
 10
49.275921137
 20
31.7089715536
 11
49.275921137
 21
32.2089715536
  0
LINE
  5
272
100
AcDbEntity
  8
0
100
AcDbLine
 62
7
  6
BYLAYER
 10
49.475921137
 20
56.7089715536
 11
49.475921137
 21
57.0089715536
  0
LINE
  5
273
100
AcDbEntity
  8
0
100
AcDbLine
 62
7
  6
BYLAYER
 10
8.9601351608
 20
61.4351182764
 11
14.5917071131
 21
61.4351182764
  0
LINE
  5
274
100
AcDbEntity
  8
0
100
AcDbLine
 62
7
  6
BYLAYER
 10
18.9601351608
 20
61.4351182764
 11
24.5917071131
 21
61.4351182764
  0
LINE
  5
275
100
AcDbEntity
  8
0
100
AcDbLine
 62
7
  6
BYLAYER
 10
42.9601351608
 20
61.4351182764
 11
48.5917071131
 21
61.4351182764
  0
LINE
  5
276
100
AcDbEntity
  8
0
100
AcDbLine
 62
7
  6
BYLAYER
 10
52.9601351608
 20
61.4351182764
 11
58.5917071131
 21
61.4351182764
  0
LINE
  5
277
100
AcDbEntity
  8
0
100
AcDbLine
 62
7
  6
BYLAYER
 10
9.2689728672
 20
61.7089715536
 11
14.2828694067
 21
61.7089715536
  0
LINE
  5
278
100
AcDbEntity
  8
0
100
AcDbLine
 62
7
  6
BYLAYER
 10
19.2689728672
 20
61.7089715536
 11
24.2828694067
 21
61.7089715536
  0
LINE
  5
279
100
AcDbEntity
  8
0
100
AcDbLine
 62
7
  6
BYLAYER
 10
43.2689728672
 20
61.7089715536
 11
48.2828694067
 21
61.7089715536
  0
LINE
  5
27A
100
AcDbEntity
  8
0
100
AcDbLine
 62
7
  6
BYLAYER
 10
53.2689728672
 20
61.7089715536
 11
58.2828694067
 21
61.7089715536
  0
LINE
  5
27B
100
AcDbEntity
  8
0
100
AcDbLine
 62
7
  6
BYLAYER
 10
51.025921137
 20
60.0089715536
 11
51.025921137
 21
59.7089715536
  0
LINE
  5
27C
100
AcDbEntity
  8
0
100
AcDbLine
 62
7
  6
BYLAYER
 10
52.8765331
 20
60.8589715536
 11
52.775921137
 21
59.7089715536
  0
LINE
  5
27D
100
AcDbEntity
  8
0
100
AcDbLine
 62
7
  6
BYLAYER
 10
54.475921137
 20
58.2089715536
 11
54.475921137
 21
57.0089715536
  0
LINE
  5
27E
100
AcDbEntity
  8
0
100
AcDbLine
 62
7
  6
BYLAYER
 10
55.675921137
 20
57.0089715536
 11
55.675921137
 21
56.7089715536
  0
LINE
  5
27F
100
AcDbEntity
  8
0
100
AcDbLine
 62
7
  6
BYLAYER
 10
55.775921137
 20
59.7089715536
 11
55.775921137
 21
58.2089715536
  0
LINE
  5
280
100
AcDbEntity
  8
0
100
AcDbLine
 62
7
  6
BYLAYER
 10
55.775921137
 20
56.7089715536
 11
55.775921137
 21
32.2089715536
  0
LINE
  5
281
100
AcDbEntity
  8
0
100
AcDbLine
 62
7
  6
BYLAYER
 10
57.075921137
 20
57.0089715536
 11
57.075921137
 21
58.2089715536
  0
LINE
  5
282
100
AcDbEntity
  8
0
100
AcDbLine
 62
7
  6
BYLAYER
 10
58.775921137
 20
59.7089715536
 11
58.6753091739
 21
60.8589715536
  0
LINE
  5
283
100
AcDbEntity
  8
0
100
AcDbLine
 62
7
  6
BYLAYER
 10
58.975921137
 20
56.7089715536
 11
58.975921137
 21
57.0089715536
  0
LINE
  5
284
100
AcDbEntity
  8
0
100
AcDbLine
 62
7
  6
BYLAYER
 10
59.275921137
 20
32.2089715536
 11
59.275921137
 21
31.7089715536
  0
LINE
  5
285
100
AcDbEntity
  8
0
100
AcDbLine
 62
7
  6
BYLAYER
 10
59.775921137
 20
32.2089715536
 11
59.775921137
 21
56.7089715536
  0
LINE
  5
286
100
AcDbEntity
  8
0
100
AcDbLine
 62
7
  6
BYLAYER
 10
59.775921137
 20
58.2089715536
 11
59.775921137
 21
59.7089715536
  0
ARC
  5
287
100
AcDbEntity
  8
0
100
AcDbCircle
 62
7
  6
BYLAYER
 10
-107.8664718862
 20
7.2916595773
 40
148.1474787601
100
AcDbArc
 50
9.682750518
 51
10.075320495
  0
CIRCLE
  5
288
100
AcDbEntity
  8
0
100
AcDbCircle
 62
7
  6
BYLAYER
 10
19.275921137
 20
36.7089715536
 40
1.75
  0
ARC
  5
289
100
AcDbEntity
  8
0
100
AcDbCircle
 62
7
  6
BYLAYER
 10
-73.1297449308
 20
81.7442829808
 40
115.2751221223
100
AcDbArc
 50
346.9469168641
 51
347.4566164652
  0
ARC
  5
28A
100
AcDbEntity
  8
0
100
AcDbCircle
 62
7
  6
BYLAYER
 10
174.6473936044
 20
7.4191117961
 40
147.366104156
100
AcDbArc
 50
169.9210293226
 51
170.3156839477
  0
ARC
  5
28B
100
AcDbEntity
  8
0
100
AcDbCircle
 62
7
  6
BYLAYER
 10
33.775921137
 20
44.7089715536
 40
14.25
100
AcDbArc
 50
122.637454247
 51
241.3061601629
  0
ARC
  5
28C
100
AcDbEntity
  8
0
100
AcDbCircle
 62
7
  6
BYLAYER
 10
33.775921137
 20
44.7089715536
 40
14.25
100
AcDbArc
 50
298.6945412013
 51
57.3626002133
  0
ARC
  5
28D
100
AcDbEntity
  8
0
100
AcDbCircle
 62
7
  6
BYLAYER
 10
33.775921137
 20
44.7089715536
 40
13.25
100
AcDbArc
 50
115.0876278415
 51
250.6299617545
  0
ARC
  5
28E
100
AcDbEntity
  8
0
100
AcDbCircle
 62
7
  6
BYLAYER
 10
33.775921137
 20
44.7089715536
 40
13.25
100
AcDbArc
 50
289.3700382455
 51
64.9123721585
  0
ARC
  5
28F
100
AcDbEntity
  8
0
100
AcDbCircle
 62
7
  6
BYLAYER
 10
33.775921137
 20
44.7089715536
 40
12.25
100
AcDbArc
 50
290.1529816034
 51
63.8911403901
  0
ARC
  5
290
100
AcDbEntity
  8
0
100
AcDbCircle
 62
7
  6
BYLAYER
 10
33.775921137
 20
44.7089715536
 40
12.25
100
AcDbArc
 50
116.1088302593
 51
249.847133303
  0
ARC
  5
291
100
AcDbEntity
  8
0
100
AcDbCircle
 62
7
  6
BYLAYER
 10
33.775921137
 20
44.7089715536
 40
12.0
100
AcDbArc
 50
263.5564643091
 51
276.4435356909
  0
ARC
  5
292
100
AcDbEntity
  8
0
100
AcDbCircle
 62
7
  6
BYLAYER
 10
33.775921137
 20
44.7089715536
 40
12.0
100
AcDbArc
 50
203.5564643091
 51
216.4435356909
  0
ARC
  5
293
100
AcDbEntity
  8
0
100
AcDbCircle
 62
7
  6
BYLAYER
 10
33.775921137
 20
44.7089715536
 40
12.0
100
AcDbArc
 50
323.5564643091
 51
336.4435356909
  0
ARC
  5
294
100
AcDbEntity
  8
0
100
AcDbCircle
 62
7
  6
BYLAYER
 10
33.775921137
 20
44.7089715536
 40
12.0
100
AcDbArc
 50
23.5564643091
 51
36.4435356909
  0
ARC
  5
295
100
AcDbEntity
  8
0
100
AcDbCircle
 62
7
  6
BYLAYER
 10
33.775921137
 20
44.7089715536
 40
12.0
100
AcDbArc
 50
83.5564643091
 51
96.4435356909
  0
ARC
  5
296
100
AcDbEntity
  8
0
100
AcDbCircle
 62
7
  6
BYLAYER
 10
33.775921137
 20
44.7089715536
 40
12.0
100
AcDbArc
 50
143.5564643091
 51
156.4435356909
  0
ARC
  5
297
100
AcDbEntity
  8
0
100
AcDbCircle
 62
7
  6
BYLAYER
 10
33.775921137
 20
44.7089715536
 40
11.1339745962
100
AcDbArc
 50
248.8973401996
 51
291.1026598003
  0
ARC
  5
298
100
AcDbEntity
  8
0
100
AcDbCircle
 62
7
  6
BYLAYER
 10
33.775921137
 20
44.7089715536
 40
11.1339745962
100
AcDbArc
 50
188.8973401997
 51
231.1026598004
  0
ARC
  5
299
100
AcDbEntity
  8
0
100
AcDbCircle
 62
7
  6
BYLAYER
 10
33.775921137
 20
44.7089715536
 40
11.1339745962
100
AcDbArc
 50
128.8973401997
 51
171.1026598003
  0
ARC
  5
29A
100
AcDbEntity
  8
0
100
AcDbCircle
 62
7
  6
BYLAYER
 10
33.775921137
 20
44.7089715536
 40
11.1339745962
100
AcDbArc
 50
68.8973401996
 51
111.1026598003
  0
ARC
  5
29B
100
AcDbEntity
  8
0
100
AcDbCircle
 62
7
  6
BYLAYER
 10
33.775921137
 20
44.7089715536
 40
11.1339745962
100
AcDbArc
 50
8.8973401997
 51
51.1026598004
  0
ARC
  5
29C
100
AcDbEntity
  8
0
100
AcDbCircle
 62
7
  6
BYLAYER
 10
33.775921137
 20
44.7089715536
 40
11.1339745962
100
AcDbArc
 50
308.8973401997
 51
351.1026598003
  0
CIRCLE
  5
29D
100
AcDbEntity
  8
0
100
AcDbCircle
 62
7
  6
BYLAYER
 10
33.775921137
 20
44.7089715536
 40
9.9999999283
  0
CIRCLE
  5
29E
100
AcDbEntity
  8
0
100
AcDbCircle
 62
7
  6
BYLAYER
 10
33.775921137
 20
44.7089715536
 40
8.0
  0
CIRCLE
  5
29F
100
AcDbEntity
  8
0
100
AcDbCircle
 62
7
  6
BYLAYER
 10
33.775921137
 20
44.7089715536
 40
7.0
  0
CIRCLE
  5
2A0
100
AcDbEntity
  8
0
100
AcDbCircle
 62
7
  6
BYLAYER
 10
33.775921137
 20
45.7089715536
 40
3.5
  0
ARC
  5
2A1
100
AcDbEntity
  8
0
100
AcDbCircle
 62
7
  6
BYLAYER
 10
140.281629278
 20
81.6495758498
 40
114.8641422101
100
AcDbArc
 50
192.5405980268
 51
193.0521175241
  0
SPLINE
  5
2A2
100
AcDbEntity
  8
0
100
AcDbSpline
 62
7
  6
BYLAYER
 70
0
 71
3
 72
15
 73
11
 74
0
 42
0.0000001
 43
0.0000001
 44
0.0000000001
 40
0.0
 40
0.0
 40
0.0
 40
0.0
 40
0.1253853667
 40
0.2508027547
 40
0.3760376287
 40
0.501137886
 40
0.6260696612
 40
0.7508236457
 40
0.8755055638
 40
1.0
 40
1.0
 40
1.0
 40
1.0
 10
53.2689728672
 20
61.7089715536
 30
0.0
 10
53.2501169359
 20
61.7089715536
 30
0.0
 10
53.2123129921
 20
61.7055099289
 30
0.0
 10
53.1575607464
 20
61.6902337256
 30
0.0
 10
53.1064647695
 20
61.6653848391
 30
0.0
 10
53.0607147335
 20
61.6318204748
 30
0.0
 10
53.0218259928
 20
61.5905950832
 30
0.0
 10
52.9911061139
 20
61.5430324106
 30
0.0
 10
52.9696915675
 20
61.4907021309
 30
0.0
 10
52.9621349424
 20
61.4537331167
 30
0.0
 10
52.9601351608
 20
61.4351182764
 30
0.0
  0
SPLINE
  5
2A3
100
AcDbEntity
  8
0
100
AcDbSpline
 62
7
  6
BYLAYER
 70
0
 71
3
 72
15
 73
11
 74
0
 42
0.0000001
 43
0.0000001
 44
0.0000000001
 40
0.0
 40
0.0
 40
0.0
 40
0.0
 40
0.1244940678
 40
0.2491744821
 40
0.3739269269
 40
0.4988574271
 40
0.6239568399
 40
0.7491917488
 40
0.8746123736
 40
1.0
 40
1.0
 40
1.0
 40
1.0
 10
58.5917071131
 20
61.4351182764
 30
0.0
 10
58.5897073375
 20
61.4537330613
 30
0.0
 10
58.582150815
 20
61.4907018042
 30
0.0
 10
58.5607365484
 20
61.5430316375
 30
0.0
 10
58.5300171681
 20
61.5905938421
 30
0.0
 10
58.491129071
 20
61.6318190666
 30
0.0
 10
58.4453795897
 20
61.6653836279
 30
0.0
 10
58.3942834949
 20
61.6902331802
 30
0.0
 10
58.3395304067
 20
61.7055094572
 30
0.0
 10
58.3017256775
 20
61.7089715536
 30
0.0
 10
58.2828694067
 20
61.7089715536
 30
0.0
  0
SPLINE
  5
2A4
100
AcDbEntity
  8
0
100
AcDbSpline
 62
7
  6
BYLAYER
 70
0
 71
3
 72
15
 73
11
 74
0
 42
0.0000001
 43
0.0000001
 44
0.0000000001
 40
0.0
 40
0.0
 40
0.0
 40
0.0
 40
0.1253853667
 40
0.2508027547
 40
0.3760376287
 40
0.501137886
 40
0.6260696612
 40
0.7508236457
 40
0.8755055638
 40
1.0
 40
1.0
 40
1.0
 40
1.0
 10
9.2689728672
 20
61.7089715536
 30
0.0
 10
9.2501169359
 20
61.7089715536
 30
0.0
 10
9.2123129921
 20
61.7055099289
 30
0.0
 10
9.1575607464
 20
61.6902337256
 30
0.0
 10
9.1064647695
 20
61.6653848391
 30
0.0
 10
9.0607147335
 20
61.6318204748
 30
0.0
 10
9.0218259928
 20
61.5905950832
 30
0.0
 10
8.9911061139
 20
61.5430324106
 30
0.0
 10
8.9696915675
 20
61.4907021309
 30
0.0
 10
8.9621349424
 20
61.4537331167
 30
0.0
 10
8.9601351608
 20
61.4351182764
 30
0.0
  0
SPLINE
  5
2A5
100
AcDbEntity
  8
0
100
AcDbSpline
 62
7
  6
BYLAYER
 70
0
 71
3
 72
15
 73
11
 74
0
 42
0.0000001
 43
0.0000001
 44
0.0000000001
 40
0.0
 40
0.0
 40
0.0
 40
0.0
 40
0.1244940678
 40
0.2491744821
 40
0.3739269269
 40
0.4988574271
 40
0.6239568399
 40
0.7491917488
 40
0.8746123736
 40
1.0
 40
1.0
 40
1.0
 40
1.0
 10
14.5917071131
 20
61.4351182764
 30
0.0
 10
14.5897073375
 20
61.4537330613
 30
0.0
 10
14.582150815
 20
61.4907018042
 30
0.0
 10
14.5607365484
 20
61.5430316375
 30
0.0
 10
14.5300171681
 20
61.5905938421
 30
0.0
 10
14.491129071
 20
61.6318190666
 30
0.0
 10
14.4453795897
 20
61.6653836279
 30
0.0
 10
14.3942834949
 20
61.6902331802
 30
0.0
 10
14.3395304067
 20
61.7055094572
 30
0.0
 10
14.3017256775
 20
61.7089715536
 30
0.0
 10
14.2828694067
 20
61.7089715536
 30
0.0
  0
SPLINE
  5
2A6
100
AcDbEntity
  8
0
100
AcDbSpline
 62
7
  6
BYLAYER
 70
0
 71
3
 72
15
 73
11
 74
0
 42
0.0000001
 43
0.0000001
 44
0.0000000001
 40
0.0
 40
0.0
 40
0.0
 40
0.0
 40
0.1253853667
 40
0.2508027547
 40
0.3760376287
 40
0.501137886
 40
0.6260696612
 40
0.7508236457
 40
0.8755055638
 40
1.0
 40
1.0
 40
1.0
 40
1.0
 10
19.2689728672
 20
61.7089715536
 30
0.0
 10
19.2501169359
 20
61.7089715536
 30
0.0
 10
19.2123129921
 20
61.7055099289
 30
0.0
 10
19.1575607464
 20
61.6902337256
 30
0.0
 10
19.1064647695
 20
61.6653848391
 30
0.0
 10
19.0607147335
 20
61.6318204748
 30
0.0
 10
19.0218259928
 20
61.5905950832
 30
0.0
 10
18.9911061139
 20
61.5430324106
 30
0.0
 10
18.9696915675
 20
61.4907021309
 30
0.0
 10
18.9621349424
 20
61.4537331167
 30
0.0
 10
18.9601351608
 20
61.4351182764
 30
0.0
  0
SPLINE
  5
2A7
100
AcDbEntity
  8
0
100
AcDbSpline
 62
7
  6
BYLAYER
 70
0
 71
3
 72
15
 73
11
 74
0
 42
0.0000001
 43
0.0000001
 44
0.0000000001
 40
0.0
 40
0.0
 40
0.0
 40
0.0
 40
0.1244940678
 40
0.2491744821
 40
0.3739269269
 40
0.4988574271
 40
0.6239568399
 40
0.7491917488
 40
0.8746123736
 40
1.0
 40
1.0
 40
1.0
 40
1.0
 10
24.5917071131
 20
61.4351182764
 30
0.0
 10
24.5897073375
 20
61.4537330613
 30
0.0
 10
24.582150815
 20
61.4907018042
 30
0.0
 10
24.5607365484
 20
61.5430316375
 30
0.0
 10
24.5300171681
 20
61.5905938421
 30
0.0
 10
24.491129071
 20
61.6318190666
 30
0.0
 10
24.4453795897
 20
61.6653836279
 30
0.0
 10
24.3942834949
 20
61.6902331802
 30
0.0
 10
24.3395304067
 20
61.7055094572
 30
0.0
 10
24.3017256775
 20
61.7089715536
 30
0.0
 10
24.2828694067
 20
61.7089715536
 30
0.0
  0
SPLINE
  5
2A8
100
AcDbEntity
  8
0
100
AcDbSpline
 62
7
  6
BYLAYER
 70
0
 71
3
 72
15
 73
11
 74
0
 42
0.0000001
 43
0.0000001
 44
0.0000000001
 40
0.0
 40
0.0
 40
0.0
 40
0.0
 40
0.1253853667
 40
0.2508027547
 40
0.3760376287
 40
0.501137886
 40
0.6260696612
 40
0.7508236457
 40
0.8755055638
 40
1.0
 40
1.0
 40
1.0
 40
1.0
 10
43.2689728672
 20
61.7089715536
 30
0.0
 10
43.2501169359
 20
61.7089715536
 30
0.0
 10
43.2123129921
 20
61.7055099289
 30
0.0
 10
43.1575607464
 20
61.6902337256
 30
0.0
 10
43.1064647695
 20
61.6653848391
 30
0.0
 10
43.0607147335
 20
61.6318204748
 30
0.0
 10
43.0218259928
 20
61.5905950832
 30
0.0
 10
42.9911061139
 20
61.5430324106
 30
0.0
 10
42.9696915675
 20
61.4907021309
 30
0.0
 10
42.9621349424
 20
61.4537331167
 30
0.0
 10
42.9601351608
 20
61.4351182764
 30
0.0
  0
SPLINE
  5
2A9
100
AcDbEntity
  8
0
100
AcDbSpline
 62
7
  6
BYLAYER
 70
0
 71
3
 72
15
 73
11
 74
0
 42
0.0000001
 43
0.0000001
 44
0.0000000001
 40
0.0
 40
0.0
 40
0.0
 40
0.0
 40
0.1244940678
 40
0.2491744821
 40
0.3739269269
 40
0.4988574271
 40
0.6239568399
 40
0.7491917488
 40
0.8746123736
 40
1.0
 40
1.0
 40
1.0
 40
1.0
 10
48.5917071131
 20
61.4351182764
 30
0.0
 10
48.5897073375
 20
61.4537330613
 30
0.0
 10
48.582150815
 20
61.4907018042
 30
0.0
 10
48.5607365484
 20
61.5430316375
 30
0.0
 10
48.5300171681
 20
61.5905938421
 30
0.0
 10
48.491129071
 20
61.6318190666
 30
0.0
 10
48.4453795897
 20
61.6653836279
 30
0.0
 10
48.3942834949
 20
61.6902331802
 30
0.0
 10
48.3395304067
 20
61.7055094572
 30
0.0
 10
48.3017256775
 20
61.7089715536
 30
0.0
 10
48.2828694067
 20
61.7089715536
 30
0.0
  0
ELLIPSE
  5
2AA
100
AcDbEntity
  8
0
100
AcDbEllipse
 62
7
  6
BYLAYER
 10
55.775921137
 20
20.6769471381
 30
0.0
 11
0.0
 21
52.2448392831
 31
0.0
 40
0.0861497658
 41
0.6759103609
 42
0.6933490094
  0
ELLIPSE
  5
2AB
100
AcDbEntity
  8
0
100
AcDbEllipse
 62
7
  6
BYLAYER
 10
55.775921137
 20
20.6769471381
 30
0.0
 11
0.0
 21
52.2448392831
 31
0.0
 40
0.0861497658
 41
-0.6933490094
 42
-0.6759103609
  0
ELLIPSE
  5
2AC
100
AcDbEntity
  8
0
100
AcDbEllipse
 62
7
  6
BYLAYER
 10
11.775921137
 20
20.6769471381
 30
0.0
 11
0.0
 21
52.2448392831
 31
0.0
 40
0.0861497658
 41
0.6759103609
 42
0.6933490094
  0
ELLIPSE
  5
2AD
100
AcDbEntity
  8
0
100
AcDbEllipse
 62
7
  6
BYLAYER
 10
11.775921137
 20
20.6769471381
 30
0.0
 11
-0.0
 21
52.2448392831
 31
0.0
 40
0.0861497658
 41
-0.6933490094
 42
-0.6759103609
  0
ELLIPSE
  5
2AE
100
AcDbEntity
  8
0
100
AcDbEllipse
 62
7
  6
BYLAYER
 10
21.775921137
 20
20.6769471381
 30
0.0
 11
0.0
 21
52.2448392831
 31
0.0
 40
0.0861497658
 41
0.6759103609
 42
0.6933490094
  0
ELLIPSE
  5
2AF
100
AcDbEntity
  8
0
100
AcDbEllipse
 62
7
  6
BYLAYER
 10
21.775921137
 20
20.6769471381
 30
0.0
 11
0.0
 21
52.2448392831
 31
0.0
 40
0.0861497658
 41
-0.6933490094
 42
-0.6759103609
  0
ELLIPSE
  5
2B0
100
AcDbEntity
  8
0
100
AcDbEllipse
 62
7
  6
BYLAYER
 10
45.775921137
 20
20.6769471381
 30
0.0
 11
0.0
 21
52.2448392831
 31
0.0
 40
0.0861497658
 41
0.6759103609
 42
0.6933490094
  0
ELLIPSE
  5
2B1
100
AcDbEntity
  8
0
100
AcDbEllipse
 62
7
  6
BYLAYER
 10
45.775921137
 20
20.6769471381
 30
0.0
 11
0.0
 21
52.2448392831
 31
0.0
 40
0.0861497658
 41
-0.6933490094
 42
-0.6759103609
  0
ENDSEC
  0
SECTION
  2
OBJECTS
  0
DICTIONARY
  5
C
100
AcDbDictionary
280
0
281
1
  3
ACAD_GROUP
350
D
  3
ACAD_MLINESTYLE
350
17
  3
ACAD_LAYOUT
350
1A
  3
ACAD_PLOTSETTINGS
350
19
  3
ACAD_PLOTSTYLENAME
350
E
  0
DICTIONARY
  5
D
102
{ACAD_REACTORS
330
C
102
}
100
AcDbDictionary
280
0
281
1
  0
ACDBDICTIONARYWDFLT
  5
E
102
{ACAD_REACTORS
330
C
102
}
100
AcDbDictionary
281
1
  3
Normal
350
F
100
AcDbDictionaryWithDefault
340
F
  0
DICTIONARY
  5
17
102
{ACAD_REACTORS
330
C
102
}
100
AcDbDictionary
280
0
281
1
  3
Standard
350
18
  0
DICTIONARY
  5
19
102
{ACAD_REACTORS
330
C
102
}
100
AcDbDictionary
281
1
  0
DICTIONARY
  5
1A
102
{ACAD_REACTORS
330
C
102
}
100
AcDbDictionary
281
1
  3
Model
350
2B2
  3
Layout1
350
2B3
  0
ACDBPLACEHOLDER
  5
F
102
{ACAD_REACTORS
330
E
102
}
  0
MLINESTYLE
  5
18
102
{ACAD_REACTORS
330
17
102
}
100
AcDbMlineStyle
  2
STANDARD
 70
0
  3

 62
256
 51
90.0
 52
90.0
 71
2
 49
0.5
 62
256
  6
BYLAYER
 49
-0.5
 62
256
  6
BYLAYER
  0
LAYOUT
  5
2B2
102
{ACAD_REACTORS
330
1A
102
}
100
AcDbPlotSettings
  1

  2
none_device
  4

  6

 40
0.0
 41
0.0
 42
0.0
 43
0.0
 44
210.0
 45
297.0
 46
0.0
 47
0.0
 48
0.0
 49
0.0
140
0.0
141
0.0
142
1.0
143
1.0
 70
1024
 72
1
 73
0
 74
0
  7

 75
0
147
1.0
148
0.0
149
0.0
100
AcDbLayout
  1
Model
 70
0
 71
0
 10
0.0
 20
0.0
 11
210.0
 21
297.0
 12
0.0
 22
0.0
 32
0.0
 14
0.0
 24
0.0
 34
0.0
 15
0.0
 25
0.0
 35
0.0
146
0.0
 13
0.0
 23
0.0
 33
0.0
 16
1.0
 26
0.0
 36
0.0
 17
0.0
 27
1.0
 37
0.0
 76
0
330
210
345
0
346
0
  0
LAYOUT
  5
2B3
102
{ACAD_REACTORS
330
1A
102
}
100
AcDbPlotSettings
  1

  2
none_device
  4

  6

 40
0.0
 41
0.0
 42
0.0
 43
0.0
 44
210.0
 45
297.0
 46
0.0
 47
0.0
 48
0.0
 49
0.0
140
0.0
141
0.0
142
1.0
143
1.0
 70
0
 72
1
 73
0
 74
0
  7

 75
0
147
1.0
148
0.0
149
0.0
100
AcDbLayout
  1
Layout1
 70
0
 71
1
 10
0.0
 20
0.0
 11
210.0
 21
297.0
 12
0.0
 22
0.0
 32
0.0
 14
0.0
 24
0.0
 34
0.0
 15
0.0
 25
0.0
 35
0.0
146
0.0
 13
0.0
 23
0.0
 33
0.0
 16
1.0
 26
0.0
 36
0.0
 17
0.0
 27
1.0
 37
0.0
 76
0
330
211
345
0
346
0
  0
ENDSEC
  0
EOF
