999
DXF file: C:\Users\sesa63760\Dev\_Creo\CAD\MCADID0003681_3D-CAD\drw0001_5.dxf
999
Pro/ENGINEER 2019471 by Parametric Technology Corporation
  0
SECTION
  2
HEADER
  9
$ACADVER
  1
AC1024
  9
$DWGCODEPAGE
  3
ANSI_1252
  9
$EXTMAX
 10
143.852842147
 20
203.4490196078
 30
0.0
  9
$EXTMIN
 10
0.0
 20
0.0
 30
0.0
  9
$LIMMIN
 10
0.0
 20
0.0
  9
$LIMMAX
 10
143.852842147
 20
203.4490196078
  9
$VIEWCTR
 10
71.9264210735
 20
101.7245098039
  9
$VIEWSIZE
 40
203.4490196078
  9
$CLAYER
  8
0
  9
$LTSCALE
 40
13.2618620189
  9
$CELTYPE
  6
BYLAYER
  9
$DIMSCALE
 40
1.0
  9
$DIMASZ
 40
1.7125338351
  9
$DIMEXO
 40
1.0
  9
$DIMDLI
 40
9.1627410312
  9
$DIMEXE
 40
1.0
  9
$DIMCEN
 40
2.1701228758
  9
$DIMLFAC
 40
1.0
  9
$DIMBLK
  1
_FILLED
  9
$DIMALT
 70
0
  9
$DIMALTF
 40
0.0393700787
  9
$DIMTXT
 40
2.3975473691
  9
$DIMTOL
 70
1
  9
$DIMLIM
 70
0
  9
$DIMTFAC
 40
1.0
  9
$DIMTP
 40
0.01
  9
$DIMTM
 40
0.01
  9
$DIMGAP
 40
0.625
  9
$DIMDSEP
 70
46
  9
$AUNITS
 70
0
  9
$PDMODE
 70
3
  9
$PDSIZE
 40
0.3125
  9
$HANDSEED
  5
298
  9
$TILEMODE
 70
1
  9
$MEASUREMENT
 70
1
  9
$INSUNITS
 70
4
  0
ENDSEC
  0
SECTION
  2
CLASSES
  0
CLASS
  1
ACDBDICTIONARYWDFLT
  2
AcDbDictionaryWithDefault
  3
AutoCAD 2000
 90
0
 91
1
280
0
281
0
  0
CLASS
  1
ACDBPLACEHOLDER
  2
AcDbPlaceHolder
  3
AutoCAD 2000
 90
0
 91
1
280
0
281
0
  0
CLASS
  1
LAYOUT
  2
AcDbLayout
  3
AutoCAD 2000
 90
0
 91
0
280
0
281
0
  0
ENDSEC
  0
SECTION
  2
TABLES
  0
TABLE
  2
VPORT
  5
8
100
AcDbSymbolTable
 70
2
  0
VPORT
  5
1F4
100
AcDbSymbolTableRecord
100
AcDbViewportTableRecord
  2
*ACTIVE
 70
0
 10
0.0
 20
0.0
 11
1.0
 21
1.0
 12
71.9264210735
 22
101.7245098039
 13
0.0
 23
0.0
 14
1.0
 24
1.0
 15
0.0
 25
0.0
 16
0.0
 26
0.0
 36
1.0
 17
0.0
 27
0.0
 37
0.0
 40
203.4490196078
 41
0.7070707071
 42
50.0
 43
0.0
 44
0.0
 50
0.0
 51
0.0
 71
0
 72
100
 73
1
 74
1
 75
0
 76
0
 77
0
 78
0
  0
ENDTAB
  0
TABLE
  2
LTYPE
  5
5
100
AcDbSymbolTable
 70
6
  0
LTYPE
  5
14
100
AcDbSymbolTableRecord
100
AcDbLinetypeTableRecord
  2
BYBLOCK
 70
0
  3

 72
65
 73
0
 40
0.0
  0
LTYPE
  5
15
100
AcDbSymbolTableRecord
100
AcDbLinetypeTableRecord
  2
BYLAYER
 70
0
  3

 72
65
 73
0
 40
0.0
  0
LTYPE
  5
16
100
AcDbSymbolTableRecord
100
AcDbLinetypeTableRecord
  2
CONTINUOUS
 70
64
  3
Solid line
 72
65
 73
0
 40
0.0
  0
LTYPE
  5
1F5
100
AcDbSymbolTableRecord
100
AcDbLinetypeTableRecord
  2
CENTER
 70
64
  3
____ _ ____ _ ____ _ ____ _ ____ _ ____ _ ____
 72
65
 73
4
 40
0.6
 49
0.375
 74
0
 49
-0.075
 74
0
 49
0.075
 74
0
 49
-0.075
 74
0
  0
LTYPE
  5
1F6
100
AcDbSymbolTableRecord
100
AcDbLinetypeTableRecord
  2
HIDDEN
 70
64
  3
- - - - - - - - - - - - - - - - - - - -
 72
65
 73
2
 40
0.2
 49
0.1
 74
0
 49
-0.1
 74
0
  0
LTYPE
  5
1F7
100
AcDbSymbolTableRecord
100
AcDbLinetypeTableRecord
  2
PHANTOM
 70
64
  3
_____ _ _ _____ _ _ _____ _ _ _____
 72
65
 73
6
 40
0.8
 49
0.45
 74
0
 49
-0.05
 74
0
 49
0.1
 74
0
 49
-0.05
 74
0
 49
0.1
 74
0
 49
-0.05
 74
0
  0
LTYPE
  5
1F8
100
AcDbSymbolTableRecord
100
AcDbLinetypeTableRecord
  2
DOT
 70
64
  3
. . . . . . . . . . . . . . . . . . . .
 72
65
 73
2
 40
0.2
 49
0.1
 74
0
 49
-0.1
 74
0
  0
LTYPE
  5
1F9
100
AcDbSymbolTableRecord
100
AcDbLinetypeTableRecord
  2
DASHED
 70
64
  3
- - - - - - - - - - - - - - - - - - - -
 72
65
 73
2
 40
0.2
 49
0.1
 74
0
 49
-0.1
 74
0
  0
ENDTAB
  0
TABLE
  2
LAYER
  5
2
100
AcDbSymbolTable
 70
36
  0
LAYER
  5
10
100
AcDbSymbolTableRecord
100
AcDbLayerTableRecord
  2
0
 70
0
 62
7
  6
CONTINUOUS
370
-3
390
F
  0
LAYER
  5
1FA
100
AcDbSymbolTableRecord
100
AcDbLayerTableRecord
  2
DEFAULT_1
 70
0
 62
7
  6
CENTER
370
-3
390
F
  0
LAYER
  5
1FB
100
AcDbSymbolTableRecord
100
AcDbLayerTableRecord
  2
DEFAULT_2
 70
0
 62
7
  6
HIDDEN
370
-3
390
F
  0
LAYER
  5
1FC
100
AcDbSymbolTableRecord
100
AcDbLayerTableRecord
  2
DEFAULT_3
 70
0
 62
7
  6
PHANTOM
370
-3
390
F
  0
LAYER
  5
1FD
100
AcDbSymbolTableRecord
100
AcDbLayerTableRecord
  2
00_COMPONENTS
 70
0
 62
7
  6
CONTINUOUS
370
-3
390
F
  0
LAYER
  5
1FE
100
AcDbSymbolTableRecord
100
AcDbLayerTableRecord
  2
01_1_DEFAULT_DATUMS
 70
0
 62
7
  6
CONTINUOUS
370
-3
390
F
  0
LAYER
  5
1FF
100
AcDbSymbolTableRecord
100
AcDbLayerTableRecord
  2
01_PLANES
 70
0
 62
7
  6
CONTINUOUS
370
-3
390
F
  0
LAYER
  5
200
100
AcDbSymbolTableRecord
100
AcDbLayerTableRecord
  2
02_COORD_SYS
 70
0
 62
7
  6
CONTINUOUS
370
-3
390
F
  0
LAYER
  5
201
100
AcDbSymbolTableRecord
100
AcDbLayerTableRecord
  2
03_AXES
 70
0
 62
7
  6
CONTINUOUS
370
-3
390
F
  0
LAYER
  5
202
100
AcDbSymbolTableRecord
100
AcDbLayerTableRecord
  2
04_POINTS
 70
0
 62
7
  6
CONTINUOUS
370
-3
390
F
  0
LAYER
  5
203
100
AcDbSymbolTableRecord
100
AcDbLayerTableRecord
  2
05_CURVES
 70
0
 62
7
  6
CONTINUOUS
370
-3
390
F
  0
LAYER
  5
204
100
AcDbSymbolTableRecord
100
AcDbLayerTableRecord
  2
06_SURFS
 70
0
 62
7
  6
CONTINUOUS
370
-3
390
F
  0
LAYER
  5
205
100
AcDbSymbolTableRecord
100
AcDbLayerTableRecord
  2
07_COSMETICS
 70
0
 62
7
  6
CONTINUOUS
370
-3
390
F
  0
LAYER
  5
206
100
AcDbSymbolTableRecord
100
AcDbLayerTableRecord
  2
10_NOTES
 70
0
 62
7
  6
CONTINUOUS
370
-3
390
F
  0
LAYER
  5
207
100
AcDbSymbolTableRecord
100
AcDbLayerTableRecord
  2
11_NOTES_PUB
 70
0
 62
7
  6
CONTINUOUS
370
-3
390
F
  0
LAYER
  5
208
100
AcDbSymbolTableRecord
100
AcDbLayerTableRecord
  2
13_REF_GTOL
 70
0
 62
7
  6
CONTINUOUS
370
-3
390
F
  0
LAYER
  5
209
100
AcDbSymbolTableRecord
100
AcDbLayerTableRecord
  2
16_MISC
 70
0
 62
7
  6
CONTINUOUS
370
-3
390
F
  0
LAYER
  5
20A
100
AcDbSymbolTableRecord
100
AcDbLayerTableRecord
  2
17_NO_PRINT
 70
0
 62
7
  6
CONTINUOUS
370
-3
390
F
  0
LAYER
  5
20B
100
AcDbSymbolTableRecord
100
AcDbLayerTableRecord
  2
18_DATUM_CAMS_JOINTS
 70
0
 62
7
  6
CONTINUOUS
370
-3
390
F
  0
LAYER
  5
20C
100
AcDbSymbolTableRecord
100
AcDbLayerTableRecord
  2
19_DATUM_FUNCTIONAL
 70
0
 62
7
  6
CONTINUOUS
370
-3
390
F
  0
LAYER
  5
20D
100
AcDbSymbolTableRecord
100
AcDbLayerTableRecord
  2
20_DATUM_KINEMATIC_SCHEME
 70
0
 62
7
  6
CONTINUOUS
370
-3
390
F
  0
ENDTAB
  0
TABLE
  2
STYLE
  5
3
100
AcDbSymbolTable
 70
1
  0
STYLE
  5
11
100
AcDbSymbolTableRecord
100
AcDbTextStyleTableRecord
  2
STANDARD
 70
0
 40
0.0
 41
1.0
 50
0.0
 71
0
 42
0.2
  3
ARIAL.TTF
  4

  0
STYLE
  5
20E
100
AcDbSymbolTableRecord
100
AcDbTextStyleTableRecord
  2
TEXTSTYLE_1
 70
0
 40
0.0
 41
0.8
 50
0.0
 71
0
 42
0.2
  3
gdt
  4

  0
ENDTAB
  0
TABLE
  2
VIEW
  5
6
100
AcDbSymbolTable
 70
0
  0
ENDTAB
  0
TABLE
  2
UCS
  5
7
100
AcDbSymbolTable
 70
0
  0
ENDTAB
  0
TABLE
  2
APPID
  5
9
100
AcDbSymbolTable
 70
1
  0
APPID
  5
20F
100
AcDbSymbolTableRecord
100
AcDbRegAppTableRecord
  2
ACAD
 70
0
  0
ENDTAB
  0
TABLE
  2
BLOCK_RECORD
  5
1
100
AcDbSymbolTable
 70
0
  0
BLOCK_RECORD
  5
210
100
AcDbSymbolTableRecord
100
AcDbBlockTableRecord
  2
*Model_Space
  0
BLOCK_RECORD
  5
211
100
AcDbSymbolTableRecord
100
AcDbBlockTableRecord
  2
*Paper_Space
  0
BLOCK_RECORD
  5
212
100
AcDbSymbolTableRecord
100
AcDbBlockTableRecord
  2
_FILLED
  0
ENDTAB
  0
TABLE
  2
DIMSTYLE
  5
A
100
AcDbSymbolTable
 70
1
100
AcDbDimStyleTable
 71
0
  0
DIMSTYLE
105
213
100
AcDbSymbolTableRecord
100
AcDbDimStyleTableRecord
  2
STANDARD
 70
0
  3

  4

 40
1.0
 41
1.7125338351
 42
1.0
 43
0.38
 44
1.0
 45
0.0
 46
0.0
 47
0.01
 48
0.01
140
2.3975473691
141
0.09
142
0.0
143
25.4
144
1.0
145
0.0
146
1.0
147
0.625
 71
1
 72
0
 73
0
 74
0
 75
0
 76
0
 77
1
 78
8
 79
2
170
0
171
1
172
0
173
0
174
0
175
0
176
0
177
0
178
0
270
2
179
2
271
2
272
2
273
2
274
2
275
0
280
0
281
0
282
0
283
1
284
8
285
0
286
0
287
3
288
0
340
11
278
46
341
212
342
212
343
212
344
212
  0
ENDTAB
  0
ENDSEC
  0
SECTION
  2
BLOCKS
  0
BLOCK
  5
20
100
AcDbEntity
  8
0
100
AcDbBlockBegin
  2
*Model_Space
 70
0
 10
0.0
 20
0.0
 30
0.0
  3
*Model_Space
  1

  0
ENDBLK
  5
21
100
AcDbEntity
  8
0
100
AcDbBlockEnd
  0
BLOCK
  5
1C
100
AcDbEntity
  8
0
100
AcDbBlockBegin
  2
*Paper_Space
 70
0
 10
0.0
 20
0.0
 30
0.0
  3
*Paper_Space
  1

  0
ENDBLK
  5
1D
100
AcDbEntity
  8
0
100
AcDbBlockEnd
  0
BLOCK
  5
214
100
AcDbEntity
  8
0
100
AcDbBlockBegin
  2
_FILLED
 70
64
 10
0.0
 20
0.0
  3
_FILLED
  1

  0
SOLID
  5
215
100
AcDbEntity
  8
0
  6
BYBLOCK
 62
0
100
AcDbTrace
 10
0.0
 20
0.0
 11
-1.0
 21
0.25
 12
-1.0
 22
-0.25
 13
-1.0
 23
-0.25
  0
ENDBLK
  5
216
100
AcDbEntity
  8
0
  6
BYBLOCK
 62
0
100
AcDbBlockEnd
  0
ENDSEC
  0
SECTION
  2
ENTITIES
  0
LINE
  5
217
100
AcDbEntity
  8
0
100
AcDbLine
 62
7
  6
BYLAYER
 10
16.7685779362
 20
34.7735294118
 11
17.0685779362
 21
34.4735294118
  0
LINE
  5
218
100
AcDbEntity
  8
0
100
AcDbLine
 62
7
  6
BYLAYER
 10
37.7685779362
 20
34.4735294118
 11
17.0685779362
 21
34.4735294118
  0
LINE
  5
219
100
AcDbEntity
  8
0
100
AcDbLine
 62
7
  6
BYLAYER
 10
44.2685779362
 20
38.1735294118
 11
40.0685779362
 21
38.1735294118
  0
LINE
  5
21A
100
AcDbEntity
  8
0
100
AcDbLine
 62
7
  6
BYLAYER
 10
38.0685779362
 20
38.9735294118
 11
40.0685779362
 21
38.9735294118
  0
LINE
  5
21B
100
AcDbEntity
  8
0
100
AcDbLine
 62
7
  6
BYLAYER
 10
16.7685779362
 20
34.7735364215
 11
16.7685779362
 21
60.173522402
  0
LINE
  5
21C
100
AcDbEntity
  8
0
100
AcDbLine
 62
7
  6
BYLAYER
 10
17.0685779362
 20
34.4735294118
 11
17.0685779362
 21
60.4735294118
  0
LINE
  5
21D
100
AcDbEntity
  8
0
100
AcDbLine
 62
7
  6
BYLAYER
 10
38.0685779362
 20
60.1735294118
 11
37.7685779362
 21
60.4735294118
  0
LINE
  5
21E
100
AcDbEntity
  8
0
100
AcDbLine
 62
7
  6
BYLAYER
 10
45.0685779362
 20
55.9735294118
 11
44.2685779362
 21
56.7735294118
  0
LINE
  5
21F
100
AcDbEntity
  8
0
100
AcDbLine
 62
7
  6
BYLAYER
 10
23.038033899
 20
139.9735294118
 11
23.038033899
 21
132.9735294118
  0
LINE
  5
220
100
AcDbEntity
  8
0
100
AcDbLine
 62
7
  6
BYLAYER
 10
23.0685779362
 20
132.9735294118
 11
23.0685779362
 21
77.4735294118
  0
LINE
  5
221
100
AcDbEntity
  8
0
100
AcDbLine
 62
7
  6
BYLAYER
 10
23.1435779362
 20
139.9735294118
 11
23.1435779362
 21
169.4735294118
  0
LINE
  5
222
100
AcDbEntity
  8
0
100
AcDbLine
 62
7
  6
BYLAYER
 10
23.2998399327
 20
139.9735294118
 11
23.2998399327
 21
78.5047609467
  0
LINE
  5
223
100
AcDbEntity
  8
0
100
AcDbLine
 62
7
  6
BYLAYER
 10
23.4185779362
 20
168.1735294118
 11
23.4185779362
 21
166.9735294118
  0
LINE
  5
224
100
AcDbEntity
  8
0
100
AcDbLine
 62
7
  6
BYLAYER
 10
23.8325099587
 20
169.4735294118
 11
23.8325099587
 21
168.4784568181
  0
LINE
  5
225
100
AcDbEntity
  8
0
100
AcDbLine
 62
7
  6
BYLAYER
 10
24.9685779362
 20
124.4735294118
 11
24.9685779362
 21
128.4735294118
  0
LINE
  5
226
100
AcDbEntity
  8
0
100
AcDbLine
 62
7
  6
BYLAYER
 10
25.7685779362
 20
168.8334823377
 11
25.7685779362
 21
169.1039645004
  0
LINE
  5
227
100
AcDbEntity
  8
0
100
AcDbLine
 62
7
  6
BYLAYER
 10
26.3685779362
 20
168.8334823377
 11
26.3685779362
 21
169.1039645004
  0
LINE
  5
228
100
AcDbEntity
  8
0
100
AcDbLine
 62
7
  6
BYLAYER
 10
28.0685779362
 20
166.9735294118
 11
28.0685779362
 21
169.4735294118
  0
LINE
  5
229
100
AcDbEntity
  8
0
100
AcDbLine
 62
7
  6
BYLAYER
 10
29.1685779362
 20
128.4735294118
 11
29.1685779362
 21
128.2623837938
  0
LINE
  5
22A
100
AcDbEntity
  8
0
100
AcDbLine
 62
7
  6
BYLAYER
 10
29.1685779362
 20
124.6846750298
 11
29.1685779362
 21
124.4735294118
  0
LINE
  5
22B
100
AcDbEntity
  8
0
100
AcDbLine
 62
7
  6
BYLAYER
 10
31.9685779362
 20
142.2635294118
 11
31.9685779362
 21
146.2635294118
  0
LINE
  5
22C
100
AcDbEntity
  8
0
100
AcDbLine
 62
7
  6
BYLAYER
 10
33.0435779362
 20
146.2635294118
 11
33.0435779362
 21
142.2635294118
  0
LINE
  5
22D
100
AcDbEntity
  8
0
100
AcDbLine
 62
7
  6
BYLAYER
 10
40.0685779362
 20
55.9735294118
 11
38.0685779362
 21
55.9735294118
  0
LINE
  5
22E
100
AcDbEntity
  8
0
100
AcDbLine
 62
7
  6
BYLAYER
 10
44.2685779362
 20
56.7735294118
 11
40.0685779362
 21
56.7735294118
  0
LINE
  5
22F
100
AcDbEntity
  8
0
100
AcDbLine
 62
7
  6
BYLAYER
 10
37.7685779362
 20
60.4735294118
 11
17.0685779362
 21
60.4735294118
  0
LINE
  5
230
100
AcDbEntity
  8
0
100
AcDbLine
 62
7
  6
BYLAYER
 10
37.7685779362
 20
60.4735294118
 11
37.7685779362
 21
34.4735294118
  0
LINE
  5
231
100
AcDbEntity
  8
0
100
AcDbLine
 62
7
  6
BYLAYER
 10
38.0685779362
 20
60.173522402
 11
38.0685779362
 21
34.7735364215
  0
LINE
  5
232
100
AcDbEntity
  8
0
100
AcDbLine
 62
7
  6
BYLAYER
 10
40.0685779362
 20
38.1735395478
 11
40.0685779362
 21
56.7735192758
  0
LINE
  5
233
100
AcDbEntity
  8
0
100
AcDbLine
 62
7
  6
BYLAYER
 10
43.0935779362
 20
146.2635294118
 11
43.0935779362
 21
142.2635294118
  0
LINE
  5
234
100
AcDbEntity
  8
0
100
AcDbLine
 62
7
  6
BYLAYER
 10
44.1685779362
 20
146.2635294118
 11
44.1685779362
 21
142.2635294118
  0
LINE
  5
235
100
AcDbEntity
  8
0
100
AcDbLine
 62
7
  6
BYLAYER
 10
44.2685779362
 20
56.7735294118
 11
44.2685779362
 21
38.1735294118
  0
LINE
  5
236
100
AcDbEntity
  8
0
100
AcDbLine
 62
7
  6
BYLAYER
 10
45.0685779362
 20
55.9735294118
 11
45.0685779362
 21
38.9735294118
  0
LINE
  5
237
100
AcDbEntity
  8
0
100
AcDbLine
 62
7
  6
BYLAYER
 10
46.9685779362
 20
124.4735294118
 11
46.9685779362
 21
124.6846750298
  0
LINE
  5
238
100
AcDbEntity
  8
0
100
AcDbLine
 62
7
  6
BYLAYER
 10
46.9685779362
 20
128.2623837938
 11
46.9685779362
 21
128.4735294118
  0
LINE
  5
239
100
AcDbEntity
  8
0
100
AcDbLine
 62
7
  6
BYLAYER
 10
48.0685779362
 20
166.9735294118
 11
48.0685779362
 21
169.4735294118
  0
LINE
  5
23A
100
AcDbEntity
  8
0
100
AcDbLine
 62
7
  6
BYLAYER
 10
49.7685779362
 20
168.8334823377
 11
49.7685779362
 21
169.1039645004
  0
LINE
  5
23B
100
AcDbEntity
  8
0
100
AcDbLine
 62
7
  6
BYLAYER
 10
50.3685779362
 20
168.8334823377
 11
50.3685779362
 21
169.1039645004
  0
LINE
  5
23C
100
AcDbEntity
  8
0
100
AcDbLine
 62
7
  6
BYLAYER
 10
23.0685779362
 20
77.4735294118
 11
131.0685779362
 21
77.4735294118
  0
LINE
  5
23D
100
AcDbEntity
  8
0
100
AcDbLine
 62
7
  6
BYLAYER
 10
72.0685779362
 20
77.6524302015
 11
79.0685779362
 21
77.6524302015
  0
LINE
  5
23E
100
AcDbEntity
  8
0
100
AcDbLine
 62
7
  6
BYLAYER
 10
79.0685779362
 20
77.6786108048
 11
72.0685779362
 21
77.6786108048
  0
LINE
  5
23F
100
AcDbEntity
  8
0
100
AcDbLine
 62
7
  6
BYLAYER
 10
24.0998094711
 20
77.7047914082
 11
130.0373464013
 21
77.7047914082
  0
LINE
  5
240
100
AcDbEntity
  8
0
100
AcDbLine
 62
7
  6
BYLAYER
 10
51.1685779362
 20
128.4735294118
 11
51.1685779362
 21
124.4735294118
  0
LINE
  5
241
100
AcDbEntity
  8
0
100
AcDbLine
 62
7
  6
BYLAYER
 10
52.3046459137
 20
168.4670578288
 11
52.3046459137
 21
169.4735294118
  0
LINE
  5
242
100
AcDbEntity
  8
0
100
AcDbLine
 62
7
  6
BYLAYER
 10
52.7185779362
 20
166.9735294118
 11
52.7185779362
 21
168.1735294118
  0
LINE
  5
243
100
AcDbEntity
  8
0
100
AcDbLine
 62
7
  6
BYLAYER
 10
52.9935779362
 20
139.9735294118
 11
52.9935779362
 21
169.4735294118
  0
LINE
  5
244
100
AcDbEntity
  8
0
100
AcDbLine
 62
7
  6
BYLAYER
 10
23.0685779362
 20
78.2734989502
 11
23.2998399327
 21
78.5047609467
  0
LINE
  5
245
100
AcDbEntity
  8
0
100
AcDbLine
 62
7
  6
BYLAYER
 10
24.0998094711
 20
77.7047914082
 11
23.8685474747
 21
77.4735294118
  0
LINE
  5
246
100
AcDbEntity
  8
0
100
AcDbLine
 62
7
  6
BYLAYER
 10
46.0685779362
 20
83.4735294118
 11
30.0685779362
 21
83.4735294118
  0
LINE
  5
247
100
AcDbEntity
  8
0
100
AcDbLine
 62
7
  6
BYLAYER
 10
59.2685779362
 20
139.9735294118
 11
59.2685779362
 21
154.9735294118
  0
LINE
  5
248
100
AcDbEntity
  8
0
100
AcDbLine
 62
7
  6
BYLAYER
 10
30.0685779362
 20
89.4735294118
 11
46.0685779362
 21
89.4735294118
  0
LINE
  5
249
100
AcDbEntity
  8
0
100
AcDbLine
 62
7
  6
BYLAYER
 10
64.2685779362
 20
155.0735294118
 11
64.2685779362
 21
154.7972466824
  0
LINE
  5
24A
100
AcDbEntity
  8
0
100
AcDbLine
 62
7
  6
BYLAYER
 10
64.5685779362
 20
155.0735294118
 11
64.5685779362
 21
154.7972466824
  0
LINE
  5
24B
100
AcDbEntity
  8
0
100
AcDbLine
 62
7
  6
BYLAYER
 10
64.5685779362
 20
145.9247803336
 11
64.5685779362
 21
147.4222784899
  0
LINE
  5
24C
100
AcDbEntity
  8
0
100
AcDbLine
 62
7
  6
BYLAYER
 10
16.7685779362
 20
60.1735294118
 11
17.0685779362
 21
60.4735294118
  0
LINE
  5
24D
100
AcDbEntity
  8
0
100
AcDbLine
 62
7
  6
BYLAYER
 10
71.2685779362
 20
155.0735294118
 11
71.2685779362
 21
154.7422674153
  0
LINE
  5
24E
100
AcDbEntity
  8
0
100
AcDbLine
 62
7
  6
BYLAYER
 10
72.0685779362
 20
77.6786108048
 11
72.0685779362
 21
77.6524302015
  0
LINE
  5
24F
100
AcDbEntity
  8
0
100
AcDbLine
 62
7
  6
BYLAYER
 10
73.2685779362
 20
155.0735294118
 11
73.2685779362
 21
154.8657590005
  0
LINE
  5
250
100
AcDbEntity
  8
0
100
AcDbLine
 62
7
  6
BYLAYER
 10
131.0685779362
 20
148.8076295675
 11
130.8373159398
 21
148.6148685746
  0
LINE
  5
251
100
AcDbEntity
  8
0
100
AcDbLine
 62
7
  6
BYLAYER
 10
130.1812002294
 20
149.4017997354
 11
130.412926184
 21
149.5944757715
  0
LINE
  5
252
100
AcDbEntity
  8
0
100
AcDbLine
 62
7
  6
BYLAYER
 10
79.0685779362
 20
77.6524302015
 11
79.0685779362
 21
77.6786108048
  0
LINE
  5
253
100
AcDbEntity
  8
0
100
AcDbLine
 62
7
  6
BYLAYER
 10
38.0685779362
 20
34.7735294118
 11
37.7685779362
 21
34.4735294118
  0
LINE
  5
254
100
AcDbEntity
  8
0
100
AcDbLine
 62
7
  6
BYLAYER
 10
44.2685779362
 20
38.1735294118
 11
45.0685779362
 21
38.9735294118
  0
LINE
  5
255
100
AcDbEntity
  8
0
100
AcDbLine
 62
7
  6
BYLAYER
 10
130.2686083978
 20
77.4735294118
 11
130.0373464013
 21
77.7047914082
  0
LINE
  5
256
100
AcDbEntity
  8
0
100
AcDbLine
 62
7
  6
BYLAYER
 10
130.8373159398
 20
78.5047609467
 11
131.0685779362
 21
78.2734989502
  0
LINE
  5
257
100
AcDbEntity
  8
0
100
AcDbLine
 62
7
  6
BYLAYER
 10
23.0685779362
 20
132.9735294118
 11
23.038033899
 21
132.9735294118
  0
LINE
  5
258
100
AcDbEntity
  8
0
100
AcDbLine
 62
7
  6
BYLAYER
 10
23.038033899
 20
139.9735294118
 11
59.2685779362
 21
139.9735294118
  0
LINE
  5
259
100
AcDbEntity
  8
0
100
AcDbLine
 62
7
  6
BYLAYER
 10
31.9685779362
 20
142.2635294118
 11
44.1685779362
 21
142.2635294118
  0
LINE
  5
25A
100
AcDbEntity
  8
0
100
AcDbLine
 62
7
  6
BYLAYER
 10
33.0435779362
 20
143.1035294118
 11
43.0935779362
 21
143.1035294118
  0
LINE
  5
25B
100
AcDbEntity
  8
0
100
AcDbLine
 62
7
  6
BYLAYER
 10
117.0685779362
 20
108.4735294118
 11
117.0685779362
 21
124.4735294118
  0
LINE
  5
25C
100
AcDbEntity
  8
0
100
AcDbLine
 62
7
  6
BYLAYER
 10
43.0935779362
 20
145.2435294118
 11
33.0435779362
 21
145.2435294118
  0
LINE
  5
25D
100
AcDbEntity
  8
0
100
AcDbLine
 62
7
  6
BYLAYER
 10
44.1685779362
 20
146.2635294118
 11
31.9685779362
 21
146.2635294118
  0
LINE
  5
25E
100
AcDbEntity
  8
0
100
AcDbLine
 62
7
  6
BYLAYER
 10
123.0685779362
 20
124.4735294118
 11
123.0685779362
 21
108.4735294118
  0
LINE
  5
25F
100
AcDbEntity
  8
0
100
AcDbLine
 62
7
  6
BYLAYER
 10
71.2685779389
 20
154.7422674153
 11
59.2685779362
 21
154.7422674153
  0
LINE
  5
260
100
AcDbEntity
  8
0
100
AcDbLine
 62
7
  6
BYLAYER
 10
64.5685779362
 20
154.7972466824
 11
64.2685779362
 21
154.7972466824
  0
LINE
  5
261
100
AcDbEntity
  8
0
100
AcDbLine
 62
7
  6
BYLAYER
 10
64.2685779362
 20
154.8251726593
 11
59.2685779362
 21
154.8251726593
  0
LINE
  5
262
100
AcDbEntity
  8
0
100
AcDbLine
 62
7
  6
BYLAYER
 10
64.2685779362
 20
154.921168205
 11
59.2685779362
 21
154.921168205
  0
LINE
  5
263
100
AcDbEntity
  8
0
100
AcDbLine
 62
7
  6
BYLAYER
 10
71.2685779362
 20
154.9735294118
 11
64.5685779362
 21
154.9735294118
  0
LINE
  5
264
100
AcDbEntity
  8
0
100
AcDbLine
 62
7
  6
BYLAYER
 10
64.2685779362
 20
154.9735294118
 11
59.2685779362
 21
154.9735294118
  0
LINE
  5
265
100
AcDbEntity
  8
0
100
AcDbLine
 62
7
  6
BYLAYER
 10
73.2685779362
 20
155.0735294118
 11
71.2685779362
 21
155.0735294118
  0
LINE
  5
266
100
AcDbEntity
  8
0
100
AcDbLine
 62
7
  6
BYLAYER
 10
64.5685779362
 20
155.0735294118
 11
64.2685779362
 21
155.0735294118
  0
LINE
  5
267
100
AcDbEntity
  8
0
100
AcDbLine
 62
7
  6
BYLAYER
 10
130.8373159398
 20
78.5047609467
 11
130.8373159398
 21
148.6148685746
  0
LINE
  5
268
100
AcDbEntity
  8
0
100
AcDbLine
 62
7
  6
BYLAYER
 10
131.0685779362
 20
77.4735294118
 11
131.0685779362
 21
149.4735294118
  0
LINE
  5
269
100
AcDbEntity
  8
0
100
AcDbLine
 62
7
  6
BYLAYER
 10
23.1435779362
 20
166.9735294118
 11
28.0685779362
 21
166.9735294118
  0
LINE
  5
26A
100
AcDbEntity
  8
0
100
AcDbLine
 62
7
  6
BYLAYER
 10
48.0685779362
 20
166.9735294118
 11
52.9935779362
 21
166.9735294118
  0
LINE
  5
26B
100
AcDbEntity
  8
0
100
AcDbLine
 62
7
  6
BYLAYER
 10
23.4185779362
 20
168.1735294118
 11
28.0685779362
 21
168.1735294118
  0
LINE
  5
26C
100
AcDbEntity
  8
0
100
AcDbLine
 62
7
  6
BYLAYER
 10
48.0685779362
 20
168.1735294118
 11
52.7185779362
 21
168.1735294118
  0
LINE
  5
26D
100
AcDbEntity
  8
0
100
AcDbLine
 62
7
  6
BYLAYER
 10
23.6648308613
 20
168.3735294118
 11
23.6836251065
 21
168.3735294118
  0
LINE
  5
26E
100
AcDbEntity
  8
0
100
AcDbLine
 62
7
  6
BYLAYER
 10
52.4535307659
 20
168.3735294118
 11
52.4723250111
 21
168.3735294118
  0
LINE
  5
26F
100
AcDbEntity
  8
0
100
AcDbLine
 62
7
  6
BYLAYER
 10
50.7491991409
 20
169.1039645004
 11
50.3685779362
 21
169.1039645004
  0
LINE
  5
270
100
AcDbEntity
  8
0
100
AcDbLine
 62
7
  6
BYLAYER
 10
49.7685779362
 20
169.1039645004
 11
49.3879567316
 21
169.1039645004
  0
LINE
  5
271
100
AcDbEntity
  8
0
100
AcDbLine
 62
7
  6
BYLAYER
 10
26.7491991409
 20
169.1039645004
 11
26.3685779362
 21
169.1039645004
  0
LINE
  5
272
100
AcDbEntity
  8
0
100
AcDbLine
 62
7
  6
BYLAYER
 10
25.7685779362
 20
169.1039645004
 11
25.3879567316
 21
169.1039645004
  0
LINE
  5
273
100
AcDbEntity
  8
0
100
AcDbLine
 62
7
  6
BYLAYER
 10
23.1435779362
 20
169.4735294118
 11
52.9935779362
 21
169.4735294118
  0
ARC
  5
274
100
AcDbEntity
  8
0
100
AcDbCircle
 62
7
  6
BYLAYER
 10
71.2685779362
 20
-172.8710160427
 40
327.8445454545
100
AcDbArc
 50
79.4902103866
 51
89.6513109761
  0
ARC
  5
275
100
AcDbEntity
  8
0
100
AcDbCircle
 62
7
  6
BYLAYER
 10
71.2685779362
 20
-172.8710160427
 40
327.7428774448
100
AcDbArc
 50
89.6503592355
 51
90.0
  0
ARC
  5
276
100
AcDbEntity
  8
0
100
AcDbCircle
 62
7
  6
BYLAYER
 10
71.2685779362
 20
-172.8710160427
 40
327.6132834581
100
AcDbArc
 50
79.6405109336
 51
89.9999999995
  0
ARC
  5
277
100
AcDbEntity
  8
0
100
AcDbCircle
 62
7
  6
BYLAYER
 10
26.0685779362
 20
162.5273054915
 40
6.3133086742
100
AcDbArc
 50
87.2763553813
 51
92.7236446187
  0
ARC
  5
278
100
AcDbEntity
  8
0
100
AcDbCircle
 62
7
  6
BYLAYER
 10
50.0685779362
 20
162.5273054915
 40
6.3133086742
100
AcDbArc
 50
87.2763553813
 51
92.7236446187
  0
ARC
  5
279
100
AcDbEntity
  8
0
100
AcDbCircle
 62
7
  6
BYLAYER
 10
26.0685779362
 20
165.1622794118
 40
4.01125
100
AcDbArc
 50
126.8163000685
 51
131.3488495217
  0
ARC
  5
27A
100
AcDbEntity
  8
0
100
AcDbCircle
 62
7
  6
BYLAYER
 10
50.0685779362
 20
165.1622794118
 40
4.01125
100
AcDbArc
 50
48.6511504783
 51
53.1836999315
  0
ARC
  5
27B
100
AcDbEntity
  8
0
100
AcDbCircle
 62
7
  6
BYLAYER
 10
26.0685779362
 20
165.1622794118
 40
4.0000158203
100
AcDbArc
 50
99.7968095851
 51
126.6007832227
  0
ARC
  5
27C
100
AcDbEntity
  8
0
100
AcDbCircle
 62
7
  6
BYLAYER
 10
26.0685779362
 20
165.1622794118
 40
4.0000158203
100
AcDbArc
 50
60.0888255255
 51
80.2031904149
  0
ARC
  5
27D
100
AcDbEntity
  8
0
100
AcDbCircle
 62
7
  6
BYLAYER
 10
50.0685779362
 20
165.1622794118
 40
4.0000158203
100
AcDbArc
 50
99.7968095851
 51
119.9111754766
  0
ARC
  5
27E
100
AcDbEntity
  8
0
100
AcDbCircle
 62
7
  6
BYLAYER
 10
50.0685779362
 20
165.1622794118
 40
4.0000158203
100
AcDbArc
 50
53.3992167773
 51
80.2031904149
  0
ARC
  5
27F
100
AcDbEntity
  8
0
100
AcDbCircle
 62
7
  6
BYLAYER
 10
120.0685779362
 20
124.4735294118
 40
3.0
100
AcDbArc
 50
0.0
 51
180.0
  0
ARC
  5
280
100
AcDbEntity
  8
0
100
AcDbCircle
 62
7
  6
BYLAYER
 10
120.0685779362
 20
108.4735294118
 40
3.0
100
AcDbArc
 50
180.0
 51
360.0
  0
ARC
  5
281
100
AcDbEntity
  8
0
100
AcDbCircle
 62
7
  6
BYLAYER
 10
46.0685779362
 20
86.4735294118
 40
3.0
100
AcDbArc
 50
270.0
 51
90.0
  0
ARC
  5
282
100
AcDbEntity
  8
0
100
AcDbCircle
 62
7
  6
BYLAYER
 10
30.0685779362
 20
86.4735294118
 40
3.0
100
AcDbArc
 50
90.0
 51
270.0
  0
ARC
  5
283
100
AcDbEntity
  8
0
100
AcDbCircle
 62
7
  6
BYLAYER
 10
48.0685779362
 20
126.4735294118
 40
2.1
100
AcDbArc
 50
121.5881355052
 51
238.4118644948
  0
ARC
  5
284
100
AcDbEntity
  8
0
100
AcDbCircle
 62
7
  6
BYLAYER
 10
49.0685779362
 20
124.4735294118
 40
2.1
100
AcDbArc
 50
180.0
 51
360.0
  0
ARC
  5
285
100
AcDbEntity
  8
0
100
AcDbCircle
 62
7
  6
BYLAYER
 10
49.0685779362
 20
128.4735294118
 40
2.1
100
AcDbArc
 50
0.0
 51
180.0
  0
ARC
  5
286
100
AcDbEntity
  8
0
100
AcDbCircle
 62
7
  6
BYLAYER
 10
28.0685779362
 20
126.4735294118
 40
2.1
100
AcDbArc
 50
301.5881355052
 51
58.4118644948
  0
ARC
  5
287
100
AcDbEntity
  8
0
100
AcDbCircle
 62
7
  6
BYLAYER
 10
27.0685779362
 20
128.4735294118
 40
2.1
100
AcDbArc
 50
0.0
 51
180.0
  0
ARC
  5
288
100
AcDbEntity
  8
0
100
AcDbCircle
 62
7
  6
BYLAYER
 10
27.0685779362
 20
124.4735294118
 40
2.1
100
AcDbArc
 50
180.0
 51
360.0
  0
ARC
  5
289
100
AcDbEntity
  8
0
100
AcDbCircle
 62
7
  6
BYLAYER
 10
130.0373555947
 20
148.6148762398
 40
0.7999603451
100
AcDbArc
 50
359.9994509931
 51
79.6410599573
  0
ARC
  5
28A
100
AcDbEntity
  8
0
100
AcDbCircle
 62
7
  6
BYLAYER
 10
130.269426723
 20
148.8130287264
 40
0.7945113545
100
AcDbArc
 50
74.1117196567
 51
79.5945320319
  0
CIRCLE
  5
28B
100
AcDbEntity
  8
0
100
AcDbCircle
 62
7
  6
BYLAYER
 10
64.5685779362
 20
146.6735294118
 40
0.75
  0
SPLINE
  5
28C
100
AcDbEntity
  8
0
100
AcDbSpline
 62
7
  6
BYLAYER
 70
0
 71
3
 72
9
 73
5
 74
0
 42
0.0000001
 43
0.0000001
 44
0.0000000001
 40
0.0
 40
0.0
 40
0.0
 40
0.0
 40
0.5003285675
 40
1.0
 40
1.0
 40
1.0
 40
1.0
 10
130.4869341314
 20
149.5771876233
 30
0.0
 10
130.5635959946
 20
149.5553798878
 30
0.0
 10
130.7112071653
 20
149.4886211612
 30
0.0
 10
130.8322202812
 20
149.3808802306
 30
0.0
 10
130.8831757084
 20
149.3197288867
 30
0.0
  0
SPLINE
  5
28D
100
AcDbEntity
  8
0
100
AcDbSpline
 62
7
  6
BYLAYER
 70
0
 71
3
 72
9
 73
5
 74
0
 42
0.0000001
 43
0.0000001
 44
0.0000000001
 40
0.0
 40
0.0
 40
0.0
 40
0.0
 40
0.4999718467
 40
1.0
 40
1.0
 40
1.0
 40
1.0
 10
130.8831757084
 20
149.3197288867
 30
0.0
 10
130.9421675318
 20
149.2489331055
 30
0.0
 10
131.0362188404
 20
149.0855324023
 30
0.0
 10
131.0685784269
 20
148.8997924165
 30
0.0
 10
131.0685779362
 20
148.8076295675
 30
0.0
  0
SPLINE
  5
28E
100
AcDbEntity
  8
0
100
AcDbSpline
 62
7
  6
BYLAYER
 70
0
 71
3
 72
27
 73
23
 74
0
 42
0.0000001
 43
0.0000001
 44
0.0000000001
 40
0.0
 40
0.0
 40
0.0
 40
0.0
 40
0.0003701297
 40
0.0013004058
 40
0.002822393
 40
0.0049399479
 40
0.0109614161
 40
0.019357797
 40
0.0301172972
 40
0.0432162669
 40
0.0586168163
 40
0.076279959
 40
0.1182352608
 40
0.1686849426
 40
0.2271298483
 40
0.2930250629
 40
0.3657212107
 40
0.4445359531
 40
0.5286910265
 40
0.617370967
 40
0.8049588254
 40
1.0
 40
1.0
 40
1.0
 40
1.0
 10
70.068595131
 20
154.8731704322
 30
0.0
 10
70.068595131
 20
154.8724917514
 30
0.0
 10
70.0655238333
 20
154.8715471062
 30
0.0
 10
70.0611662591
 20
154.8705838996
 30
0.0
 10
70.052462747
 20
154.8694491094
 30
0.0
 10
70.0350662955
 20
154.8677547272
 30
0.0
 10
70.0046303095
 20
154.8657664326
 30
0.0
 10
69.9586035109
 20
154.8635255896
 30
0.0
 10
69.8994684898
 20
154.8612838245
 30
0.0
 10
69.8275282198
 20
154.8590517627
 30
0.0
 10
69.7429074808
 20
154.8568433239
 30
0.0
 10
69.6053864298
 20
154.8537622681
 30
0.0
 10
69.4035928702
 20
154.8501385698
 30
0.0
 10
69.1270184398
 20
154.8461802116
 30
0.0
 10
68.8065398078
 20
154.8424582903
 30
0.0
 10
68.4452644911
 20
154.8390169035
 30
0.0
 10
68.0466342862
 20
154.8358900038
 30
0.0
 10
67.6145189642
 20
154.833114909
 30
0.0
 10
67.153092623
 20
154.8307159829
 30
0.0
 10
66.4922159866
 20
154.8280044037
 30
0.0
 10
65.6280122085
 20
154.8257658388
 30
0.0
 10
64.9264121089
 20
154.8251726593
 30
0.0
 10
64.5687788147
 20
154.8251726593
 30
0.0
  0
SPLINE
  5
28F
100
AcDbEntity
  8
0
100
AcDbSpline
 62
7
  6
BYLAYER
 70
0
 71
3
 72
51
 73
47
 74
0
 42
0.0000001
 43
0.0000001
 44
0.0000000001
 40
0.0
 40
0.0
 40
0.0
 40
0.0
 40
0.0001849709
 40
0.0006497613
 40
0.0014102924
 40
0.0024686107
 40
0.0038249349
 40
0.005478972
 40
0.0096780961
 40
0.0150592513
 40
0.0216075519
 40
0.0293060893
 40
0.0381378587
 40
0.0480839319
 40
0.0591181636
 40
0.0843395281
 40
0.1135658444
 40
0.1465102667
 40
0.1828618124
 40
0.2222651488
 40
0.2643453968
 40
0.3086931797
 40
0.4024725845
 40
0.4999993169
 40
0.5975256901
 40
0.6913041565
 40
0.7356514926
 40
0.7777313719
 40
0.8171346417
 40
0.853486316
 40
0.8864311426
 40
0.9156580182
 40
0.9408799993
 40
0.9519146068
 40
0.9618609217
 40
0.9706928931
 40
0.9783917111
 40
0.9849402796
 40
0.9903215988
 40
0.9945208166
 40
0.9961749048
 40
0.9975312785
 40
0.9985896411
 40
0.9993502079
 40
0.9998150218
 40
1.0
 40
1.0
 40
1.0
 40
1.0
 10
73.568557448
 20
77.5826170804
 30
0.0
 10
73.568557448
 20
77.5837887894
 30
0.0
 10
73.5632586759
 20
77.5854232676
 30
0.0
 10
73.5557354481
 20
77.5870860603
 30
0.0
 10
73.5407060936
 20
77.5890469815
 30
0.0
 10
73.5209853229
 20
77.590974755
 30
0.0
 10
73.4951713678
 20
77.5929619133
 30
0.0
 10
73.4496473439
 20
77.5958380352
 30
0.0
 10
73.3785267862
 20
77.5992717606
 30
0.0
 10
73.2764479887
 20
77.6031491946
 30
0.0
 10
73.1521665696
 20
77.6070022766
 30
0.0
 10
73.0060251688
 20
77.6108175018
 30
0.0
 10
72.8383502039
 20
77.614576077
 30
0.0
 10
72.649539965
 20
77.6182656863
 30
0.0
 10
72.356915982
 20
77.6233067422
 30
0.0
 10
71.9421586656
 20
77.6292364703
 30
0.0
 10
71.3886052662
 20
77.6356643705
 30
0.0
 10
70.7645381853
 20
77.6416111365
 30
0.0
 10
70.0759971258
 20
77.6470090497
 30
0.0
 10
69.3295789604
 20
77.6518056829
 30
0.0
 10
68.532503554
 20
77.6559471727
 30
0.0
 10
67.3909786813
 20
77.6606307552
 30
0.0
 10
65.8982195063
 20
77.6644974084
 30
0.0
 10
64.0685932682
 20
77.6660420569
 30
0.0
 10
62.2389729742
 20
77.6644974656
 30
0.0
 10
60.7462248495
 20
77.6606308928
 30
0.0
 10
59.6047110871
 20
77.6559474547
 30
0.0
 10
58.8076412682
 20
77.6518060467
 30
0.0
 10
58.0612250451
 20
77.6470095234
 30
0.0
 10
57.3726810302
 20
77.6416116888
 30
0.0
 10
56.7486070302
 20
77.6356649592
 30
0.0
 10
56.1950436198
 20
77.6292370777
 30
0.0
 10
55.7802764749
 20
77.6233072609
 30
0.0
 10
55.4876446731
 20
77.6182662483
 30
0.0
 10
55.2988292422
 20
77.6145765982
 30
0.0
 10
55.1311496894
 20
77.6108179465
 30
0.0
 10
54.985003534
 20
77.6070026805
 30
0.0
 10
54.8607176005
 20
77.6031495545
 30
0.0
 10
54.7586354759
 20
77.5992720221
 30
0.0
 10
54.6875129628
 20
77.5958381659
 30
0.0
 10
54.6419877134
 20
77.5929619959
 30
0.0
 10
54.616172829
 20
77.5909748122
 30
0.0
 10
54.5964512687
 20
77.5890469987
 30
0.0
 10
54.5814211785
 20
77.5870860971
 30
0.0
 10
54.573897666
 20
77.5854232342
 30
0.0
 10
54.5685985291
 20
77.5837888354
 30
0.0
 10
54.5685985291
 20
77.5826170804
 30
0.0
  0
SPLINE
  5
290
100
AcDbEntity
  8
0
100
AcDbSpline
 62
7
  6
BYLAYER
 70
0
 71
3
 72
27
 73
23
 74
0
 42
0.0000001
 43
0.0000001
 44
0.0000000001
 40
0.0
 40
0.0
 40
0.0
 40
0.0
 40
0.1950411746
 40
0.382629033
 40
0.4713089735
 40
0.5554640469
 40
0.6342787893
 40
0.7069749371
 40
0.7728701517
 40
0.8313150574
 40
0.8817647392
 40
0.923720041
 40
0.9413831837
 40
0.9567837331
 40
0.9698827028
 40
0.980642203
 40
0.9890385839
 40
0.9950600521
 40
0.997177607
 40
0.9986995942
 40
0.9996298703
 40
1.0
 40
1.0
 40
1.0
 40
1.0
 10
64.5687788147
 20
154.921168205
 30
0.0
 10
64.9264121089
 20
154.921168205
 30
0.0
 10
65.6280122085
 20
154.9205750256
 30
0.0
 10
66.4922159866
 20
154.9183364606
 30
0.0
 10
67.153092623
 20
154.9156248815
 30
0.0
 10
67.6145189642
 20
154.9132259553
 30
0.0
 10
68.0466342862
 20
154.9104508605
 30
0.0
 10
68.4452644911
 20
154.9073239609
 30
0.0
 10
68.8065398078
 20
154.9038825741
 30
0.0
 10
69.1270184398
 20
154.9001606527
 30
0.0
 10
69.4035928702
 20
154.8962022945
 30
0.0
 10
69.6053864298
 20
154.8925785962
 30
0.0
 10
69.7429074808
 20
154.8894975404
 30
0.0
 10
69.8275282198
 20
154.8872891016
 30
0.0
 10
69.8994684898
 20
154.8850570398
 30
0.0
 10
69.9586035109
 20
154.8828152747
 30
0.0
 10
70.0046303095
 20
154.8805744318
 30
0.0
 10
70.0350662955
 20
154.8785861372
 30
0.0
 10
70.052462747
 20
154.8768917549
 30
0.0
 10
70.0611662591
 20
154.8757569647
 30
0.0
 10
70.0655238333
 20
154.8747937582
 30
0.0
 10
70.068595131
 20
154.873849113
 30
0.0
 10
70.068595131
 20
154.8731704322
 30
0.0
  0
SPLINE
  5
291
100
AcDbEntity
  8
0
100
AcDbSpline
 62
7
  6
BYLAYER
 70
0
 71
3
 72
51
 73
47
 74
0
 42
0.0000001
 43
0.0000001
 44
0.0000000001
 40
0.0
 40
0.0
 40
0.0
 40
0.0
 40
0.0001848895
 40
0.0006494071
 40
0.0014095198
 40
0.0024673135
 40
0.0038230447
 40
0.0054764579
 40
0.0096743912
 40
0.0150546193
 40
0.0216022412
 40
0.0293002672
 40
0.0381316114
 40
0.0480772858
 40
0.0591111514
 40
0.084331958
 40
0.1135580486
 40
0.1465025533
 40
0.1828544355
 40
0.2222583427
 40
0.2643393787
 40
0.3086881359
 40
0.4024699049
 40
0.4999993128
 40
0.5975283612
 40
0.6913091916
 40
0.7356575017
 40
0.7777381686
 40
0.8171420092
 40
0.85349402
 40
0.8864389288
 40
0.915665577
 40
0.940887001
 40
0.9519212438
 40
0.9618671616
 40
0.9706987082
 40
0.9783970125
 40
0.9849448986
 40
0.9903252873
 40
0.9945233153
 40
0.9961767823
 40
0.9975325662
 40
0.9985904077
 40
0.9993505592
 40
0.9998151025
 40
1.0
 40
1.0
 40
1.0
 40
1.0
 10
54.5685985291
 20
77.5826170804
 30
0.0
 10
54.5685985291
 20
77.5814458872
 30
0.0
 10
54.5738929987
 20
77.5798103535
 30
0.0
 10
54.5814129428
 20
77.5781482249
 30
0.0
 10
54.5964335967
 20
77.576186799
 30
0.0
 10
54.6161449736
 20
77.5742591487
 30
0.0
 10
54.6419477233
 20
77.572271848
 30
0.0
 10
54.6874565171
 20
77.569395561
 30
0.0
 10
54.7585596539
 20
77.5659616394
 30
0.0
 10
54.8606207443
 20
77.5620841604
 30
0.0
 10
54.9848887507
 20
77.5582309831
 30
0.0
 10
55.1310199279
 20
77.5544156443
 30
0.0
 10
55.2986864436
 20
77.5506569347
 30
0.0
 10
55.4874891565
 20
77.5469671706
 30
0.0
 10
55.7801047806
 20
77.5419258759
 30
0.0
 10
56.1948548472
 20
77.5359958626
 30
0.0
 10
56.7484038522
 20
77.5295676761
 30
0.0
 10
57.3724722116
 20
77.5236206298
 30
0.0
 10
58.0610196018
 20
77.5182224485
 30
0.0
 10
58.8074485725
 20
77.5134255697
 30
0.0
 10
59.6045388293
 20
77.5092838633
 30
0.0
 10
60.7460899443
 20
77.5046000261
 30
0.0
 10
62.2388873506
 20
77.5007331646
 30
0.0
 10
64.0685626263
 20
77.4991884329
 30
0.0
 10
65.8982319561
 20
77.5007331074
 30
0.0
 10
67.3910183077
 20
77.5045998886
 30
0.0
 10
68.5325583069
 20
77.5092835815
 30
0.0
 10
69.3296429722
 20
77.5134252061
 30
0.0
 10
70.0760699981
 20
77.5182219749
 30
0.0
 10
70.7646203414
 20
77.5236200777
 30
0.0
 10
71.388695608
 20
77.5295670873
 30
0.0
 10
71.9422546165
 20
77.5359952557
 30
0.0
 10
72.3570145151
 20
77.5419253577
 30
0.0
 10
72.6496379833
 20
77.5469666088
 30
0.0
 10
72.8384459108
 20
77.5506564133
 30
0.0
 10
73.006117013
 20
77.554415199
 30
0.0
 10
73.152252909
 20
77.5582305789
 30
0.0
 10
73.2765253697
 20
77.5620838001
 30
0.0
 10
73.3785897485
 20
77.5659613796
 30
0.0
 10
73.4496948415
 20
77.5693954326
 30
0.0
 10
73.4952049047
 20
77.5722717666
 30
0.0
 10
73.5210086442
 20
77.5742590919
 30
0.0
 10
73.540720871
 20
77.5761867838
 30
0.0
 10
73.5557423241
 20
77.5781481863
 30
0.0
 10
73.5632625779
 20
77.579810391
 30
0.0
 10
73.568557448
 20
77.5814458367
 30
0.0
 10
73.568557448
 20
77.5826170804
 30
0.0
  0
ELLIPSE
  5
292
100
AcDbEntity
  8
0
100
AcDbEllipse
 62
7
  6
BYLAYER
 10
23.8686083989
 20
78.2735598745
 30
0.0
 11
0.5657285049
 21
0.5657285049
 31
0.0
 40
0.9999238505
 41
-3.9269527408
 42
-2.3562325664
  0
ELLIPSE
  5
293
100
AcDbEntity
  8
0
100
AcDbEllipse
 62
7
  6
BYLAYER
 10
130.2685474735
 20
78.2735598745
 30
0.0
 11
-0.5657285049
 21
0.5657285049
 31
0.0
 40
0.9999238505
 41
-3.9269527408
 42
-2.3562325664
  0
ELLIPSE
  5
294
100
AcDbEntity
  8
0
100
AcDbEllipse
 62
7
  6
BYLAYER
 10
130.0372854771
 20
78.5048218709
 30
0.0
 11
-0.5657285049
 21
0.5657285049
 31
0.0
 40
0.9999238505
 41
-3.9269527408
 42
-2.3562325664
  0
ELLIPSE
  5
295
100
AcDbEntity
  8
0
100
AcDbEllipse
 62
7
  6
BYLAYER
 10
24.0998703954
 20
78.5048218709
 30
0.0
 11
0.5657285049
 21
0.5657285049
 31
0.0
 40
0.9999238505
 41
2.3562325664
 42
3.9269527408
  0
ENDSEC
  0
SECTION
  2
OBJECTS
  0
DICTIONARY
  5
C
100
AcDbDictionary
280
0
281
1
  3
ACAD_GROUP
350
D
  3
ACAD_MLINESTYLE
350
17
  3
ACAD_LAYOUT
350
1A
  3
ACAD_PLOTSETTINGS
350
19
  3
ACAD_PLOTSTYLENAME
350
E
  0
DICTIONARY
  5
D
102
{ACAD_REACTORS
330
C
102
}
100
AcDbDictionary
280
0
281
1
  0
ACDBDICTIONARYWDFLT
  5
E
102
{ACAD_REACTORS
330
C
102
}
100
AcDbDictionary
281
1
  3
Normal
350
F
100
AcDbDictionaryWithDefault
340
F
  0
DICTIONARY
  5
17
102
{ACAD_REACTORS
330
C
102
}
100
AcDbDictionary
280
0
281
1
  3
Standard
350
18
  0
DICTIONARY
  5
19
102
{ACAD_REACTORS
330
C
102
}
100
AcDbDictionary
281
1
  0
DICTIONARY
  5
1A
102
{ACAD_REACTORS
330
C
102
}
100
AcDbDictionary
281
1
  3
Model
350
296
  3
Layout1
350
297
  0
ACDBPLACEHOLDER
  5
F
102
{ACAD_REACTORS
330
E
102
}
  0
MLINESTYLE
  5
18
102
{ACAD_REACTORS
330
17
102
}
100
AcDbMlineStyle
  2
STANDARD
 70
0
  3

 62
256
 51
90.0
 52
90.0
 71
2
 49
0.5
 62
256
  6
BYLAYER
 49
-0.5
 62
256
  6
BYLAYER
  0
LAYOUT
  5
296
102
{ACAD_REACTORS
330
1A
102
}
100
AcDbPlotSettings
  1

  2
none_device
  4

  6

 40
0.0
 41
0.0
 42
0.0
 43
0.0
 44
210.0
 45
297.0
 46
0.0
 47
0.0
 48
0.0
 49
0.0
140
0.0
141
0.0
142
1.0
143
1.0
 70
1024
 72
1
 73
0
 74
0
  7

 75
0
147
1.0
148
0.0
149
0.0
100
AcDbLayout
  1
Model
 70
0
 71
0
 10
0.0
 20
0.0
 11
210.0
 21
297.0
 12
0.0
 22
0.0
 32
0.0
 14
0.0
 24
0.0
 34
0.0
 15
0.0
 25
0.0
 35
0.0
146
0.0
 13
0.0
 23
0.0
 33
0.0
 16
1.0
 26
0.0
 36
0.0
 17
0.0
 27
1.0
 37
0.0
 76
0
330
210
345
0
346
0
  0
LAYOUT
  5
297
102
{ACAD_REACTORS
330
1A
102
}
100
AcDbPlotSettings
  1

  2
none_device
  4

  6

 40
0.0
 41
0.0
 42
0.0
 43
0.0
 44
210.0
 45
297.0
 46
0.0
 47
0.0
 48
0.0
 49
0.0
140
0.0
141
0.0
142
1.0
143
1.0
 70
0
 72
1
 73
0
 74
0
  7

 75
0
147
1.0
148
0.0
149
0.0
100
AcDbLayout
  1
Layout1
 70
0
 71
1
 10
0.0
 20
0.0
 11
210.0
 21
297.0
 12
0.0
 22
0.0
 32
0.0
 14
0.0
 24
0.0
 34
0.0
 15
0.0
 25
0.0
 35
0.0
146
0.0
 13
0.0
 23
0.0
 33
0.0
 16
1.0
 26
0.0
 36
0.0
 17
0.0
 27
1.0
 37
0.0
 76
0
330
211
345
0
346
0
  0
ENDSEC
  0
EOF
