999
DXF file: C:\Users\sesa63760\Dev\_Creo\CAD\MCADID0004772_3D-CAD\drw0001_4.dxf
999
Pro/ENGINEER 2019471 by Parametric Technology Corporation
  0
SECTION
  2
HEADER
  9
$ACADVER
  1
AC1024
  9
$DWGCODEPAGE
  3
ANSI_1252
  9
$EXTMAX
 10
41.0847701149
 20
58.1056034483
 30
0.0
  9
$EXTMIN
 10
0.0
 20
0.0
 30
0.0
  9
$LIMMIN
 10
0.0
 20
0.0
  9
$LIMMAX
 10
41.0847701149
 20
58.1056034483
  9
$VIEWCTR
 10
20.5423850575
 20
29.0528017241
  9
$VIEWSIZE
 40
58.1056034483
  9
$CLAYER
  8
0
  9
$LTSCALE
 40
3.7876245211
  9
$CELTYPE
  6
BYLAYER
  9
$DIMSCALE
 40
1.0
  9
$DIMASZ
 40
0.4891044061
  9
$DIMEXO
 40
1.0
  9
$DIMDLI
 40
2.6169042146
  9
$DIMEXE
 40
1.0
  9
$DIMCEN
 40
0.6197931034
  9
$DIMLFAC
 40
1.0
  9
$DIMBLK
  1
_FILLED
  9
$DIMALT
 70
0
  9
$DIMALTF
 40
0.0393700787
  9
$DIMTXT
 40
0.6847461686
  9
$DIMTOL
 70
1
  9
$DIMLIM
 70
0
  9
$DIMTFAC
 40
1.0
  9
$DIMTP
 40
0.01
  9
$DIMTM
 40
0.01
  9
$DIMGAP
 40
0.625
  9
$DIMDSEP
 70
46
  9
$AUNITS
 70
0
  9
$PDMODE
 70
3
  9
$PDSIZE
 40
0.3125
  9
$HANDSEED
  5
296
  9
$TILEMODE
 70
1
  9
$MEASUREMENT
 70
1
  9
$INSUNITS
 70
4
  0
ENDSEC
  0
SECTION
  2
CLASSES
  0
CLASS
  1
ACDBDICTIONARYWDFLT
  2
AcDbDictionaryWithDefault
  3
AutoCAD 2000
 90
0
 91
1
280
0
281
0
  0
CLASS
  1
ACDBPLACEHOLDER
  2
AcDbPlaceHolder
  3
AutoCAD 2000
 90
0
 91
1
280
0
281
0
  0
CLASS
  1
LAYOUT
  2
AcDbLayout
  3
AutoCAD 2000
 90
0
 91
0
280
0
281
0
  0
ENDSEC
  0
SECTION
  2
TABLES
  0
TABLE
  2
VPORT
  5
8
100
AcDbSymbolTable
 70
2
  0
VPORT
  5
1F4
100
AcDbSymbolTableRecord
100
AcDbViewportTableRecord
  2
*ACTIVE
 70
0
 10
0.0
 20
0.0
 11
1.0
 21
1.0
 12
20.5423850575
 22
29.0528017241
 13
0.0
 23
0.0
 14
1.0
 24
1.0
 15
0.0
 25
0.0
 16
0.0
 26
0.0
 36
1.0
 17
0.0
 27
0.0
 37
0.0
 40
58.1056034483
 41
0.7070707071
 42
50.0
 43
0.0
 44
0.0
 50
0.0
 51
0.0
 71
0
 72
100
 73
1
 74
1
 75
0
 76
0
 77
0
 78
0
  0
ENDTAB
  0
TABLE
  2
LTYPE
  5
5
100
AcDbSymbolTable
 70
6
  0
LTYPE
  5
14
100
AcDbSymbolTableRecord
100
AcDbLinetypeTableRecord
  2
BYBLOCK
 70
0
  3

 72
65
 73
0
 40
0.0
  0
LTYPE
  5
15
100
AcDbSymbolTableRecord
100
AcDbLinetypeTableRecord
  2
BYLAYER
 70
0
  3

 72
65
 73
0
 40
0.0
  0
LTYPE
  5
16
100
AcDbSymbolTableRecord
100
AcDbLinetypeTableRecord
  2
CONTINUOUS
 70
64
  3
Solid line
 72
65
 73
0
 40
0.0
  0
LTYPE
  5
1F5
100
AcDbSymbolTableRecord
100
AcDbLinetypeTableRecord
  2
CENTER
 70
64
  3
____ _ ____ _ ____ _ ____ _ ____ _ ____ _ ____
 72
65
 73
4
 40
0.6
 49
0.375
 74
0
 49
-0.075
 74
0
 49
0.075
 74
0
 49
-0.075
 74
0
  0
LTYPE
  5
1F6
100
AcDbSymbolTableRecord
100
AcDbLinetypeTableRecord
  2
HIDDEN
 70
64
  3
- - - - - - - - - - - - - - - - - - - -
 72
65
 73
2
 40
0.2
 49
0.1
 74
0
 49
-0.1
 74
0
  0
LTYPE
  5
1F7
100
AcDbSymbolTableRecord
100
AcDbLinetypeTableRecord
  2
PHANTOM
 70
64
  3
_____ _ _ _____ _ _ _____ _ _ _____
 72
65
 73
6
 40
0.8
 49
0.45
 74
0
 49
-0.05
 74
0
 49
0.1
 74
0
 49
-0.05
 74
0
 49
0.1
 74
0
 49
-0.05
 74
0
  0
LTYPE
  5
1F8
100
AcDbSymbolTableRecord
100
AcDbLinetypeTableRecord
  2
DOT
 70
64
  3
. . . . . . . . . . . . . . . . . . . .
 72
65
 73
2
 40
0.2
 49
0.1
 74
0
 49
-0.1
 74
0
  0
LTYPE
  5
1F9
100
AcDbSymbolTableRecord
100
AcDbLinetypeTableRecord
  2
DASHED
 70
64
  3
- - - - - - - - - - - - - - - - - - - -
 72
65
 73
2
 40
0.2
 49
0.1
 74
0
 49
-0.1
 74
0
  0
ENDTAB
  0
TABLE
  2
LAYER
  5
2
100
AcDbSymbolTable
 70
36
  0
LAYER
  5
10
100
AcDbSymbolTableRecord
100
AcDbLayerTableRecord
  2
0
 70
0
 62
7
  6
CONTINUOUS
370
-3
390
F
  0
LAYER
  5
1FA
100
AcDbSymbolTableRecord
100
AcDbLayerTableRecord
  2
DEFAULT_1
 70
0
 62
7
  6
CENTER
370
-3
390
F
  0
LAYER
  5
1FB
100
AcDbSymbolTableRecord
100
AcDbLayerTableRecord
  2
DEFAULT_2
 70
0
 62
7
  6
HIDDEN
370
-3
390
F
  0
LAYER
  5
1FC
100
AcDbSymbolTableRecord
100
AcDbLayerTableRecord
  2
DEFAULT_3
 70
0
 62
7
  6
PHANTOM
370
-3
390
F
  0
LAYER
  5
1FD
100
AcDbSymbolTableRecord
100
AcDbLayerTableRecord
  2
00_COMPONENTS
 70
0
 62
7
  6
CONTINUOUS
370
-3
390
F
  0
LAYER
  5
1FE
100
AcDbSymbolTableRecord
100
AcDbLayerTableRecord
  2
01_1_DEFAULT_DATUMS
 70
0
 62
7
  6
CONTINUOUS
370
-3
390
F
  0
LAYER
  5
1FF
100
AcDbSymbolTableRecord
100
AcDbLayerTableRecord
  2
01_PLANES
 70
0
 62
7
  6
CONTINUOUS
370
-3
390
F
  0
LAYER
  5
200
100
AcDbSymbolTableRecord
100
AcDbLayerTableRecord
  2
02_COORD_SYS
 70
0
 62
7
  6
CONTINUOUS
370
-3
390
F
  0
LAYER
  5
201
100
AcDbSymbolTableRecord
100
AcDbLayerTableRecord
  2
03_AXES
 70
0
 62
7
  6
CONTINUOUS
370
-3
390
F
  0
LAYER
  5
202
100
AcDbSymbolTableRecord
100
AcDbLayerTableRecord
  2
04_POINTS
 70
0
 62
7
  6
CONTINUOUS
370
-3
390
F
  0
LAYER
  5
203
100
AcDbSymbolTableRecord
100
AcDbLayerTableRecord
  2
05_CURVES
 70
0
 62
7
  6
CONTINUOUS
370
-3
390
F
  0
LAYER
  5
204
100
AcDbSymbolTableRecord
100
AcDbLayerTableRecord
  2
06_SURFS
 70
0
 62
7
  6
CONTINUOUS
370
-3
390
F
  0
LAYER
  5
205
100
AcDbSymbolTableRecord
100
AcDbLayerTableRecord
  2
07_COSMETICS
 70
0
 62
7
  6
CONTINUOUS
370
-3
390
F
  0
LAYER
  5
206
100
AcDbSymbolTableRecord
100
AcDbLayerTableRecord
  2
10_NOTES
 70
0
 62
7
  6
CONTINUOUS
370
-3
390
F
  0
LAYER
  5
207
100
AcDbSymbolTableRecord
100
AcDbLayerTableRecord
  2
11_NOTES_PUB
 70
0
 62
7
  6
CONTINUOUS
370
-3
390
F
  0
LAYER
  5
208
100
AcDbSymbolTableRecord
100
AcDbLayerTableRecord
  2
13_REF_GTOL
 70
0
 62
7
  6
CONTINUOUS
370
-3
390
F
  0
LAYER
  5
209
100
AcDbSymbolTableRecord
100
AcDbLayerTableRecord
  2
16_MISC
 70
0
 62
7
  6
CONTINUOUS
370
-3
390
F
  0
LAYER
  5
20A
100
AcDbSymbolTableRecord
100
AcDbLayerTableRecord
  2
17_NO_PRINT
 70
0
 62
7
  6
CONTINUOUS
370
-3
390
F
  0
LAYER
  5
20B
100
AcDbSymbolTableRecord
100
AcDbLayerTableRecord
  2
18_DATUM_CAMS_JOINTS
 70
0
 62
7
  6
CONTINUOUS
370
-3
390
F
  0
LAYER
  5
20C
100
AcDbSymbolTableRecord
100
AcDbLayerTableRecord
  2
19_DATUM_FUNCTIONAL
 70
0
 62
7
  6
CONTINUOUS
370
-3
390
F
  0
LAYER
  5
20D
100
AcDbSymbolTableRecord
100
AcDbLayerTableRecord
  2
20_DATUM_KINEMATIC_SCHEME
 70
0
 62
7
  6
CONTINUOUS
370
-3
390
F
  0
ENDTAB
  0
TABLE
  2
STYLE
  5
3
100
AcDbSymbolTable
 70
1
  0
STYLE
  5
11
100
AcDbSymbolTableRecord
100
AcDbTextStyleTableRecord
  2
STANDARD
 70
0
 40
0.0
 41
1.0
 50
0.0
 71
0
 42
0.2
  3
ARIAL.TTF
  4

  0
STYLE
  5
20E
100
AcDbSymbolTableRecord
100
AcDbTextStyleTableRecord
  2
TEXTSTYLE_1
 70
0
 40
0.0
 41
0.8
 50
0.0
 71
0
 42
0.2
  3
gdt
  4

  0
ENDTAB
  0
TABLE
  2
VIEW
  5
6
100
AcDbSymbolTable
 70
0
  0
ENDTAB
  0
TABLE
  2
UCS
  5
7
100
AcDbSymbolTable
 70
0
  0
ENDTAB
  0
TABLE
  2
APPID
  5
9
100
AcDbSymbolTable
 70
1
  0
APPID
  5
20F
100
AcDbSymbolTableRecord
100
AcDbRegAppTableRecord
  2
ACAD
 70
0
  0
ENDTAB
  0
TABLE
  2
BLOCK_RECORD
  5
1
100
AcDbSymbolTable
 70
0
  0
BLOCK_RECORD
  5
210
100
AcDbSymbolTableRecord
100
AcDbBlockTableRecord
  2
*Model_Space
  0
BLOCK_RECORD
  5
211
100
AcDbSymbolTableRecord
100
AcDbBlockTableRecord
  2
*Paper_Space
  0
BLOCK_RECORD
  5
212
100
AcDbSymbolTableRecord
100
AcDbBlockTableRecord
  2
_FILLED
  0
ENDTAB
  0
TABLE
  2
DIMSTYLE
  5
A
100
AcDbSymbolTable
 70
1
100
AcDbDimStyleTable
 71
0
  0
DIMSTYLE
105
213
100
AcDbSymbolTableRecord
100
AcDbDimStyleTableRecord
  2
STANDARD
 70
0
  3

  4

 40
1.0
 41
0.4891044061
 42
1.0
 43
0.38
 44
1.0
 45
0.0
 46
0.0
 47
0.01
 48
0.01
140
0.6847461686
141
0.09
142
0.0
143
25.4
144
1.0
145
0.0
146
1.0
147
0.625
 71
1
 72
0
 73
0
 74
0
 75
0
 76
0
 77
1
 78
8
 79
2
170
0
171
1
172
0
173
0
174
0
175
0
176
0
177
0
178
0
270
2
179
2
271
2
272
2
273
2
274
2
275
0
280
0
281
0
282
0
283
1
284
8
285
0
286
0
287
3
288
0
340
11
278
46
341
212
342
212
343
212
344
212
  0
ENDTAB
  0
ENDSEC
  0
SECTION
  2
BLOCKS
  0
BLOCK
  5
20
100
AcDbEntity
  8
0
100
AcDbBlockBegin
  2
*Model_Space
 70
0
 10
0.0
 20
0.0
 30
0.0
  3
*Model_Space
  1

  0
ENDBLK
  5
21
100
AcDbEntity
  8
0
100
AcDbBlockEnd
  0
BLOCK
  5
1C
100
AcDbEntity
  8
0
100
AcDbBlockBegin
  2
*Paper_Space
 70
0
 10
0.0
 20
0.0
 30
0.0
  3
*Paper_Space
  1

  0
ENDBLK
  5
1D
100
AcDbEntity
  8
0
100
AcDbBlockEnd
  0
BLOCK
  5
214
100
AcDbEntity
  8
0
100
AcDbBlockBegin
  2
_FILLED
 70
64
 10
0.0
 20
0.0
  3
_FILLED
  1

  0
SOLID
  5
215
100
AcDbEntity
  8
0
  6
BYBLOCK
 62
0
100
AcDbTrace
 10
0.0
 20
0.0
 11
-1.0
 21
0.25
 12
-1.0
 22
-0.25
 13
-1.0
 23
-0.25
  0
ENDBLK
  5
216
100
AcDbEntity
  8
0
  6
BYBLOCK
 62
0
100
AcDbBlockEnd
  0
ENDSEC
  0
SECTION
  2
ENTITIES
  0
LINE
  5
217
100
AcDbEntity
  8
0
100
AcDbLine
 62
7
  6
BYLAYER
 10
4.5757902299
 20
13.8750000009
 11
4.5757902299
 21
43.8749999996
  0
LINE
  5
218
100
AcDbEntity
  8
0
100
AcDbLine
 62
7
  6
BYLAYER
 10
4.7757905522
 20
43.8750024421
 11
4.7757905522
 21
13.8750122089
  0
LINE
  5
219
100
AcDbEntity
  8
0
100
AcDbLine
 62
7
  6
BYLAYER
 10
6.0757902303
 20
12.375
 11
36.075790229
 21
12.375
  0
LINE
  5
21A
100
AcDbEntity
  8
0
100
AcDbLine
 62
7
  6
BYLAYER
 10
6.0757877877
 20
12.5750003224
 11
36.075778021
 21
12.5750003224
  0
LINE
  5
21B
100
AcDbEntity
  8
0
100
AcDbLine
 62
7
  6
BYLAYER
 10
6.0757902299
 20
12.375
 11
6.0757902299
 21
12.575
  0
LINE
  5
21C
100
AcDbEntity
  8
0
100
AcDbLine
 62
7
  6
BYLAYER
 10
6.0757902299
 20
45.175
 11
6.0757902299
 21
45.375
  0
LINE
  5
21D
100
AcDbEntity
  8
0
100
AcDbLine
 62
7
  6
BYLAYER
 10
37.5757902299
 20
13.875
 11
37.3757902299
 21
13.875
  0
LINE
  5
21E
100
AcDbEntity
  8
0
100
AcDbLine
 62
7
  6
BYLAYER
 10
4.7757902299
 20
13.875
 11
4.5757902299
 21
13.875
  0
LINE
  5
21F
100
AcDbEntity
  8
0
100
AcDbLine
 62
7
  6
BYLAYER
 10
10.0920522505
 20
20.475
 11
10.0920522505
 21
20.275002333
  0
LINE
  5
220
100
AcDbEntity
  8
0
100
AcDbLine
 62
7
  6
BYLAYER
 10
10.0920373261
 20
37.275
 11
10.0920641564
 21
37.474997713
  0
LINE
  5
221
100
AcDbEntity
  8
0
100
AcDbLine
 62
7
  6
BYLAYER
 10
29.4757902299
 20
17.8912620206
 11
29.6757878994
 21
17.8912620206
  0
LINE
  5
222
100
AcDbEntity
  8
0
100
AcDbLine
 62
7
  6
BYLAYER
 10
12.6757902299
 20
17.8912470794
 11
12.4757925194
 21
17.8912739396
  0
LINE
  5
223
100
AcDbEntity
  8
0
100
AcDbLine
 62
7
  6
BYLAYER
 10
12.4757948907
 20
39.8587227588
 11
12.4757803729
 21
45.375
  0
LINE
  5
224
100
AcDbEntity
  8
0
100
AcDbLine
 62
7
  6
BYLAYER
 10
12.4757794164
 20
12.375
 11
12.4757948958
 21
17.8912772579
  0
LINE
  5
225
100
AcDbEntity
  8
0
100
AcDbLine
 62
7
  6
BYLAYER
 10
12.6757902299
 20
17.8912620209
 11
12.6757902299
 21
12.5749985177
  0
LINE
  5
226
100
AcDbEntity
  8
0
100
AcDbLine
 62
7
  6
BYLAYER
 10
12.6757902299
 20
39.8587398307
 11
12.6757902299
 21
45.1750010613
  0
LINE
  5
227
100
AcDbEntity
  8
0
100
AcDbLine
 62
7
  6
BYLAYER
 10
12.8757909504
 20
17.5895058339
 11
12.8757902299
 21
12.375
  0
LINE
  5
228
100
AcDbEntity
  8
0
100
AcDbLine
 62
7
  6
BYLAYER
 10
12.8757902299
 20
45.375
 11
12.8757916899
 21
40.160494419
  0
LINE
  5
229
100
AcDbEntity
  8
0
100
AcDbLine
 62
7
  6
BYLAYER
 10
10.0920674878
 20
20.2750046659
 11
4.5757902299
 21
20.274990143
  0
LINE
  5
22A
100
AcDbEntity
  8
0
100
AcDbLine
 62
7
  6
BYLAYER
 10
37.5757902299
 20
20.2749891865
 11
32.0595129886
 21
20.2750046608
  0
LINE
  5
22B
100
AcDbEntity
  8
0
100
AcDbLine
 62
7
  6
BYLAYER
 10
10.0920503995
 20
20.475
 11
4.7757891686
 21
20.475
  0
LINE
  5
22C
100
AcDbEntity
  8
0
100
AcDbLine
 62
7
  6
BYLAYER
 10
32.059528209
 20
20.475
 11
37.3757917121
 21
20.475
  0
LINE
  5
22D
100
AcDbEntity
  8
0
100
AcDbLine
 62
7
  6
BYLAYER
 10
37.5757902299
 20
20.675
 11
32.3612897765
 21
20.675000001
  0
LINE
  5
22E
100
AcDbEntity
  8
0
100
AcDbLine
 62
7
  6
BYLAYER
 10
4.5757902299
 20
20.675
 11
9.790290215
 21
20.6750007404
  0
LINE
  5
22F
100
AcDbEntity
  8
0
100
AcDbLine
 62
7
  6
BYLAYER
 10
29.2757873505
 20
40.1604955847
 11
29.1582275051
 21
39.9987002698
  0
LINE
  5
230
100
AcDbEntity
  8
0
100
AcDbLine
 62
7
  6
BYLAYER
 10
12.8757931093
 20
17.5895044153
 11
12.9933529547
 21
17.7512997302
  0
LINE
  5
231
100
AcDbEntity
  8
0
100
AcDbLine
 62
7
  6
BYLAYER
 10
12.5990877206
 20
18.0487349661
 11
12.4757995618
 21
17.8912739391
  0
LINE
  5
232
100
AcDbEntity
  8
0
100
AcDbLine
 62
7
  6
BYLAYER
 10
29.5524927392
 20
39.7012650339
 11
29.675780898
 21
39.8587260609
  0
LINE
  5
233
100
AcDbEntity
  8
0
100
AcDbLine
 62
7
  6
BYLAYER
 10
10.2495251964
 20
20.398297491
 11
10.092064169
 21
20.2750093319
  0
LINE
  5
234
100
AcDbEntity
  8
0
100
AcDbLine
 62
7
  6
BYLAYER
 10
31.9020552633
 20
37.351702509
 11
32.0595162908
 21
37.4749906681
  0
LINE
  5
235
100
AcDbEntity
  8
0
100
AcDbLine
 62
7
  6
BYLAYER
 10
32.3612908181
 20
37.0749985654
 11
32.1994915265
 21
36.957435862
  0
LINE
  5
236
100
AcDbEntity
  8
0
100
AcDbLine
 62
7
  6
BYLAYER
 10
9.7902896416
 20
20.6750014346
 11
9.9520889332
 21
20.792564138
  0
LINE
  5
237
100
AcDbEntity
  8
0
100
AcDbLine
 62
7
  6
BYLAYER
 10
32.3612897765
 20
20.675000001
 11
32.1994904999
 21
20.792562725
  0
LINE
  5
238
100
AcDbEntity
  8
0
100
AcDbLine
 62
7
  6
BYLAYER
 10
9.7902906833
 20
37.074999999
 11
9.9520899599
 21
36.957437275
  0
LINE
  5
239
100
AcDbEntity
  8
0
100
AcDbLine
 62
7
  6
BYLAYER
 10
31.9020552638
 20
20.3982974907
 11
32.0595163038
 21
20.2750093217
  0
LINE
  5
23A
100
AcDbEntity
  8
0
100
AcDbLine
 62
7
  6
BYLAYER
 10
10.249525196
 20
37.3517025093
 11
10.0920641559
 21
37.4749906783
  0
LINE
  5
23B
100
AcDbEntity
  8
0
100
AcDbLine
 62
7
  6
BYLAYER
 10
29.5524927388
 20
18.0487349665
 11
29.6757809082
 21
17.8912739261
  0
LINE
  5
23C
100
AcDbEntity
  8
0
100
AcDbLine
 62
7
  6
BYLAYER
 10
12.5990877209
 20
39.7012650335
 11
12.4757995516
 21
39.8587260739
  0
LINE
  5
23D
100
AcDbEntity
  8
0
100
AcDbLine
 62
7
  6
BYLAYER
 10
12.875794543
 20
40.1604966264
 11
12.9933543678
 21
39.9987012966
  0
LINE
  5
23E
100
AcDbEntity
  8
0
100
AcDbLine
 62
7
  6
BYLAYER
 10
29.2757859168
 20
17.5895033736
 11
29.158226092
 21
17.7512987034
  0
LINE
  5
23F
100
AcDbEntity
  8
0
100
AcDbLine
 62
7
  6
BYLAYER
 10
29.2757902299
 20
45.375
 11
29.2757895093
 21
40.1604941661
  0
LINE
  5
240
100
AcDbEntity
  8
0
100
AcDbLine
 62
7
  6
BYLAYER
 10
29.2757887699
 20
17.589505581
 11
29.2757902299
 21
12.375
  0
LINE
  5
241
100
AcDbEntity
  8
0
100
AcDbLine
 62
7
  6
BYLAYER
 10
29.4757902299
 20
17.8912601694
 11
29.4757902299
 21
12.5749989387
  0
LINE
  5
242
100
AcDbEntity
  8
0
100
AcDbLine
 62
7
  6
BYLAYER
 10
29.4757902299
 20
39.8587379791
 11
29.4757902299
 21
45.1750014823
  0
LINE
  5
243
100
AcDbEntity
  8
0
100
AcDbLine
 62
7
  6
BYLAYER
 10
29.6758010592
 20
45.375
 11
29.6757855639
 21
39.8587227421
  0
LINE
  5
244
100
AcDbEntity
  8
0
100
AcDbLine
 62
7
  6
BYLAYER
 10
29.675785569
 20
17.8912772412
 11
29.6758001141
 21
12.375
  0
LINE
  5
245
100
AcDbEntity
  8
0
100
AcDbLine
 62
7
  6
BYLAYER
 10
4.5757902299
 20
37.075
 11
9.7902906833
 21
37.074999999
  0
LINE
  5
246
100
AcDbEntity
  8
0
100
AcDbLine
 62
7
  6
BYLAYER
 10
32.3612902447
 20
37.0749992596
 11
37.5757902299
 21
37.075
  0
LINE
  5
247
100
AcDbEntity
  8
0
100
AcDbLine
 62
7
  6
BYLAYER
 10
10.0920522508
 20
37.275
 11
4.7757887475
 21
37.275
  0
LINE
  5
248
100
AcDbEntity
  8
0
100
AcDbLine
 62
7
  6
BYLAYER
 10
32.0595300606
 20
37.275
 11
37.3757912912
 21
37.275
  0
LINE
  5
249
100
AcDbEntity
  8
0
100
AcDbLine
 62
7
  6
BYLAYER
 10
4.5757902299
 20
37.4750108293
 11
10.0920674711
 21
37.4749953392
  0
LINE
  5
24A
100
AcDbEntity
  8
0
100
AcDbLine
 62
7
  6
BYLAYER
 10
32.059512972
 20
37.4749953341
 11
37.5757902299
 21
37.4750098843
  0
LINE
  5
24B
100
AcDbEntity
  8
0
100
AcDbLine
 62
7
  6
BYLAYER
 10
32.0595282093
 20
37.275
 11
32.0595282093
 21
37.474997667
  0
LINE
  5
24C
100
AcDbEntity
  8
0
100
AcDbLine
 62
7
  6
BYLAYER
 10
32.0595431338
 20
20.475
 11
32.0595163033
 21
20.275002287
  0
LINE
  5
24D
100
AcDbEntity
  8
0
100
AcDbLine
 62
7
  6
BYLAYER
 10
12.6757902299
 20
39.8587379794
 11
12.4757925604
 21
39.8587379794
  0
LINE
  5
24E
100
AcDbEntity
  8
0
100
AcDbLine
 62
7
  6
BYLAYER
 10
29.4757902299
 20
39.8587529206
 11
29.6757879404
 21
39.8587260604
  0
LINE
  5
24F
100
AcDbEntity
  8
0
100
AcDbLine
 62
7
  6
BYLAYER
 10
36.0757902299
 20
45.375
 11
36.0757902299
 21
45.175
  0
LINE
  5
250
100
AcDbEntity
  8
0
100
AcDbLine
 62
7
  6
BYLAYER
 10
36.0757902299
 20
12.575
 11
36.0757902299
 21
12.375
  0
LINE
  5
251
100
AcDbEntity
  8
0
100
AcDbLine
 62
7
  6
BYLAYER
 10
4.5757902299
 20
43.875
 11
4.7757902299
 21
43.875
  0
LINE
  5
252
100
AcDbEntity
  8
0
100
AcDbLine
 62
7
  6
BYLAYER
 10
37.3757902299
 20
43.875
 11
37.5757902299
 21
43.875
  0
LINE
  5
253
100
AcDbEntity
  8
0
100
AcDbLine
 62
7
  6
BYLAYER
 10
37.3757899075
 20
13.8749975578
 11
37.3757899075
 21
43.8749877911
  0
LINE
  5
254
100
AcDbEntity
  8
0
100
AcDbLine
 62
7
  6
BYLAYER
 10
37.5757902299
 20
13.8750000004
 11
37.5757902299
 21
43.8749999991
  0
LINE
  5
255
100
AcDbEntity
  8
0
100
AcDbLine
 62
7
  6
BYLAYER
 10
36.0757926721
 20
45.1749996776
 11
6.0758024388
 21
45.1749996776
  0
LINE
  5
256
100
AcDbEntity
  8
0
100
AcDbLine
 62
7
  6
BYLAYER
 10
6.0757902307
 20
45.375
 11
36.0757902295
 21
45.375
  0
CIRCLE
  5
257
100
AcDbEntity
  8
0
100
AcDbCircle
 62
7
  6
BYLAYER
 10
9.0757902299
 20
16.875
 40
2.15
  0
CIRCLE
  5
258
100
AcDbEntity
  8
0
100
AcDbCircle
 62
7
  6
BYLAYER
 10
9.0757902299
 20
16.875
 40
2.0
  0
CIRCLE
  5
259
100
AcDbEntity
  8
0
100
AcDbCircle
 62
7
  6
BYLAYER
 10
9.0757902299
 20
16.875
 40
1.6
  0
ARC
  5
25A
100
AcDbEntity
  8
0
100
AcDbCircle
 62
7
  6
BYLAYER
 10
6.0757902299
 20
13.875
 40
1.5
100
AcDbArc
 50
179.9999999672
 51
270.0
  0
ARC
  5
25B
100
AcDbEntity
  8
0
100
AcDbCircle
 62
7
  6
BYLAYER
 10
6.0757902299
 20
13.875
 40
1.2999990329
100
AcDbArc
 50
179.9994619088
 51
269.9998923642
  0
ARC
  5
25C
100
AcDbEntity
  8
0
100
AcDbCircle
 62
7
  6
BYLAYER
 10
10.0920522505
 20
20.275
 40
0.2
100
AcDbArc
 50
38.0600811131
 51
90.0003732526
  0
ARC
  5
25D
100
AcDbEntity
  8
0
100
AcDbCircle
 62
7
  6
BYLAYER
 10
4.7757902299
 20
20.675
 40
0.2
100
AcDbArc
 50
180.0001330858
 51
270.0
  0
ARC
  5
25E
100
AcDbEntity
  8
0
100
AcDbCircle
 62
7
  6
BYLAYER
 10
12.4757902299
 20
17.8912620206
 40
0.2
100
AcDbArc
 50
0.0000000517
 51
51.9399188869
  0
ARC
  5
25F
100
AcDbEntity
  8
0
100
AcDbCircle
 62
7
  6
BYLAYER
 10
12.8757902299
 20
12.575
 40
0.2
100
AcDbArc
 50
180.0009479251
 51
270.0
  0
CIRCLE
  5
260
100
AcDbEntity
  8
0
100
AcDbCircle
 62
7
  6
BYLAYER
 10
9.0757902299
 20
40.875
 40
2.15
  0
CIRCLE
  5
261
100
AcDbEntity
  8
0
100
AcDbCircle
 62
7
  6
BYLAYER
 10
9.0757902299
 20
40.875
 40
2.0
  0
CIRCLE
  5
262
100
AcDbEntity
  8
0
100
AcDbCircle
 62
7
  6
BYLAYER
 10
9.0757902299
 20
40.875
 40
1.6
  0
ARC
  5
263
100
AcDbEntity
  8
0
100
AcDbCircle
 62
7
  6
BYLAYER
 10
6.0757902299
 20
43.875
 40
1.5
100
AcDbArc
 50
89.9999999672
 51
180.0
  0
ARC
  5
264
100
AcDbEntity
  8
0
100
AcDbCircle
 62
7
  6
BYLAYER
 10
6.0757902299
 20
43.875
 40
1.2999990329
100
AcDbArc
 50
89.9994619088
 51
179.9998923658
  0
ARC
  5
265
100
AcDbEntity
  8
0
100
AcDbCircle
 62
7
  6
BYLAYER
 10
10.0920522505
 20
37.475
 40
0.2
100
AcDbArc
 50
270.0000000517
 51
321.9399188869
  0
ARC
  5
266
100
AcDbEntity
  8
0
100
AcDbCircle
 62
7
  6
BYLAYER
 10
12.8757902299
 20
45.175
 40
0.2
100
AcDbArc
 50
90.0001330857
 51
180.0
  0
ARC
  5
267
100
AcDbEntity
  8
0
100
AcDbCircle
 62
7
  6
BYLAYER
 10
12.4757902299
 20
39.8587379794
 40
0.2
100
AcDbArc
 50
308.0600811131
 51
0.0003733017
  0
ARC
  5
268
100
AcDbEntity
  8
0
100
AcDbCircle
 62
7
  6
BYLAYER
 10
4.7757902299
 20
37.075
 40
0.2
100
AcDbArc
 50
90.0009486505
 51
180.0
  0
CIRCLE
  5
269
100
AcDbEntity
  8
0
100
AcDbCircle
 62
7
  6
BYLAYER
 10
33.0757902299
 20
16.875
 40
2.15
  0
CIRCLE
  5
26A
100
AcDbEntity
  8
0
100
AcDbCircle
 62
7
  6
BYLAYER
 10
33.0757902299
 20
16.875
 40
2.0
  0
CIRCLE
  5
26B
100
AcDbEntity
  8
0
100
AcDbCircle
 62
7
  6
BYLAYER
 10
33.0757902299
 20
16.875
 40
1.6
  0
ARC
  5
26C
100
AcDbEntity
  8
0
100
AcDbCircle
 62
7
  6
BYLAYER
 10
36.0757902299
 20
13.875
 40
1.5
100
AcDbArc
 50
269.9999999672
 51
360.0
  0
ARC
  5
26D
100
AcDbEntity
  8
0
100
AcDbCircle
 62
7
  6
BYLAYER
 10
36.0757902299
 20
13.875
 40
1.2999990329
100
AcDbArc
 50
269.9994619088
 51
359.9998923646
  0
ARC
  5
26E
100
AcDbEntity
  8
0
100
AcDbCircle
 62
7
  6
BYLAYER
 10
29.6757902299
 20
17.8912620206
 40
0.2
100
AcDbArc
 50
128.0600811131
 51
180.0003732851
  0
ARC
  5
26F
100
AcDbEntity
  8
0
100
AcDbCircle
 62
7
  6
BYLAYER
 10
29.2757902299
 20
12.575
 40
0.2
100
AcDbArc
 50
270.0001330861
 51
360.0
  0
ARC
  5
270
100
AcDbEntity
  8
0
100
AcDbCircle
 62
7
  6
BYLAYER
 10
32.0595282093
 20
20.275
 40
0.2
100
AcDbArc
 50
90.0000000517
 51
141.9399188869
  0
ARC
  5
271
100
AcDbEntity
  8
0
100
AcDbCircle
 62
7
  6
BYLAYER
 10
37.3757902299
 20
20.675
 40
0.2
100
AcDbArc
 50
270.0009478887
 51
360.0
  0
ARC
  5
272
100
AcDbEntity
  8
0
100
AcDbCircle
 62
7
  6
BYLAYER
 10
21.0757902299
 20
28.875
 40
13.95
100
AcDbArc
 50
323.9979909315
 51
36.0020054813
  0
ARC
  5
273
100
AcDbEntity
  8
0
100
AcDbCircle
 62
7
  6
BYLAYER
 10
21.0757902299
 20
28.875
 40
13.95
100
AcDbArc
 50
143.9979909315
 51
216.0020054813
  0
ARC
  5
274
100
AcDbEntity
  8
0
100
AcDbCircle
 62
7
  6
BYLAYER
 10
21.0757902299
 20
28.875
 40
13.9499951029
100
AcDbArc
 50
233.9979803323
 51
306.0020166004
  0
ARC
  5
275
100
AcDbEntity
  8
0
100
AcDbCircle
 62
7
  6
BYLAYER
 10
21.0757902299
 20
28.875
 40
13.9499951029
100
AcDbArc
 50
53.9979803323
 51
126.0020166004
  0
ARC
  5
276
100
AcDbEntity
  8
0
100
AcDbCircle
 62
7
  6
BYLAYER
 10
21.0757902299
 20
28.875
 40
13.9499848794
100
AcDbArc
 50
128.0601045799
 51
141.9398954201
  0
ARC
  5
277
100
AcDbEntity
  8
0
100
AcDbCircle
 62
7
  6
BYLAYER
 10
21.0757902299
 20
28.875
 40
13.9499848794
100
AcDbArc
 50
308.0601045799
 51
321.9398954201
  0
ARC
  5
278
100
AcDbEntity
  8
0
100
AcDbCircle
 62
7
  6
BYLAYER
 10
21.0757902299
 20
28.875
 40
13.9499848629
100
AcDbArc
 50
218.0601046056
 51
231.9398953945
  0
ARC
  5
279
100
AcDbEntity
  8
0
100
AcDbCircle
 62
7
  6
BYLAYER
 10
21.0757902299
 20
28.875
 40
13.9499848629
100
AcDbArc
 50
38.0601046056
 51
51.9398953945
  0
CIRCLE
  5
27A
100
AcDbEntity
  8
0
100
AcDbCircle
 62
7
  6
BYLAYER
 10
21.0757902299
 20
28.875
 40
13.75
  0
CIRCLE
  5
27B
100
AcDbEntity
  8
0
100
AcDbCircle
 62
7
  6
BYLAYER
 10
21.0757902299
 20
28.875
 40
12.5
  0
CIRCLE
  5
27C
100
AcDbEntity
  8
0
100
AcDbCircle
 62
7
  6
BYLAYER
 10
21.0757902299
 20
28.875
 40
11.9999999184
  0
CIRCLE
  5
27D
100
AcDbEntity
  8
0
100
AcDbCircle
 62
7
  6
BYLAYER
 10
21.0757902299
 20
28.875
 40
7.4999997878
  0
CIRCLE
  5
27E
100
AcDbEntity
  8
0
100
AcDbCircle
 62
7
  6
BYLAYER
 10
21.0757902299
 20
28.875
 40
7.0
  0
CIRCLE
  5
27F
100
AcDbEntity
  8
0
100
AcDbCircle
 62
7
  6
BYLAYER
 10
21.0757902299
 20
28.875
 40
6.0
  0
CIRCLE
  5
280
100
AcDbEntity
  8
0
100
AcDbCircle
 62
7
  6
BYLAYER
 10
21.0757902299
 20
28.875
 40
5.5
  0
CIRCLE
  5
281
100
AcDbEntity
  8
0
100
AcDbCircle
 62
7
  6
BYLAYER
 10
21.0757902299
 20
28.875
 40
4.0
  0
CIRCLE
  5
282
100
AcDbEntity
  8
0
100
AcDbCircle
 62
7
  6
BYLAYER
 10
21.0757902299
 20
28.875
 40
3.4999999716
  0
CIRCLE
  5
283
100
AcDbEntity
  8
0
100
AcDbCircle
 62
7
  6
BYLAYER
 10
33.0757902299
 20
40.875
 40
2.15
  0
CIRCLE
  5
284
100
AcDbEntity
  8
0
100
AcDbCircle
 62
7
  6
BYLAYER
 10
33.0757902299
 20
40.875
 40
2.0
  0
CIRCLE
  5
285
100
AcDbEntity
  8
0
100
AcDbCircle
 62
7
  6
BYLAYER
 10
33.0757902299
 20
40.875
 40
1.6
  0
ARC
  5
286
100
AcDbEntity
  8
0
100
AcDbCircle
 62
7
  6
BYLAYER
 10
36.0757902299
 20
43.875
 40
1.5
100
AcDbArc
 50
0.0
 51
90.0
  0
ARC
  5
287
100
AcDbEntity
  8
0
100
AcDbCircle
 62
7
  6
BYLAYER
 10
36.0757902299
 20
43.875
 40
1.2999990329
100
AcDbArc
 50
359.9994619088
 51
89.9998923642
  0
ARC
  5
288
100
AcDbEntity
  8
0
100
AcDbCircle
 62
7
  6
BYLAYER
 10
29.6757902299
 20
39.8587379794
 40
0.2
100
AcDbArc
 50
180.0000000517
 51
231.9399188869
  0
ARC
  5
289
100
AcDbEntity
  8
0
100
AcDbCircle
 62
7
  6
BYLAYER
 10
29.2757902299
 20
45.175
 40
0.2
100
AcDbArc
 50
0.0009486492
 51
90.0
  0
ARC
  5
28A
100
AcDbEntity
  8
0
100
AcDbCircle
 62
7
  6
BYLAYER
 10
32.0595282093
 20
37.475
 40
0.2
100
AcDbArc
 50
218.0600811131
 51
270.0003733105
  0
ARC
  5
28B
100
AcDbEntity
  8
0
100
AcDbCircle
 62
7
  6
BYLAYER
 10
37.3757902299
 20
37.075
 40
0.2
100
AcDbArc
 50
0.0001330862
 51
90.0
  0
SPLINE
  5
28C
100
AcDbEntity
  8
0
100
AcDbSpline
 62
7
  6
BYLAYER
 70
0
 71
3
 72
26
 73
22
 74
0
 42
0.0000001
 43
0.0000001
 44
0.0000000001
 40
0.0
 40
0.0
 40
0.0
 40
0.0
 40
0.0006350574
 40
0.0025398108
 40
0.0056721986
 40
0.0099900971
 40
0.0154455548
 40
0.021980448
 40
0.0380519596
 40
0.0577031063
 40
0.080350979
 40
0.1054259712
 40
0.1325423052
 40
0.1916908506
 40
0.2558234078
 40
0.3235194504
 40
0.3938695412
 40
0.5401107427
 40
0.6911408651
 40
0.8449369872
 40
1.0
 40
1.0
 40
1.0
 40
1.0
 10
10.0920512243
 20
20.4750000007
 30
0.0
 10
10.0921276562
 20
20.4749943751
 30
0.0
 10
10.0915273732
 20
20.4752757347
 30
0.0
 10
10.0912785857
 20
20.4755316143
 30
0.0
 10
10.0901427917
 20
20.4762025191
 30
0.0
 10
10.0889123741
 20
20.4770171575
 30
0.0
 10
10.0872282095
 20
20.4780941203
 30
0.0
 10
10.0843956794
 20
20.4799242062
 30
0.0
 10
10.0800950447
 20
20.4826813845
 30
0.0
 10
10.0741559398
 20
20.4864623356
 30
0.0
 10
10.0672985919
 20
20.4908332438
 30
0.0
 10
10.0596984594
 20
20.4957118741
 30
0.0
 10
10.0484075284
 20
20.5029959731
 30
0.0
 10
10.0331682591
 20
20.5128541111
 30
0.0
 10
10.0138348256
 20
20.5253996176
 30
0.0
 10
9.9934009765
 20
20.5387325002
 30
0.0
 10
9.9647115886
 20
20.5575459196
 30
0.0
 10
9.9277027046
 20
20.5820116506
 30
0.0
 10
9.882444119
 20
20.6122578481
 30
0.0
 10
9.8364620362
 20
20.6433361907
 30
0.0
 10
9.8057028382
 20
20.6643879017
 30
0.0
 10
9.7902898692
 20
20.675
 30
0.0
  0
SPLINE
  5
28D
100
AcDbEntity
  8
0
100
AcDbSpline
 62
7
  6
BYLAYER
 70
0
 71
3
 72
26
 73
22
 74
0
 42
0.0000001
 43
0.0000001
 44
0.0000000001
 40
0.0
 40
0.0
 40
0.0
 40
0.0
 40
0.0006350549
 40
0.0025398016
 40
0.005672179
 40
0.0099900634
 40
0.0154455039
 40
0.0219803775
 40
0.0380518462
 40
0.0577029492
 40
0.0803507803
 40
0.1054257346
 40
0.1325420346
 40
0.191690527
 40
0.2558230513
 40
0.3235190792
 40
0.3938691705
 40
0.5401104064
 40
0.6911406089
 40
0.8449368369
 40
1.0
 40
1.0
 40
1.0
 40
1.0
 10
12.6757902305
 20
39.8587390059
 30
0.0
 10
12.6757846042
 20
39.8586625748
 30
0.0
 10
12.6760659633
 20
39.8592628522
 30
0.0
 10
12.6763218385
 20
39.8595116376
 30
0.0
 10
12.6769927385
 20
39.8606474214
 30
0.0
 10
12.6778073693
 20
39.8618778282
 30
0.0
 10
12.6788843232
 20
39.8635619781
 30
0.0
 10
12.6807143938
 20
39.8663944844
 30
0.0
 10
12.6834715501
 20
39.8706950842
 30
0.0
 10
12.6872524717
 20
39.8766341433
 30
0.0
 10
12.6916233473
 20
39.8834914409
 30
0.0
 10
12.6965019428
 20
39.89109152
 30
0.0
 10
12.7037859928
 20
39.902382376
 30
0.0
 10
12.7136440676
 20
39.9176215491
 30
0.0
 10
12.7261894968
 20
39.9369548659
 30
0.0
 10
12.7395223061
 20
39.9573885945
 30
0.0
 10
12.7583355971
 20
39.9860778422
 30
0.0
 10
12.7828012925
 20
40.0230864714
 30
0.0
 10
12.813047111
 20
40.0683449781
 30
0.0
 10
12.8441254014
 20
40.1143267786
 30
0.0
 10
12.8651781794
 20
40.1450850321
 30
0.0
 10
12.8757902299
 20
40.1604979301
 30
0.0
  0
SPLINE
  5
28E
100
AcDbEntity
  8
0
100
AcDbSpline
 62
7
  6
BYLAYER
 70
0
 71
3
 72
26
 73
22
 74
0
 42
0.0000001
 43
0.0000001
 44
0.0000000001
 40
0.0
 40
0.0
 40
0.0
 40
0.0
 40
0.1550678865
 40
0.3088686283
 40
0.459903508
 40
0.6061479176
 40
0.6764994746
 40
0.7441970999
 40
0.808330439
 40
0.8674799005
 40
0.8945957031
 40
0.9196671397
 40
0.9423081683
 40
0.9619531159
 40
0.9780225781
 40
0.9845573615
 40
0.9900125656
 40
0.9943295789
 40
0.9974607355
 40
0.9993646497
 40
1.0
 40
1.0
 40
1.0
 40
1.0
 10
9.7902906831
 20
37.075
 30
0.0
 10
9.8057040513
 20
37.0856125721
 30
0.0
 10
9.8364642523
 20
37.1066648769
 30
0.0
 10
9.8824472031
 20
37.1377450613
 30
0.0
 10
9.9277081018
 20
37.1679905801
 30
0.0
 10
9.9647172647
 20
37.1924579864
 30
0.0
 10
9.9934069225
 20
37.2112724057
 30
0.0
 10
10.0138416622
 20
37.2246047921
 30
0.0
 10
10.0331755736
 20
37.2371503102
 30
0.0
 10
10.0484151968
 20
37.247008177
 30
0.0
 10
10.0597058995
 20
37.2542919367
 30
0.0
 10
10.0673045496
 20
37.2591704389
 30
0.0
 10
10.0741592806
 20
37.2635417373
 30
0.0
 10
10.0800960498
 20
37.2673229569
 30
0.0
 10
10.0843959282
 20
37.2700794851
 30
0.0
 10
10.0872286366
 20
37.2719086966
 30
0.0
 10
10.0889130385
 20
37.2729851518
 30
0.0
 10
10.0901435476
 20
37.2737987885
 30
0.0
 10
10.0912793041
 20
37.2744697806
 30
0.0
 10
10.0915281792
 20
37.2747238921
 30
0.0
 10
10.0921286586
 20
37.2750063845
 30
0.0
 10
10.0920522508
 20
37.275
 30
0.0
  0
SPLINE
  5
28F
100
AcDbEntity
  8
0
100
AcDbSpline
 62
7
  6
BYLAYER
 70
0
 71
3
 72
26
 73
22
 74
0
 42
0.0000001
 43
0.0000001
 44
0.0000000001
 40
0.0
 40
0.0
 40
0.0
 40
0.0
 40
0.000635055
 40
0.0025398019
 40
0.0056721795
 40
0.009990064
 40
0.0154455046
 40
0.0219803783
 40
0.0380518471
 40
0.0577029502
 40
0.0803507813
 40
0.1054257356
 40
0.1325420357
 40
0.191690528
 40
0.2558230523
 40
0.3235190802
 40
0.3938691713
 40
0.5401104071
 40
0.6911406093
 40
0.8449368371
 40
1.0
 40
1.0
 40
1.0
 40
1.0
 10
29.4757902292
 20
17.8912609942
 30
0.0
 10
29.4757958553
 20
17.8913374254
 30
0.0
 10
29.4755144969
 20
17.8907371478
 30
0.0
 10
29.475258621
 20
17.8904883625
 30
0.0
 10
29.4745877213
 20
17.8893525786
 30
0.0
 10
29.4737730903
 20
17.8881221717
 30
0.0
 10
29.4726961365
 20
17.8864380218
 30
0.0
 10
29.4708660659
 20
17.8836055154
 30
0.0
 10
29.4681089096
 20
17.8793049156
 30
0.0
 10
29.4643279879
 20
17.8733658565
 30
0.0
 10
29.4599571123
 20
17.8665085589
 30
0.0
 10
29.4550785168
 20
17.8589084797
 30
0.0
 10
29.4477944668
 20
17.8476176238
 30
0.0
 10
29.437936392
 20
17.8323784507
 30
0.0
 10
29.4253909628
 20
17.8130451338
 30
0.0
 10
29.4120581535
 20
17.7926114053
 30
0.0
 10
29.3932448626
 20
17.7639221576
 30
0.0
 10
29.3687791671
 20
17.7269135285
 30
0.0
 10
29.3385333487
 20
17.6816550218
 30
0.0
 10
29.3074550584
 20
17.6356732213
 30
0.0
 10
29.2864022803
 20
17.6049149678
 30
0.0
 10
29.2757902299
 20
17.5895020699
 30
0.0
  0
SPLINE
  5
290
100
AcDbEntity
  8
0
100
AcDbSpline
 62
7
  6
BYLAYER
 70
0
 71
3
 72
26
 73
22
 74
0
 42
0.0000001
 43
0.0000001
 44
0.0000000001
 40
0.0
 40
0.0
 40
0.0
 40
0.0
 40
0.0006350569
 40
0.0025398096
 40
0.0056721968
 40
0.0099900949
 40
0.0154455522
 40
0.0219804451
 40
0.0380519565
 40
0.057703103
 40
0.0803509755
 40
0.1054259675
 40
0.1325423014
 40
0.1916908469
 40
0.2558234042
 40
0.3235194471
 40
0.3938695382
 40
0.5401107403
 40
0.6911408635
 40
0.8449369864
 40
1.0
 40
1.0
 40
1.0
 40
1.0
 10
32.0595292359
 20
37.2749999993
 30
0.0
 10
32.0594528041
 20
37.2750056259
 30
0.0
 10
32.0600530866
 20
37.2747242639
 30
0.0
 10
32.0603018742
 20
37.2744683868
 30
0.0
 10
32.0614376678
 20
37.2737974807
 30
0.0
 10
32.0626680853
 20
37.2729828429
 30
0.0
 10
32.0643522497
 20
37.2719058799
 30
0.0
 10
32.0671847798
 20
37.2700757942
 30
0.0
 10
32.0714854144
 20
37.2673186159
 30
0.0
 10
32.0774245192
 20
37.2635376649
 30
0.0
 10
32.084281867
 20
37.2591667567
 30
0.0
 10
32.0918819996
 20
37.2542881264
 30
0.0
 10
32.1031729305
 20
37.2470040275
 30
0.0
 10
32.1184121998
 20
37.2371458894
 30
0.0
 10
32.1377456333
 20
37.224600383
 30
0.0
 10
32.1581794825
 20
37.2112675004
 30
0.0
 10
32.1868688704
 20
37.1924540808
 30
0.0
 10
32.2238777546
 20
37.1679883497
 30
0.0
 10
32.2691363404
 20
37.1377421522
 30
0.0
 10
32.3151184234
 20
37.1066638095
 30
0.0
 10
32.3458776215
 20
37.0856120983
 30
0.0
 10
32.3612905906
 20
37.075
 30
0.0
  0
SPLINE
  5
291
100
AcDbEntity
  8
0
100
AcDbSpline
 62
7
  6
BYLAYER
 70
0
 71
3
 72
26
 73
22
 74
0
 42
0.0000001
 43
0.0000001
 44
0.0000000001
 40
0.0
 40
0.0
 40
0.0
 40
0.0
 40
0.1550680362
 40
0.3088688832
 40
0.4599038423
 40
0.6061482858
 40
0.676499843
 40
0.7441974535
 40
0.8083307596
 40
0.867480168
 40
0.8945959366
 40
0.9196673354
 40
0.9423083225
 40
0.9619532266
 40
0.9780226462
 40
0.9845574102
 40
0.9900125975
 40
0.9943295972
 40
0.9974607437
 40
0.9993646518
 40
1.0
 40
1.0
 40
1.0
 40
1.0
 10
29.2757902299
 20
40.1604971162
 30
0.0
 10
29.2864027541
 20
40.145083819
 30
0.0
 10
29.3074561259
 20
40.1143245626
 30
0.0
 10
29.338536258
 20
40.0683418943
 30
0.0
 10
29.3687813977
 20
40.0230810746
 30
0.0
 10
29.3932487684
 20
39.9860721667
 30
0.0
 10
29.412063059
 20
39.9573826492
 30
0.0
 10
29.4253953722
 20
39.9369480301
 30
0.0
 10
29.437940813
 20
39.9176142354
 30
0.0
 10
29.4477986166
 20
39.9023747084
 30
0.0
 10
29.4550823273
 20
39.8910840806
 30
0.0
 10
29.4599607947
 20
39.883485484
 30
0.0
 10
29.4643320605
 20
39.8766308032
 30
0.0
 10
29.4681132508
 20
39.8706940798
 30
0.0
 10
29.4708697569
 20
39.8663942361
 30
0.0
 10
29.4726989533
 20
39.8635615514
 30
0.0
 10
29.4737753994
 20
39.8618771641
 30
0.0
 10
29.474589029
 20
39.8606466657
 30
0.0
 10
29.4752600153
 20
39.859510919
 30
0.0
 10
29.4755141244
 20
39.8592620461
 30
0.0
 10
29.4757966143
 20
39.858661572
 30
0.0
 10
29.4757902299
 20
39.8587379791
 30
0.0
  0
SPLINE
  5
292
100
AcDbEntity
  8
0
100
AcDbSpline
 62
7
  6
BYLAYER
 70
0
 71
3
 72
26
 73
22
 74
0
 42
0.0000001
 43
0.0000001
 44
0.0000000001
 40
0.0
 40
0.0
 40
0.0
 40
0.0
 40
0.1550678865
 40
0.3088686283
 40
0.459903508
 40
0.6061479176
 40
0.6764994746
 40
0.7441970999
 40
0.808330439
 40
0.8674799005
 40
0.8945957031
 40
0.9196671397
 40
0.9423081683
 40
0.9619531159
 40
0.9780225781
 40
0.9845573615
 40
0.9900125656
 40
0.9943295789
 40
0.9974607355
 40
0.9993646497
 40
1.0
 40
1.0
 40
1.0
 40
1.0
 10
32.3612897767
 20
20.675
 30
0.0
 10
32.3458764084
 20
20.6643874279
 30
0.0
 10
32.3151162074
 20
20.6433351231
 30
0.0
 10
32.2691332567
 20
20.6122549387
 30
0.0
 10
32.2238723579
 20
20.5820094199
 30
0.0
 10
32.1868631951
 20
20.5575420136
 30
0.0
 10
32.1581735373
 20
20.5387275943
 30
0.0
 10
32.1377387976
 20
20.5253952079
 30
0.0
 10
32.1184048862
 20
20.5128496898
 30
0.0
 10
32.103165263
 20
20.502991823
 30
0.0
 10
32.0918745602
 20
20.4957080633
 30
0.0
 10
32.0842759102
 20
20.4908295611
 30
0.0
 10
32.0774211792
 20
20.4864582627
 30
0.0
 10
32.07148441
 20
20.4826770431
 30
0.0
 10
32.0671845316
 20
20.4799205149
 30
0.0
 10
32.0643518231
 20
20.4780913034
 30
0.0
 10
32.0626674213
 20
20.4770148482
 30
0.0
 10
32.0614369122
 20
20.4762012115
 30
0.0
 10
32.0603011556
 20
20.4755302194
 30
0.0
 10
32.0600522805
 20
20.4752761079
 30
0.0
 10
32.0594518012
 20
20.4749936155
 30
0.0
 10
32.059528209
 20
20.475
 30
0.0
  0
SPLINE
  5
293
100
AcDbEntity
  8
0
100
AcDbSpline
 62
7
  6
BYLAYER
 70
0
 71
3
 72
26
 73
22
 74
0
 42
0.0000001
 43
0.0000001
 44
0.0000000001
 40
0.0
 40
0.0
 40
0.0
 40
0.0
 40
0.1550680362
 40
0.3088688832
 40
0.4599038423
 40
0.6061482858
 40
0.676499843
 40
0.7441974535
 40
0.8083307596
 40
0.867480168
 40
0.8945959366
 40
0.9196673354
 40
0.9423083225
 40
0.9619532266
 40
0.9780226462
 40
0.9845574102
 40
0.9900125975
 40
0.9943295972
 40
0.9974607437
 40
0.9993646518
 40
1.0
 40
1.0
 40
1.0
 40
1.0
 10
12.8757902299
 20
17.5895028838
 30
0.0
 10
12.8651777057
 20
17.604916181
 30
0.0
 10
12.8441243339
 20
17.6356754374
 30
0.0
 10
12.8130442018
 20
17.6816581057
 30
0.0
 10
12.7827990621
 20
17.7269189254
 30
0.0
 10
12.7583316914
 20
17.7639278333
 30
0.0
 10
12.7395174007
 20
17.7926173508
 30
0.0
 10
12.7261850876
 20
17.8130519699
 30
0.0
 10
12.7136396467
 20
17.8323857646
 30
0.0
 10
12.7037818432
 20
17.8476252916
 30
0.0
 10
12.6964981325
 20
17.8589159194
 30
0.0
 10
12.691619665
 20
17.866514516
 30
0.0
 10
12.6872483992
 20
17.8733691968
 30
0.0
 10
12.683467209
 20
17.8793059202
 30
0.0
 10
12.6807107028
 20
17.8836057639
 30
0.0
 10
12.6788815064
 20
17.8864384486
 30
0.0
 10
12.6778050604
 20
17.8881228359
 30
0.0
 10
12.6769914308
 20
17.8893533343
 30
0.0
 10
12.6763204445
 20
17.890489081
 30
0.0
 10
12.6760663353
 20
17.8907379539
 30
0.0
 10
12.6757838455
 20
17.891338428
 30
0.0
 10
12.6757902299
 20
17.8912620209
 30
0.0
  0
ENDSEC
  0
SECTION
  2
OBJECTS
  0
DICTIONARY
  5
C
100
AcDbDictionary
280
0
281
1
  3
ACAD_GROUP
350
D
  3
ACAD_MLINESTYLE
350
17
  3
ACAD_LAYOUT
350
1A
  3
ACAD_PLOTSETTINGS
350
19
  3
ACAD_PLOTSTYLENAME
350
E
  0
DICTIONARY
  5
D
102
{ACAD_REACTORS
330
C
102
}
100
AcDbDictionary
280
0
281
1
  0
ACDBDICTIONARYWDFLT
  5
E
102
{ACAD_REACTORS
330
C
102
}
100
AcDbDictionary
281
1
  3
Normal
350
F
100
AcDbDictionaryWithDefault
340
F
  0
DICTIONARY
  5
17
102
{ACAD_REACTORS
330
C
102
}
100
AcDbDictionary
280
0
281
1
  3
Standard
350
18
  0
DICTIONARY
  5
19
102
{ACAD_REACTORS
330
C
102
}
100
AcDbDictionary
281
1
  0
DICTIONARY
  5
1A
102
{ACAD_REACTORS
330
C
102
}
100
AcDbDictionary
281
1
  3
Model
350
294
  3
Layout1
350
295
  0
ACDBPLACEHOLDER
  5
F
102
{ACAD_REACTORS
330
E
102
}
  0
MLINESTYLE
  5
18
102
{ACAD_REACTORS
330
17
102
}
100
AcDbMlineStyle
  2
STANDARD
 70
0
  3

 62
256
 51
90.0
 52
90.0
 71
2
 49
0.5
 62
256
  6
BYLAYER
 49
-0.5
 62
256
  6
BYLAYER
  0
LAYOUT
  5
294
102
{ACAD_REACTORS
330
1A
102
}
100
AcDbPlotSettings
  1

  2
none_device
  4

  6

 40
0.0
 41
0.0
 42
0.0
 43
0.0
 44
210.0
 45
297.0
 46
0.0
 47
0.0
 48
0.0
 49
0.0
140
0.0
141
0.0
142
1.0
143
1.0
 70
1024
 72
1
 73
0
 74
0
  7

 75
0
147
1.0
148
0.0
149
0.0
100
AcDbLayout
  1
Model
 70
0
 71
0
 10
0.0
 20
0.0
 11
210.0
 21
297.0
 12
0.0
 22
0.0
 32
0.0
 14
0.0
 24
0.0
 34
0.0
 15
0.0
 25
0.0
 35
0.0
146
0.0
 13
0.0
 23
0.0
 33
0.0
 16
1.0
 26
0.0
 36
0.0
 17
0.0
 27
1.0
 37
0.0
 76
0
330
210
345
0
346
0
  0
LAYOUT
  5
295
102
{ACAD_REACTORS
330
1A
102
}
100
AcDbPlotSettings
  1

  2
none_device
  4

  6

 40
0.0
 41
0.0
 42
0.0
 43
0.0
 44
210.0
 45
297.0
 46
0.0
 47
0.0
 48
0.0
 49
0.0
140
0.0
141
0.0
142
1.0
143
1.0
 70
0
 72
1
 73
0
 74
0
  7

 75
0
147
1.0
148
0.0
149
0.0
100
AcDbLayout
  1
Layout1
 70
0
 71
1
 10
0.0
 20
0.0
 11
210.0
 21
297.0
 12
0.0
 22
0.0
 32
0.0
 14
0.0
 24
0.0
 34
0.0
 15
0.0
 25
0.0
 35
0.0
146
0.0
 13
0.0
 23
0.0
 33
0.0
 16
1.0
 26
0.0
 36
0.0
 17
0.0
 27
1.0
 37
0.0
 76
0
330
211
345
0
346
0
  0
ENDSEC
  0
EOF
