999
DXF file: C:\Users\sesa63760\Dev\_Creo\CAD\MCADID0004765_3D-CAD\drw0001_4.dxf
999
Pro/ENGINEER 2019471 by Parametric Technology Corporation
  0
SECTION
  2
HEADER
  9
$ACADVER
  1
AC1024
  9
$DWGCODEPAGE
  3
ANSI_1252
  9
$EXTMAX
 10
33.6148119122
 20
47.5409482759
 30
0.0
  9
$EXTMIN
 10
0.0
 20
0.0
 30
0.0
  9
$LIMMIN
 10
0.0
 20
0.0
  9
$LIMMAX
 10
33.6148119122
 20
47.5409482759
  9
$VIEWCTR
 10
16.8074059561
 20
23.7704741379
  9
$VIEWSIZE
 40
47.5409482759
  9
$CLAYER
  8
0
  9
$LTSCALE
 40
3.0989655172
  9
$CELTYPE
  6
BYLAYER
  9
$DIMSCALE
 40
1.0
  9
$DIMASZ
 40
0.4001763323
  9
$DIMEXO
 40
1.0
  9
$DIMDLI
 40
2.1411034483
  9
$DIMEXE
 40
1.0
  9
$DIMCEN
 40
0.5071034483
  9
$DIMLFAC
 40
1.0
  9
$DIMBLK
  1
_FILLED
  9
$DIMALT
 70
0
  9
$DIMALTF
 40
0.0393700787
  9
$DIMTXT
 40
0.5602468652
  9
$DIMTOL
 70
1
  9
$DIMLIM
 70
0
  9
$DIMTFAC
 40
1.0
  9
$DIMTP
 40
0.01
  9
$DIMTM
 40
0.01
  9
$DIMGAP
 40
0.625
  9
$DIMDSEP
 70
46
  9
$AUNITS
 70
0
  9
$PDMODE
 70
3
  9
$PDSIZE
 40
0.3125
  9
$HANDSEED
  5
2A5
  9
$TILEMODE
 70
1
  9
$MEASUREMENT
 70
1
  9
$INSUNITS
 70
4
  0
ENDSEC
  0
SECTION
  2
CLASSES
  0
CLASS
  1
ACDBDICTIONARYWDFLT
  2
AcDbDictionaryWithDefault
  3
AutoCAD 2000
 90
0
 91
1
280
0
281
0
  0
CLASS
  1
ACDBPLACEHOLDER
  2
AcDbPlaceHolder
  3
AutoCAD 2000
 90
0
 91
1
280
0
281
0
  0
CLASS
  1
LAYOUT
  2
AcDbLayout
  3
AutoCAD 2000
 90
0
 91
0
280
0
281
0
  0
ENDSEC
  0
SECTION
  2
TABLES
  0
TABLE
  2
VPORT
  5
8
100
AcDbSymbolTable
 70
2
  0
VPORT
  5
1F4
100
AcDbSymbolTableRecord
100
AcDbViewportTableRecord
  2
*ACTIVE
 70
0
 10
0.0
 20
0.0
 11
1.0
 21
1.0
 12
16.8074059561
 22
23.7704741379
 13
0.0
 23
0.0
 14
1.0
 24
1.0
 15
0.0
 25
0.0
 16
0.0
 26
0.0
 36
1.0
 17
0.0
 27
0.0
 37
0.0
 40
47.5409482759
 41
0.7070707071
 42
50.0
 43
0.0
 44
0.0
 50
0.0
 51
0.0
 71
0
 72
100
 73
1
 74
1
 75
0
 76
0
 77
0
 78
0
  0
ENDTAB
  0
TABLE
  2
LTYPE
  5
5
100
AcDbSymbolTable
 70
6
  0
LTYPE
  5
14
100
AcDbSymbolTableRecord
100
AcDbLinetypeTableRecord
  2
BYBLOCK
 70
0
  3

 72
65
 73
0
 40
0.0
  0
LTYPE
  5
15
100
AcDbSymbolTableRecord
100
AcDbLinetypeTableRecord
  2
BYLAYER
 70
0
  3

 72
65
 73
0
 40
0.0
  0
LTYPE
  5
16
100
AcDbSymbolTableRecord
100
AcDbLinetypeTableRecord
  2
CONTINUOUS
 70
64
  3
Solid line
 72
65
 73
0
 40
0.0
  0
LTYPE
  5
1F5
100
AcDbSymbolTableRecord
100
AcDbLinetypeTableRecord
  2
CENTER
 70
64
  3
____ _ ____ _ ____ _ ____ _ ____ _ ____ _ ____
 72
65
 73
4
 40
0.6
 49
0.375
 74
0
 49
-0.075
 74
0
 49
0.075
 74
0
 49
-0.075
 74
0
  0
LTYPE
  5
1F6
100
AcDbSymbolTableRecord
100
AcDbLinetypeTableRecord
  2
HIDDEN
 70
64
  3
- - - - - - - - - - - - - - - - - - - -
 72
65
 73
2
 40
0.2
 49
0.1
 74
0
 49
-0.1
 74
0
  0
LTYPE
  5
1F7
100
AcDbSymbolTableRecord
100
AcDbLinetypeTableRecord
  2
PHANTOM
 70
64
  3
_____ _ _ _____ _ _ _____ _ _ _____
 72
65
 73
6
 40
0.8
 49
0.45
 74
0
 49
-0.05
 74
0
 49
0.1
 74
0
 49
-0.05
 74
0
 49
0.1
 74
0
 49
-0.05
 74
0
  0
LTYPE
  5
1F8
100
AcDbSymbolTableRecord
100
AcDbLinetypeTableRecord
  2
DOT
 70
64
  3
. . . . . . . . . . . . . . . . . . . .
 72
65
 73
2
 40
0.2
 49
0.1
 74
0
 49
-0.1
 74
0
  0
LTYPE
  5
1F9
100
AcDbSymbolTableRecord
100
AcDbLinetypeTableRecord
  2
DASHED
 70
64
  3
- - - - - - - - - - - - - - - - - - - -
 72
65
 73
2
 40
0.2
 49
0.1
 74
0
 49
-0.1
 74
0
  0
ENDTAB
  0
TABLE
  2
LAYER
  5
2
100
AcDbSymbolTable
 70
36
  0
LAYER
  5
10
100
AcDbSymbolTableRecord
100
AcDbLayerTableRecord
  2
0
 70
0
 62
7
  6
CONTINUOUS
370
-3
390
F
  0
LAYER
  5
1FA
100
AcDbSymbolTableRecord
100
AcDbLayerTableRecord
  2
DEFAULT_1
 70
0
 62
7
  6
CENTER
370
-3
390
F
  0
LAYER
  5
1FB
100
AcDbSymbolTableRecord
100
AcDbLayerTableRecord
  2
DEFAULT_2
 70
0
 62
7
  6
HIDDEN
370
-3
390
F
  0
LAYER
  5
1FC
100
AcDbSymbolTableRecord
100
AcDbLayerTableRecord
  2
DEFAULT_3
 70
0
 62
7
  6
PHANTOM
370
-3
390
F
  0
LAYER
  5
1FD
100
AcDbSymbolTableRecord
100
AcDbLayerTableRecord
  2
00_COMPONENTS
 70
0
 62
7
  6
CONTINUOUS
370
-3
390
F
  0
LAYER
  5
1FE
100
AcDbSymbolTableRecord
100
AcDbLayerTableRecord
  2
01_1_DEFAULT_DATUMS
 70
0
 62
7
  6
CONTINUOUS
370
-3
390
F
  0
LAYER
  5
1FF
100
AcDbSymbolTableRecord
100
AcDbLayerTableRecord
  2
01_PLANES
 70
0
 62
7
  6
CONTINUOUS
370
-3
390
F
  0
LAYER
  5
200
100
AcDbSymbolTableRecord
100
AcDbLayerTableRecord
  2
02_COORD_SYS
 70
0
 62
7
  6
CONTINUOUS
370
-3
390
F
  0
LAYER
  5
201
100
AcDbSymbolTableRecord
100
AcDbLayerTableRecord
  2
03_AXES
 70
0
 62
7
  6
CONTINUOUS
370
-3
390
F
  0
LAYER
  5
202
100
AcDbSymbolTableRecord
100
AcDbLayerTableRecord
  2
04_POINTS
 70
0
 62
7
  6
CONTINUOUS
370
-3
390
F
  0
LAYER
  5
203
100
AcDbSymbolTableRecord
100
AcDbLayerTableRecord
  2
05_CURVES
 70
0
 62
7
  6
CONTINUOUS
370
-3
390
F
  0
LAYER
  5
204
100
AcDbSymbolTableRecord
100
AcDbLayerTableRecord
  2
06_SURFS
 70
0
 62
7
  6
CONTINUOUS
370
-3
390
F
  0
LAYER
  5
205
100
AcDbSymbolTableRecord
100
AcDbLayerTableRecord
  2
07_COSMETICS
 70
0
 62
7
  6
CONTINUOUS
370
-3
390
F
  0
LAYER
  5
206
100
AcDbSymbolTableRecord
100
AcDbLayerTableRecord
  2
10_NOTES
 70
0
 62
7
  6
CONTINUOUS
370
-3
390
F
  0
LAYER
  5
207
100
AcDbSymbolTableRecord
100
AcDbLayerTableRecord
  2
11_NOTES_PUB
 70
0
 62
7
  6
CONTINUOUS
370
-3
390
F
  0
LAYER
  5
208
100
AcDbSymbolTableRecord
100
AcDbLayerTableRecord
  2
13_REF_GTOL
 70
0
 62
7
  6
CONTINUOUS
370
-3
390
F
  0
LAYER
  5
209
100
AcDbSymbolTableRecord
100
AcDbLayerTableRecord
  2
16_MISC
 70
0
 62
7
  6
CONTINUOUS
370
-3
390
F
  0
LAYER
  5
20A
100
AcDbSymbolTableRecord
100
AcDbLayerTableRecord
  2
17_NO_PRINT
 70
0
 62
7
  6
CONTINUOUS
370
-3
390
F
  0
LAYER
  5
20B
100
AcDbSymbolTableRecord
100
AcDbLayerTableRecord
  2
18_DATUM_CAMS_JOINTS
 70
0
 62
7
  6
CONTINUOUS
370
-3
390
F
  0
LAYER
  5
20C
100
AcDbSymbolTableRecord
100
AcDbLayerTableRecord
  2
19_DATUM_FUNCTIONAL
 70
0
 62
7
  6
CONTINUOUS
370
-3
390
F
  0
LAYER
  5
20D
100
AcDbSymbolTableRecord
100
AcDbLayerTableRecord
  2
20_DATUM_KINEMATIC_SCHEME
 70
0
 62
7
  6
CONTINUOUS
370
-3
390
F
  0
ENDTAB
  0
TABLE
  2
STYLE
  5
3
100
AcDbSymbolTable
 70
1
  0
STYLE
  5
11
100
AcDbSymbolTableRecord
100
AcDbTextStyleTableRecord
  2
STANDARD
 70
0
 40
0.0
 41
1.0
 50
0.0
 71
0
 42
0.2
  3
ARIAL.TTF
  4

  0
STYLE
  5
20E
100
AcDbSymbolTableRecord
100
AcDbTextStyleTableRecord
  2
TEXTSTYLE_1
 70
0
 40
0.0
 41
0.8
 50
0.0
 71
0
 42
0.2
  3
gdt
  4

  0
ENDTAB
  0
TABLE
  2
VIEW
  5
6
100
AcDbSymbolTable
 70
0
  0
ENDTAB
  0
TABLE
  2
UCS
  5
7
100
AcDbSymbolTable
 70
0
  0
ENDTAB
  0
TABLE
  2
APPID
  5
9
100
AcDbSymbolTable
 70
1
  0
APPID
  5
20F
100
AcDbSymbolTableRecord
100
AcDbRegAppTableRecord
  2
ACAD
 70
0
  0
ENDTAB
  0
TABLE
  2
BLOCK_RECORD
  5
1
100
AcDbSymbolTable
 70
0
  0
BLOCK_RECORD
  5
210
100
AcDbSymbolTableRecord
100
AcDbBlockTableRecord
  2
*Model_Space
  0
BLOCK_RECORD
  5
211
100
AcDbSymbolTableRecord
100
AcDbBlockTableRecord
  2
*Paper_Space
  0
BLOCK_RECORD
  5
212
100
AcDbSymbolTableRecord
100
AcDbBlockTableRecord
  2
_FILLED
  0
ENDTAB
  0
TABLE
  2
DIMSTYLE
  5
A
100
AcDbSymbolTable
 70
1
100
AcDbDimStyleTable
 71
0
  0
DIMSTYLE
105
213
100
AcDbSymbolTableRecord
100
AcDbDimStyleTableRecord
  2
STANDARD
 70
0
  3

  4

 40
1.0
 41
0.4001763323
 42
1.0
 43
0.38
 44
1.0
 45
0.0
 46
0.0
 47
0.01
 48
0.01
140
0.5602468652
141
0.09
142
0.0
143
25.4
144
1.0
145
0.0
146
1.0
147
0.625
 71
1
 72
0
 73
0
 74
0
 75
0
 76
0
 77
1
 78
8
 79
2
170
0
171
1
172
0
173
0
174
0
175
0
176
0
177
0
178
0
270
2
179
2
271
2
272
2
273
2
274
2
275
0
280
0
281
0
282
0
283
1
284
8
285
0
286
0
287
3
288
0
340
11
278
46
341
212
342
212
343
212
344
212
  0
ENDTAB
  0
ENDSEC
  0
SECTION
  2
BLOCKS
  0
BLOCK
  5
20
100
AcDbEntity
  8
0
100
AcDbBlockBegin
  2
*Model_Space
 70
0
 10
0.0
 20
0.0
 30
0.0
  3
*Model_Space
  1

  0
ENDBLK
  5
21
100
AcDbEntity
  8
0
100
AcDbBlockEnd
  0
BLOCK
  5
1C
100
AcDbEntity
  8
0
100
AcDbBlockBegin
  2
*Paper_Space
 70
0
 10
0.0
 20
0.0
 30
0.0
  3
*Paper_Space
  1

  0
ENDBLK
  5
1D
100
AcDbEntity
  8
0
100
AcDbBlockEnd
  0
BLOCK
  5
214
100
AcDbEntity
  8
0
100
AcDbBlockBegin
  2
_FILLED
 70
64
 10
0.0
 20
0.0
  3
_FILLED
  1

  0
SOLID
  5
215
100
AcDbEntity
  8
0
  6
BYBLOCK
 62
0
100
AcDbTrace
 10
0.0
 20
0.0
 11
-1.0
 21
0.25
 12
-1.0
 22
-0.25
 13
-1.0
 23
-0.25
  0
ENDBLK
  5
216
100
AcDbEntity
  8
0
  6
BYBLOCK
 62
0
100
AcDbBlockEnd
  0
ENDSEC
  0
SECTION
  2
ENTITIES
  0
LINE
  5
217
100
AcDbEntity
  8
0
100
AcDbLine
 62
7
  6
BYLAYER
 10
23.6207532785
 20
7.5125
 11
10.8669034617
 21
7.5125
  0
LINE
  5
218
100
AcDbEntity
  8
0
100
AcDbLine
 62
7
  6
BYLAYER
 10
23.9714761048
 20
7.9256759112
 11
22.5572625424
 21
7.9256759112
  0
LINE
  5
219
100
AcDbEntity
  8
0
100
AcDbLine
 62
7
  6
BYLAYER
 10
20.7005530955
 20
7.9256759112
 11
13.7871036444
 21
7.9256759112
  0
LINE
  5
21A
100
AcDbEntity
  8
0
100
AcDbLine
 62
7
  6
BYLAYER
 10
11.9303941974
 20
7.9256759112
 11
10.516180635
 21
7.9256759112
  0
LINE
  5
21B
100
AcDbEntity
  8
0
100
AcDbLine
 62
7
  6
BYLAYER
 10
5.9438283699
 20
12.6625
 11
5.7438283699
 21
12.8625
  0
LINE
  5
21C
100
AcDbEntity
  8
0
100
AcDbLine
 62
7
  6
BYLAYER
 10
7.6655162064
 20
11.1125
 11
7.0984789506
 21
12.0946373368
  0
LINE
  5
21D
100
AcDbEntity
  8
0
100
AcDbLine
 62
7
  6
BYLAYER
 10
3.7438283699
 20
18.3625
 11
3.7438283699
 21
24.8625
  0
LINE
  5
21E
100
AcDbEntity
  8
0
100
AcDbLine
 62
7
  6
BYLAYER
 10
3.7938283699
 20
26.1625
 11
3.7938283699
 21
24.8625
  0
LINE
  5
21F
100
AcDbEntity
  8
0
100
AcDbLine
 62
7
  6
BYLAYER
 10
4.4437327406
 20
18.3625
 11
4.4437290794
 21
24.8625
  0
LINE
  5
220
100
AcDbEntity
  8
0
100
AcDbLine
 62
7
  6
BYLAYER
 10
4.4938283699
 20
24.8625
 11
4.4938283699
 21
26.6625
  0
LINE
  5
221
100
AcDbEntity
  8
0
100
AcDbLine
 62
7
  6
BYLAYER
 10
4.3948466397
 20
28.3886467228
 11
4.2438283699
 21
26.6625
  0
LINE
  5
222
100
AcDbEntity
  8
0
100
AcDbLine
 62
7
  6
BYLAYER
 10
10.7438278478
 20
35.1624998506
 11
11.2438285048
 21
35.6625004788
  0
LINE
  5
223
100
AcDbEntity
  8
0
100
AcDbLine
 62
7
  6
BYLAYER
 10
13.4682636672
 20
10.4493240888
 11
21.0193930727
 21
10.4493240888
  0
LINE
  5
224
100
AcDbEntity
  8
0
100
AcDbLine
 62
7
  6
BYLAYER
 10
26.3890105511
 20
10.8625
 11
8.098644879
 21
10.8625
  0
LINE
  5
225
100
AcDbEntity
  8
0
100
AcDbLine
 62
7
  6
BYLAYER
 10
26.8221405334
 20
11.1125
 11
24.3610369817
 21
11.1125
  0
LINE
  5
226
100
AcDbEntity
  8
0
100
AcDbLine
 62
7
  6
BYLAYER
 10
23.6539302005
 20
11.1125
 11
7.6655162064
 21
11.1125
  0
LINE
  5
227
100
AcDbEntity
  8
0
100
AcDbLine
 62
7
  6
BYLAYER
 10
7.0984789506
 20
12.0946373368
 11
7.0315678049
 21
12.3359111336
  0
LINE
  5
228
100
AcDbEntity
  8
0
100
AcDbLine
 62
7
  6
BYLAYER
 10
5.2438283699
 20
18.3625
 11
5.2438283699
 21
17.7625
  0
LINE
  5
229
100
AcDbEntity
  8
0
100
AcDbLine
 62
7
  6
BYLAYER
 10
5.4024872238
 20
17.7625
 11
5.4024872238
 21
18.3625
  0
LINE
  5
22A
100
AcDbEntity
  8
0
100
AcDbLine
 62
7
  6
BYLAYER
 10
5.7438283699
 20
17.6625
 11
5.7438283699
 21
12.8625
  0
LINE
  5
22B
100
AcDbEntity
  8
0
100
AcDbLine
 62
7
  6
BYLAYER
 10
5.9438283699
 20
18.3625
 11
5.9438283699
 21
17.8625
  0
LINE
  5
22C
100
AcDbEntity
  8
0
100
AcDbLine
 62
7
  6
BYLAYER
 10
5.597226735
 20
17.7625
 11
5.6054311485
 21
18.3625
  0
LINE
  5
22D
100
AcDbEntity
  8
0
100
AcDbLine
 62
7
  6
BYLAYER
 10
8.4696506744
 20
34.0507285809
 11
7.2938283699
 21
29.6625
  0
LINE
  5
22E
100
AcDbEntity
  8
0
100
AcDbLine
 62
7
  6
BYLAYER
 10
7.0984789506
 20
12.0946373368
 11
24.0554028511
 21
12.0946373368
  0
LINE
  5
22F
100
AcDbEntity
  8
0
100
AcDbLine
 62
7
  6
BYLAYER
 10
24.7625096323
 20
12.0946373368
 11
27.3891777892
 21
12.0946373368
  0
LINE
  5
230
100
AcDbEntity
  8
0
100
AcDbLine
 62
7
  6
BYLAYER
 10
27.4560889349
 20
12.3359111336
 11
24.8094009693
 21
12.3359111336
  0
LINE
  5
231
100
AcDbEntity
  8
0
100
AcDbLine
 62
7
  6
BYLAYER
 10
24.1033018986
 20
12.3359111336
 11
7.0315678049
 21
12.3359111336
  0
LINE
  5
232
100
AcDbEntity
  8
0
100
AcDbLine
 62
7
  6
BYLAYER
 10
7.0315678049
 20
12.3359111336
 11
7.0258671751
 21
12.6625
  0
LINE
  5
233
100
AcDbEntity
  8
0
100
AcDbLine
 62
7
  6
BYLAYER
 10
6.4631473956
 20
18.3625
 11
6.4631473956
 21
17.7625
  0
LINE
  5
234
100
AcDbEntity
  8
0
100
AcDbLine
 62
7
  6
BYLAYER
 10
7.2938283699
 20
29.6625
 11
7.2938283699
 21
28.6625
  0
LINE
  5
235
100
AcDbEntity
  8
0
100
AcDbLine
 62
7
  6
BYLAYER
 10
28.5438259282
 20
12.6625
 11
25.9438308116
 21
12.6625
  0
LINE
  5
236
100
AcDbEntity
  8
0
100
AcDbLine
 62
7
  6
BYLAYER
 10
8.5438259282
 20
12.6625
 11
5.9438308116
 21
12.6625
  0
LINE
  5
237
100
AcDbEntity
  8
0
100
AcDbLine
 62
7
  6
BYLAYER
 10
28.7438283699
 20
12.8625
 11
25.7438283699
 21
12.8625
  0
LINE
  5
238
100
AcDbEntity
  8
0
100
AcDbLine
 62
7
  6
BYLAYER
 10
8.7438283699
 20
12.8625
 11
5.7438283699
 21
12.8625
  0
LINE
  5
239
100
AcDbEntity
  8
0
100
AcDbLine
 62
7
  6
BYLAYER
 10
8.6438283699
 20
17.7625
 11
8.7438283699
 21
17.6625
  0
LINE
  5
23A
100
AcDbEntity
  8
0
100
AcDbLine
 62
7
  6
BYLAYER
 10
7.7614664601
 20
17.7625
 11
7.7614664601
 21
18.3625
  0
LINE
  5
23B
100
AcDbEntity
  8
0
100
AcDbLine
 62
7
  6
BYLAYER
 10
8.7438283699
 20
17.6625
 11
8.7438283699
 21
12.8625
  0
LINE
  5
23C
100
AcDbEntity
  8
0
100
AcDbLine
 62
7
  6
BYLAYER
 10
10.0928101001
 20
28.3886467228
 11
10.2438283699
 21
26.6625
  0
LINE
  5
23D
100
AcDbEntity
  8
0
100
AcDbLine
 62
7
  6
BYLAYER
 10
11.7114069134
 20
18.3625
 11
11.7114069134
 21
17.7625
  0
LINE
  5
23E
100
AcDbEntity
  8
0
100
AcDbLine
 62
7
  6
BYLAYER
 10
25.7438283699
 20
17.3625
 11
24.8722350638
 21
17.3625
  0
LINE
  5
23F
100
AcDbEntity
  8
0
100
AcDbLine
 62
7
  6
BYLAYER
 10
24.164359499
 20
17.3625
 11
8.7438283699
 21
17.3625
  0
LINE
  5
240
100
AcDbEntity
  8
0
100
AcDbLine
 62
7
  6
BYLAYER
 10
5.7438283699
 20
17.6625
 11
8.7438283699
 21
17.6625
  0
LINE
  5
241
100
AcDbEntity
  8
0
100
AcDbLine
 62
7
  6
BYLAYER
 10
25.7438283699
 20
17.6625
 11
28.7438283699
 21
17.6625
  0
LINE
  5
242
100
AcDbEntity
  8
0
100
AcDbLine
 62
7
  6
BYLAYER
 10
29.2438283699
 20
17.7625
 11
28.6438283699
 21
17.7625
  0
LINE
  5
243
100
AcDbEntity
  8
0
100
AcDbLine
 62
7
  6
BYLAYER
 10
28.0245093442
 20
17.7625
 11
22.7762498264
 21
17.7625
  0
LINE
  5
244
100
AcDbEntity
  8
0
100
AcDbLine
 62
7
  6
BYLAYER
 10
11.7114069134
 20
17.7625
 11
6.4631473956
 21
17.7625
  0
LINE
  5
245
100
AcDbEntity
  8
0
100
AcDbLine
 62
7
  6
BYLAYER
 10
5.8438283699
 20
17.7625
 11
5.2438283699
 21
17.7625
  0
LINE
  5
246
100
AcDbEntity
  8
0
100
AcDbLine
 62
7
  6
BYLAYER
 10
28.5438283699
 20
17.8625
 11
28.0245093442
 21
17.8625
  0
LINE
  5
247
100
AcDbEntity
  8
0
100
AcDbLine
 62
7
  6
BYLAYER
 10
6.4631473956
 20
17.8625
 11
5.9438283699
 21
17.8625
  0
LINE
  5
248
100
AcDbEntity
  8
0
100
AcDbLine
 62
7
  6
BYLAYER
 10
12.2438283699
 20
38.3977540378
 11
12.2438283699
 21
35.6625
  0
LINE
  5
249
100
AcDbEntity
  8
0
100
AcDbLine
 62
7
  6
BYLAYER
 10
30.7438283699
 20
18.3625
 11
3.7438283699
 21
18.3625
  0
LINE
  5
24A
100
AcDbEntity
  8
0
100
AcDbLine
 62
7
  6
BYLAYER
 10
5.9438283699
 20
17.8625
 11
5.7438283699
 21
17.6625
  0
LINE
  5
24B
100
AcDbEntity
  8
0
100
AcDbLine
 62
7
  6
BYLAYER
 10
25.9438283699
 20
12.6625
 11
25.7438283699
 21
12.8625
  0
LINE
  5
24C
100
AcDbEntity
  8
0
100
AcDbLine
 62
7
  6
BYLAYER
 10
3.7438283699
 20
24.8625
 11
30.7438283699
 21
24.8625
  0
LINE
  5
24D
100
AcDbEntity
  8
0
100
AcDbLine
 62
7
  6
BYLAYER
 10
8.5438283699
 20
12.6625
 11
8.7438283699
 21
12.8625
  0
LINE
  5
24E
100
AcDbEntity
  8
0
100
AcDbLine
 62
7
  6
BYLAYER
 10
3.7938283699
 20
26.1625
 11
30.6938283699
 21
26.1625
  0
LINE
  5
24F
100
AcDbEntity
  8
0
100
AcDbLine
 62
7
  6
BYLAYER
 10
4.2438786199
 20
26.6625
 11
30.2437781199
 21
26.6625
  0
LINE
  5
250
100
AcDbEntity
  8
0
100
AcDbLine
 62
7
  6
BYLAYER
 10
4.9176892629
 20
27.8625
 11
5.5204071733
 21
27.8625
  0
LINE
  5
251
100
AcDbEntity
  8
0
100
AcDbLine
 62
7
  6
BYLAYER
 10
24.9176892629
 20
27.8625
 11
25.5204071733
 21
27.8625
  0
LINE
  5
252
100
AcDbEntity
  8
0
100
AcDbLine
 62
7
  6
BYLAYER
 10
28.5438283699
 20
17.8625
 11
28.7438283699
 21
17.6625
  0
LINE
  5
253
100
AcDbEntity
  8
0
100
AcDbLine
 62
7
  6
BYLAYER
 10
22.2438283699
 20
38.3977540378
 11
22.2438283699
 21
35.6625
  0
LINE
  5
254
100
AcDbEntity
  8
0
100
AcDbLine
 62
7
  6
BYLAYER
 10
22.7762498265
 20
17.7625
 11
22.7762498264
 21
18.3625
  0
LINE
  5
255
100
AcDbEntity
  8
0
100
AcDbLine
 62
7
  6
BYLAYER
 10
4.3948466397
 20
28.3886467228
 11
4.9423592277
 21
28.3886467228
  0
LINE
  5
256
100
AcDbEntity
  8
0
100
AcDbLine
 62
7
  6
BYLAYER
 10
5.564561659
 20
28.3886467228
 11
10.0928101001
 21
28.3886467228
  0
LINE
  5
257
100
AcDbEntity
  8
0
100
AcDbLine
 62
7
  6
BYLAYER
 10
24.3948466397
 20
28.3886467228
 11
24.9423592277
 21
28.3886467228
  0
LINE
  5
258
100
AcDbEntity
  8
0
100
AcDbLine
 62
7
  6
BYLAYER
 10
25.564561659
 20
28.3886467228
 11
30.0928101001
 21
28.3886467228
  0
LINE
  5
259
100
AcDbEntity
  8
0
100
AcDbLine
 62
7
  6
BYLAYER
 10
4.6937373811
 20
28.6625
 11
9.7939193587
 21
28.6625
  0
LINE
  5
25A
100
AcDbEntity
  8
0
100
AcDbLine
 62
7
  6
BYLAYER
 10
24.6937373811
 20
28.6625
 11
29.7939193587
 21
28.6625
  0
LINE
  5
25B
100
AcDbEntity
  8
0
100
AcDbLine
 62
7
  6
BYLAYER
 10
24.164863807
 20
17.3625
 11
24.1648736327
 21
17.7625
  0
LINE
  5
25C
100
AcDbEntity
  8
0
100
AcDbLine
 62
7
  6
BYLAYER
 10
24.3063097273
 20
11.0111296745
 11
24.3063097273
 21
17.7625
  0
LINE
  5
25D
100
AcDbEntity
  8
0
100
AcDbLine
 62
7
  6
BYLAYER
 10
24.164863807
 20
17.3625
 11
24.1027980081
 21
12.3359111336
  0
LINE
  5
25E
100
AcDbEntity
  8
0
100
AcDbLine
 62
7
  6
BYLAYER
 10
24.3948466397
 20
28.3886467228
 11
24.2438283699
 21
26.6625
  0
LINE
  5
25F
100
AcDbEntity
  8
0
100
AcDbLine
 62
7
  6
BYLAYER
 10
7.2938283699
 20
29.6625
 11
27.1938283699
 21
29.6625
  0
LINE
  5
260
100
AcDbEntity
  8
0
100
AcDbLine
 62
7
  6
BYLAYER
 10
24.8719804139
 20
17.7625
 11
24.8719705882
 21
17.3625
  0
LINE
  5
261
100
AcDbEntity
  8
0
100
AcDbLine
 62
7
  6
BYLAYER
 10
25.7438283699
 20
17.6625
 11
25.7438283699
 21
12.8625
  0
LINE
  5
262
100
AcDbEntity
  8
0
100
AcDbLine
 62
7
  6
BYLAYER
 10
24.8099047893
 20
12.3359111336
 11
24.8719705882
 21
17.3625
  0
LINE
  5
263
100
AcDbEntity
  8
0
100
AcDbLine
 62
7
  6
BYLAYER
 10
26.7261902797
 20
18.3625
 11
26.7261902797
 21
17.7625
  0
LINE
  5
264
100
AcDbEntity
  8
0
100
AcDbLine
 62
7
  6
BYLAYER
 10
27.1938283699
 20
29.6625
 11
27.1938283699
 21
28.6625
  0
LINE
  5
265
100
AcDbEntity
  8
0
100
AcDbLine
 62
7
  6
BYLAYER
 10
28.0245093442
 20
17.7625
 11
28.0245093442
 21
18.3625
  0
LINE
  5
266
100
AcDbEntity
  8
0
100
AcDbLine
 62
7
  6
BYLAYER
 10
28.5438283699
 20
18.3625
 11
28.5438283699
 21
17.8625
  0
LINE
  5
267
100
AcDbEntity
  8
0
100
AcDbLine
 62
7
  6
BYLAYER
 10
27.4560889349
 20
12.3359111336
 11
27.4617895647
 21
12.6625
  0
LINE
  5
268
100
AcDbEntity
  8
0
100
AcDbLine
 62
7
  6
BYLAYER
 10
25.8438283699
 20
17.7625
 11
25.7438283699
 21
17.6625
  0
LINE
  5
269
100
AcDbEntity
  8
0
100
AcDbLine
 62
7
  6
BYLAYER
 10
8.4696506744
 20
34.0507285809
 11
26.017574257
 21
34.0507285809
  0
LINE
  5
26A
100
AcDbEntity
  8
0
100
AcDbLine
 62
7
  6
BYLAYER
 10
26.0180060655
 20
34.0507285809
 11
27.1938283699
 21
29.6625
  0
LINE
  5
26B
100
AcDbEntity
  8
0
100
AcDbLine
 62
7
  6
BYLAYER
 10
28.8822255913
 20
18.3625
 11
28.8904300049
 21
17.7625
  0
LINE
  5
26C
100
AcDbEntity
  8
0
100
AcDbLine
 62
7
  6
BYLAYER
 10
28.7438283699
 20
17.6625
 11
28.7438283699
 21
12.8625
  0
LINE
  5
26D
100
AcDbEntity
  8
0
100
AcDbLine
 62
7
  6
BYLAYER
 10
29.085169516
 20
18.3625
 11
29.085169516
 21
17.7625
  0
LINE
  5
26E
100
AcDbEntity
  8
0
100
AcDbLine
 62
7
  6
BYLAYER
 10
29.2438283699
 20
17.7625
 11
29.2438283699
 21
18.3625
  0
LINE
  5
26F
100
AcDbEntity
  8
0
100
AcDbLine
 62
7
  6
BYLAYER
 10
29.9938283449
 20
26.6625
 11
29.9938283699
 21
24.8625
  0
LINE
  5
270
100
AcDbEntity
  8
0
100
AcDbLine
 62
7
  6
BYLAYER
 10
30.0439261822
 20
18.3625
 11
30.0439291157
 21
24.8625
  0
LINE
  5
271
100
AcDbEntity
  8
0
100
AcDbLine
 62
7
  6
BYLAYER
 10
9.9185394371
 20
35.1625
 11
24.5687567992
 21
35.1625
  0
LINE
  5
272
100
AcDbEntity
  8
0
100
AcDbLine
 62
7
  6
BYLAYER
 10
11.2438285048
 20
35.6625
 11
23.243828235
 21
35.6625
  0
LINE
  5
273
100
AcDbEntity
  8
0
100
AcDbLine
 62
7
  6
BYLAYER
 10
23.743828892
 20
35.1624998506
 11
23.243828235
 21
35.6625004788
  0
LINE
  5
274
100
AcDbEntity
  8
0
100
AcDbLine
 62
7
  6
BYLAYER
 10
30.0928101001
 20
28.3886467228
 11
30.2438283699
 21
26.6625
  0
LINE
  5
275
100
AcDbEntity
  8
0
100
AcDbLine
 62
7
  6
BYLAYER
 10
30.6938283699
 20
24.8625
 11
30.6938283699
 21
26.1625
  0
LINE
  5
276
100
AcDbEntity
  8
0
100
AcDbLine
 62
7
  6
BYLAYER
 10
30.7438283699
 20
18.3625
 11
30.7438283699
 21
24.8625
  0
LINE
  5
277
100
AcDbEntity
  8
0
100
AcDbLine
 62
7
  6
BYLAYER
 10
27.3891777892
 20
12.0946373368
 11
27.4560889349
 21
12.3359111336
  0
LINE
  5
278
100
AcDbEntity
  8
0
100
AcDbLine
 62
7
  6
BYLAYER
 10
26.8221405334
 20
11.1125
 11
27.3891777892
 21
12.0946373368
  0
LINE
  5
279
100
AcDbEntity
  8
0
100
AcDbLine
 62
7
  6
BYLAYER
 10
12.2438283699
 20
38.3977540378
 11
22.2438283699
 21
38.3977540378
  0
LINE
  5
27A
100
AcDbEntity
  8
0
100
AcDbLine
 62
7
  6
BYLAYER
 10
28.5438283699
 20
12.6625
 11
28.7438283699
 21
12.8625
  0
ARC
  5
27B
100
AcDbEntity
  8
0
100
AcDbCircle
 62
7
  6
BYLAYER
 10
17.2438283699
 20
29.7375
 40
10.0
100
AcDbArc
 50
60.0
 51
120.0
  0
ARC
  5
27C
100
AcDbEntity
  8
0
100
AcDbCircle
 62
7
  6
BYLAYER
 10
9.9185394102
 20
33.6625
 40
1.5
100
AcDbArc
 50
89.9999989747
 51
164.9999994776
  0
ARC
  5
27D
100
AcDbEntity
  8
0
100
AcDbCircle
 62
7
  6
BYLAYER
 10
24.5691173296
 20
33.6625
 40
1.5
100
AcDbArc
 50
15.0000005224
 51
90.0000010253
  0
ARC
  5
27E
100
AcDbEntity
  8
0
100
AcDbCircle
 62
7
  6
BYLAYER
 10
30.1938283699
 20
26.1625
 40
0.5
100
AcDbArc
 50
0.0
 51
90.0000000001
  0
ARC
  5
27F
100
AcDbEntity
  8
0
100
AcDbCircle
 62
7
  6
BYLAYER
 10
4.2938283699
 20
26.1625
 40
0.5
100
AcDbArc
 50
90.0
 51
180.0000000004
  0
ARC
  5
280
100
AcDbEntity
  8
0
100
AcDbCircle
 62
7
  6
BYLAYER
 10
8.0985289083
 20
11.3625
 40
0.5
100
AcDbArc
 50
210.0
 51
270.0
  0
ARC
  5
281
100
AcDbEntity
  8
0
100
AcDbCircle
 62
7
  6
BYLAYER
 10
26.3891278315
 20
11.3625
 40
0.5
100
AcDbArc
 50
270.0
 51
330.0
  0
ARC
  5
282
100
AcDbEntity
  8
0
100
AcDbCircle
 62
7
  6
BYLAYER
 10
9.7939516906
 20
28.3625
 40
0.3
100
AcDbArc
 50
5.0
 51
90.0
  0
ARC
  5
283
100
AcDbEntity
  8
0
100
AcDbCircle
 62
7
  6
BYLAYER
 10
4.6937050492
 20
28.3625
 40
0.3
100
AcDbArc
 50
90.0
 51
175.0
  0
ARC
  5
284
100
AcDbEntity
  8
0
100
AcDbCircle
 62
7
  6
BYLAYER
 10
29.7939516906
 20
28.3625
 40
0.3
100
AcDbArc
 50
5.0
 51
90.0
  0
ARC
  5
285
100
AcDbEntity
  8
0
100
AcDbCircle
 62
7
  6
BYLAYER
 10
24.6937050492
 20
28.3625
 40
0.3
100
AcDbArc
 50
90.0
 51
175.0
  0
SPLINE
  5
286
100
AcDbEntity
  8
0
100
AcDbSpline
 62
7
  6
BYLAYER
 70
0
 71
3
 72
14
 73
10
 74
0
 42
0.0000001
 43
0.0000001
 44
0.0000000001
 40
0.0
 40
0.0
 40
0.0
 40
0.0
 40
0.1041126864
 40
0.2119832382
 40
0.3259503295
 40
0.4474886714
 40
0.5768563707
 40
0.713286252
 40
1.0
 40
1.0
 40
1.0
 40
1.0
 10
5.7847257563
 20
28.6625
 30
0.0
 10
5.7714304957
 20
28.6625
 30
0.0
 10
5.7442461124
 20
28.658937338
 30
0.0
 10
5.7052302664
 20
28.6433906831
 30
0.0
 10
5.6688982695
 20
28.6182424834
 30
0.0
 10
5.6364218101
 20
28.5844565275
 30
0.0
 10
5.6088190276
 20
28.5431220054
 30
0.0
 10
5.5792342489
 20
28.478846125
 30
0.0
 10
5.5676273213
 20
28.4251316925
 30
0.0
 10
5.564561659
 20
28.3886467228
 30
0.0
  0
LINE
  5
287
100
AcDbEntity
  8
0
100
AcDbLine
 62
7
  6
BYLAYER
 10
5.564561659
 20
28.3886467228
 11
5.5204071733
 21
27.8625
  0
LINE
  5
288
100
AcDbEntity
  8
0
100
AcDbLine
 62
7
  6
BYLAYER
 10
4.9176892629
 20
27.8625
 11
4.9423592277
 21
28.3886467228
  0
SPLINE
  5
289
100
AcDbEntity
  8
0
100
AcDbSpline
 62
7
  6
BYLAYER
 70
0
 71
3
 72
14
 73
10
 74
0
 42
0.0000001
 43
0.0000001
 44
0.0000000001
 40
0.0
 40
0.0
 40
0.0
 40
0.0
 40
0.2881500792
 40
0.4243676591
 40
0.5531173285
 40
0.6738925104
 40
0.7872772036
 40
0.8951001995
 40
1.0
 40
1.0
 40
1.0
 40
1.0
 10
4.9423592277
 20
28.3886467228
 30
0.0
 10
4.9440655409
 20
28.4249567698
 30
0.0
 10
4.9535971725
 20
28.478589355
 30
0.0
 10
4.9808583561
 20
28.5430522818
 30
0.0
 10
5.0069449384
 20
28.5844294372
 30
0.0
 10
5.0382102728
 20
28.6182617573
 30
0.0
 10
5.0736783813
 20
28.6434421717
 30
0.0
 10
5.1121926414
 20
28.658982193
 30
0.0
 10
5.1391487533
 20
28.6625
 30
0.0
 10
5.1523818576
 20
28.6625
 30
0.0
  0
SPLINE
  5
28A
100
AcDbEntity
  8
0
100
AcDbSpline
 62
7
  6
BYLAYER
 70
0
 71
3
 72
14
 73
10
 74
0
 42
0.0000001
 43
0.0000001
 44
0.0000000001
 40
0.0
 40
0.0
 40
0.0
 40
0.0
 40
0.1041126864
 40
0.2119832382
 40
0.3259503295
 40
0.4474886714
 40
0.5768563707
 40
0.713286252
 40
1.0
 40
1.0
 40
1.0
 40
1.0
 10
25.7847257563
 20
28.6625
 30
0.0
 10
25.7714304957
 20
28.6625
 30
0.0
 10
25.7442461124
 20
28.658937338
 30
0.0
 10
25.7052302664
 20
28.6433906831
 30
0.0
 10
25.6688982695
 20
28.6182424834
 30
0.0
 10
25.6364218101
 20
28.5844565275
 30
0.0
 10
25.6088190276
 20
28.5431220054
 30
0.0
 10
25.5792342489
 20
28.478846125
 30
0.0
 10
25.5676273213
 20
28.4251316925
 30
0.0
 10
25.564561659
 20
28.3886467228
 30
0.0
  0
LINE
  5
28B
100
AcDbEntity
  8
0
100
AcDbLine
 62
7
  6
BYLAYER
 10
25.564561659
 20
28.3886467228
 11
25.5204071733
 21
27.8625
  0
LINE
  5
28C
100
AcDbEntity
  8
0
100
AcDbLine
 62
7
  6
BYLAYER
 10
24.9176892629
 20
27.8625
 11
24.9423592277
 21
28.3886467228
  0
SPLINE
  5
28D
100
AcDbEntity
  8
0
100
AcDbSpline
 62
7
  6
BYLAYER
 70
0
 71
3
 72
14
 73
10
 74
0
 42
0.0000001
 43
0.0000001
 44
0.0000000001
 40
0.0
 40
0.0
 40
0.0
 40
0.0
 40
0.2881500792
 40
0.4243676591
 40
0.5531173285
 40
0.6738925104
 40
0.7872772036
 40
0.8951001995
 40
1.0
 40
1.0
 40
1.0
 40
1.0
 10
24.9423592277
 20
28.3886467228
 30
0.0
 10
24.9440655409
 20
28.4249567698
 30
0.0
 10
24.9535971725
 20
28.478589355
 30
0.0
 10
24.9808583561
 20
28.5430522818
 30
0.0
 10
25.0069449384
 20
28.5844294372
 30
0.0
 10
25.0382102728
 20
28.6182617573
 30
0.0
 10
25.0736783813
 20
28.6434421717
 30
0.0
 10
25.1121926414
 20
28.658982193
 30
0.0
 10
25.1391487533
 20
28.6625
 30
0.0
 10
25.1523818576
 20
28.6625
 30
0.0
  0
LINE
  5
28E
100
AcDbEntity
  8
0
100
AcDbLine
 62
7
  6
BYLAYER
 10
23.6539302005
 20
11.1125
 11
24.0554028511
 21
12.0946373368
  0
SPLINE
  5
28F
100
AcDbEntity
  8
0
100
AcDbSpline
 62
7
  6
BYLAYER
 70
0
 71
3
 72
14
 73
10
 74
0
 42
0.0000001
 43
0.0000001
 44
0.0000000001
 40
0.0
 40
0.0
 40
0.0
 40
0.0
 40
0.1054134087
 40
0.2139932308
 40
0.3279014269
 40
0.4488339403
 40
0.7121950149
 40
0.8540390323
 40
1.0
 40
1.0
 40
1.0
 40
1.0
 10
10.8669035238
 20
7.5125
 30
0.0
 10
10.8462131759
 20
7.5125
 30
0.0
 10
10.8040493302
 20
7.5177978192
 30
0.0
 10
10.7433828408
 20
7.5408367502
 30
0.0
 10
10.6866836253
 20
7.5782248696
 30
0.0
 10
10.6168846777
 20
7.6474331803
 30
0.0
 10
10.5642598095
 20
7.7386672171
 30
0.0
 10
10.5303576116
 20
7.8415482568
 30
0.0
 10
10.5197491851
 20
7.8972500843
 30
0.0
 10
10.516180635
 20
7.9256759112
 30
0.0
  0
LINE
  5
290
100
AcDbEntity
  8
0
100
AcDbLine
 62
7
  6
BYLAYER
 10
10.1476393937
 20
10.8625
 11
10.516180635
 21
7.9256759112
  0
LINE
  5
291
100
AcDbEntity
  8
0
100
AcDbLine
 62
7
  6
BYLAYER
 10
23.9714761048
 20
7.9256759112
 11
24.3400173461
 21
10.8625
  0
SPLINE
  5
292
100
AcDbEntity
  8
0
100
AcDbSpline
 62
7
  6
BYLAYER
 70
0
 71
3
 72
14
 73
10
 74
0
 42
0.0000001
 43
0.0000001
 44
0.0000000001
 40
0.0
 40
0.0
 40
0.0
 40
0.0
 40
0.1459625039
 40
0.287813232
 40
0.5511726147
 40
0.6721028114
 40
0.7860098519
 40
0.8945872825
 40
1.0
 40
1.0
 40
1.0
 40
1.0
 10
23.9714761048
 20
7.9256759112
 30
0.0
 10
23.967907523
 20
7.8972498319
 30
0.0
 10
23.9572958072
 20
7.8415470011
 30
0.0
 10
23.9233943548
 20
7.7386651343
 30
0.0
 10
23.8707724219
 20
7.6474275215
 30
0.0
 10
23.8009685642
 20
7.5782259918
 30
0.0
 10
23.744272244
 20
7.5408365069
 30
0.0
 10
23.6836067456
 20
7.5177967119
 30
0.0
 10
23.6414434559
 20
7.5125
 30
0.0
 10
23.6207532778
 20
7.5125
 30
0.0
  0
SPLINE
  5
293
100
AcDbEntity
  8
0
100
AcDbSpline
 62
7
  6
BYLAYER
 70
0
 71
3
 72
9
 73
5
 74
0
 42
0.0000001
 43
0.0000001
 44
0.0000000001
 40
0.0
 40
0.0
 40
0.0
 40
0.0
 40
0.2558910653
 40
1.0
 40
1.0
 40
1.0
 40
1.0
 10
24.1027980081
 20
12.3359111336
 30
0.0
 10
24.1025380236
 20
12.3148723112
 30
0.0
 10
24.0978170879
 20
12.2327720843
 30
0.0
 10
24.078552239
 20
12.1512726191
 30
0.0
 10
24.0554028511
 20
12.0946373368
 30
0.0
  0
SPLINE
  5
294
100
AcDbEntity
  8
0
100
AcDbSpline
 62
7
  6
BYLAYER
 70
0
 71
3
 72
9
 73
5
 74
0
 42
0.0000001
 43
0.0000001
 44
0.0000000001
 40
0.0
 40
0.0
 40
0.0
 40
0.0
 40
0.2571252285
 40
1.0
 40
1.0
 40
1.0
 40
1.0
 10
23.6539302005
 20
11.1125
 30
0.0
 10
23.6501897328
 20
11.1033502547
 30
0.0
 10
23.6347354922
 20
11.0681486066
 30
0.0
 10
23.615571217
 20
11.0345321887
 30
0.0
 10
23.5992029462
 20
11.0111296745
 30
0.0
  0
LINE
  5
295
100
AcDbEntity
  8
0
100
AcDbLine
 62
7
  6
BYLAYER
 10
13.4682636672
 20
10.4493240888
 11
13.7871036444
 21
7.9256759112
  0
LINE
  5
296
100
AcDbEntity
  8
0
100
AcDbLine
 62
7
  6
BYLAYER
 10
20.7005530955
 20
7.9256759112
 11
21.0193930727
 21
10.4493240888
  0
LINE
  5
297
100
AcDbEntity
  8
0
100
AcDbLine
 62
7
  6
BYLAYER
 10
24.7625096323
 20
12.0946373368
 11
24.3610369817
 21
11.1125
  0
SPLINE
  5
298
100
AcDbEntity
  8
0
100
AcDbSpline
 62
7
  6
BYLAYER
 70
0
 71
3
 72
11
 73
7
 74
0
 42
0.0000001
 43
0.0000001
 44
0.0000000001
 40
0.0
 40
0.0
 40
0.0
 40
0.0
 40
0.2500829732
 40
0.5000000351
 40
0.7499170721
 40
1.0
 40
1.0
 40
1.0
 40
1.0
 10
23.5992029462
 20
11.0111296745
 30
0.0
 10
23.6580305676
 20
11.0066972344
 30
0.0
 10
23.7758439647
 20
11.0003198868
 30
0.0
 10
23.952756353
 20
10.9972418701
 30
0.0
 10
24.1296686886
 20
11.0003207767
 30
0.0
 10
24.2474821165
 20
11.0066972352
 30
0.0
 10
24.3063097273
 20
11.0111296745
 30
0.0
  0
SPLINE
  5
299
100
AcDbEntity
  8
0
100
AcDbSpline
 62
7
  6
BYLAYER
 70
0
 71
3
 72
9
 73
5
 74
0
 42
0.0000001
 43
0.0000001
 44
0.0000000001
 40
0.0
 40
0.0
 40
0.0
 40
0.0
 40
0.2429918624
 40
1.0
 40
1.0
 40
1.0
 40
1.0
 10
24.3063097273
 20
11.0111296745
 30
0.0
 10
24.3116639671
 20
11.0187848919
 30
0.0
 10
24.3327417714
 20
11.0509532708
 30
0.0
 10
24.3500241081
 20
11.0855608584
 30
0.0
 10
24.3610369817
 20
11.1125
 30
0.0
  0
SPLINE
  5
29A
100
AcDbEntity
  8
0
100
AcDbSpline
 62
7
  6
BYLAYER
 70
0
 71
3
 72
9
 73
5
 74
0
 42
0.0000001
 43
0.0000001
 44
0.0000000001
 40
0.0
 40
0.0
 40
0.0
 40
0.0
 40
0.2432891913
 40
1.0
 40
1.0
 40
1.0
 40
1.0
 10
24.7625096323
 20
12.0946373368
 30
0.0
 10
24.7700792801
 20
12.1131565798
 30
0.0
 10
24.7972365812
 20
12.1908599533
 30
0.0
 10
24.8091358851
 20
12.2736888267
 30
0.0
 10
24.8099047893
 20
12.3359111336
 30
0.0
  0
LINE
  5
29B
100
AcDbEntity
  8
0
100
AcDbLine
 62
7
  6
BYLAYER
 10
11.9303941974
 20
7.9256759112
 11
11.5618529561
 21
10.8625
  0
SPLINE
  5
29C
100
AcDbEntity
  8
0
100
AcDbSpline
 62
7
  6
BYLAYER
 70
0
 71
3
 72
14
 73
10
 74
0
 42
0.0000001
 43
0.0000001
 44
0.0000000001
 40
0.0
 40
0.0
 40
0.0
 40
0.0
 40
0.1460137144
 40
0.2878663262
 40
0.5511320359
 40
0.6720186752
 40
0.7859184615
 40
0.8945315144
 40
1.0
 40
1.0
 40
1.0
 40
1.0
 10
13.4682636672
 20
10.4493240888
 30
0.0
 10
13.4646686853
 20
10.47780513
 30
0.0
 10
13.453974755
 20
10.5336016897
 30
0.0
 10
13.4198190844
 20
10.636585247
 30
0.0
 10
13.3668608055
 20
10.7278074877
 30
0.0
 10
13.2967685911
 20
10.7969074709
 30
0.0
 10
13.2398912554
 20
10.8342168443
 30
0.0
 10
13.1790797809
 20
10.8572082838
 30
0.0
 10
13.1368299527
 20
10.8625
 30
0.0
 10
13.1160943181
 20
10.8625
 30
0.0
  0
SPLINE
  5
29D
100
AcDbEntity
  8
0
100
AcDbSpline
 62
7
  6
BYLAYER
 70
0
 71
3
 72
15
 73
11
 74
0
 42
0.0000001
 43
0.0000001
 44
0.0000000001
 40
0.0
 40
0.0
 40
0.0
 40
0.0
 40
0.1054351714
 40
0.2139698292
 40
0.3277391151
 40
0.4484707739
 40
0.5767639809
 40
0.7122809903
 40
0.8540405308
 40
1.0
 40
1.0
 40
1.0
 40
1.0
 10
14.140735959
 20
7.5125
 30
0.0
 10
14.1199488942
 20
7.5125
 30
0.0
 10
14.0776050595
 20
7.5177445389
 30
0.0
 10
14.016602199
 20
7.5405997944
 30
0.0
 10
13.9595009845
 20
7.5777654623
 30
0.0
 10
13.9081169955
 20
7.6281124863
 30
0.0
 10
13.8638130611
 20
7.690057987
 30
0.0
 10
13.8278998108
 20
7.7618347832
 30
0.0
 10
13.8014424618
 20
7.8412333694
 30
0.0
 10
13.7907141823
 20
7.8971266823
 30
0.0
 10
13.7871036444
 20
7.9256759112
 30
0.0
  0
SPLINE
  5
29E
100
AcDbEntity
  8
0
100
AcDbSpline
 62
7
  6
BYLAYER
 70
0
 71
3
 72
14
 73
10
 74
0
 42
0.0000001
 43
0.0000001
 44
0.0000000001
 40
0.0
 40
0.0
 40
0.0
 40
0.0
 40
0.1459625039
 40
0.287813232
 40
0.5511726147
 40
0.6721028114
 40
0.7860098519
 40
0.8945872825
 40
1.0
 40
1.0
 40
1.0
 40
1.0
 10
11.9303941974
 20
7.9256759112
 30
0.0
 10
11.9339627792
 20
7.8972498319
 30
0.0
 10
11.944574495
 20
7.8415470011
 30
0.0
 10
11.9784759474
 20
7.7386651343
 30
0.0
 10
12.0310978803
 20
7.6474275215
 30
0.0
 10
12.100901738
 20
7.5782259918
 30
0.0
 10
12.1575980582
 20
7.5408365069
 30
0.0
 10
12.2182635566
 20
7.5177967119
 30
0.0
 10
12.2604268462
 20
7.5125
 30
0.0
 10
12.2811170244
 20
7.5125
 30
0.0
  0
SPLINE
  5
29F
100
AcDbEntity
  8
0
100
AcDbSpline
 62
7
  6
BYLAYER
 70
0
 71
3
 72
14
 73
10
 74
0
 42
0.0000001
 43
0.0000001
 44
0.0000000001
 40
0.0
 40
0.0
 40
0.0
 40
0.0
 40
0.1054134087
 40
0.2139932308
 40
0.3279014269
 40
0.4488339403
 40
0.7121950149
 40
0.8540390323
 40
1.0
 40
1.0
 40
1.0
 40
1.0
 10
22.2065396536
 20
7.5125
 30
0.0
 10
22.2272300015
 20
7.5125
 30
0.0
 10
22.2693938472
 20
7.5177978192
 30
0.0
 10
22.3300603366
 20
7.5408367502
 30
0.0
 10
22.3867595522
 20
7.5782248696
 30
0.0
 10
22.4565584997
 20
7.6474331803
 30
0.0
 10
22.509183368
 20
7.7386672171
 30
0.0
 10
22.5430855658
 20
7.8415482568
 30
0.0
 10
22.5536939923
 20
7.8972500843
 30
0.0
 10
22.5572625424
 20
7.9256759112
 30
0.0
  0
SPLINE
  5
2A0
100
AcDbEntity
  8
0
100
AcDbSpline
 62
7
  6
BYLAYER
 70
0
 71
3
 72
14
 73
10
 74
0
 42
0.0000001
 43
0.0000001
 44
0.0000000001
 40
0.0
 40
0.0
 40
0.0
 40
0.0
 40
0.1460809955
 40
0.2879651812
 40
0.5511681444
 40
0.6719944954
 40
0.7858552513
 40
0.8944785176
 40
1.0
 40
1.0
 40
1.0
 40
1.0
 10
20.7005530955
 20
7.9256759112
 30
0.0
 10
20.6969425654
 20
7.8971267447
 30
0.0
 10
20.686195038
 20
7.8412052127
 30
0.0
 10
20.6518526021
 20
7.7380499307
 30
0.0
 10
20.598591307
 20
7.6467649361
 30
0.0
 10
20.528160468
 20
7.5777757694
 30
0.0
 10
20.4710559404
 20
7.5406032167
 30
0.0
 10
20.4100573612
 20
7.5177469677
 30
0.0
 10
20.3677139744
 20
7.5125
 30
0.0
 10
20.3469272454
 20
7.5125
 30
0.0
  0
SPLINE
  5
2A1
100
AcDbEntity
  8
0
100
AcDbSpline
 62
7
  6
BYLAYER
 70
0
 71
3
 72
14
 73
10
 74
0
 42
0.0000001
 43
0.0000001
 44
0.0000000001
 40
0.0
 40
0.0
 40
0.0
 40
0.0
 40
0.1054688884
 40
0.2140828412
 40
0.3279843999
 40
0.4488741966
 40
0.7121416973
 40
0.8539878908
 40
1.0
 40
1.0
 40
1.0
 40
1.0
 10
21.3715658634
 20
10.8625
 30
0.0
 10
21.3508299877
 20
10.8625
 30
0.0
 10
21.308579537
 20
10.8572095698
 30
0.0
 10
21.2477661614
 20
10.8342197431
 30
0.0
 10
21.1908871791
 20
10.7969092192
 30
0.0
 10
21.1207976561
 20
10.7278037565
 30
0.0
 10
21.067834717
 20
10.6365845945
 30
0.0
 10
21.0336786614
 20
10.5336009896
 30
0.0
 10
21.022988043
 20
10.4778050392
 30
0.0
 10
21.0193930727
 20
10.4493240888
 30
0.0
  0
LINE
  5
2A2
100
AcDbEntity
  8
0
100
AcDbLine
 62
7
  6
BYLAYER
 10
22.9258037837
 20
10.8625
 11
22.5572625424
 21
7.9256759112
  0
ENDSEC
  0
SECTION
  2
OBJECTS
  0
DICTIONARY
  5
C
100
AcDbDictionary
280
0
281
1
  3
ACAD_GROUP
350
D
  3
ACAD_MLINESTYLE
350
17
  3
ACAD_LAYOUT
350
1A
  3
ACAD_PLOTSETTINGS
350
19
  3
ACAD_PLOTSTYLENAME
350
E
  0
DICTIONARY
  5
D
102
{ACAD_REACTORS
330
C
102
}
100
AcDbDictionary
280
0
281
1
  0
ACDBDICTIONARYWDFLT
  5
E
102
{ACAD_REACTORS
330
C
102
}
100
AcDbDictionary
281
1
  3
Normal
350
F
100
AcDbDictionaryWithDefault
340
F
  0
DICTIONARY
  5
17
102
{ACAD_REACTORS
330
C
102
}
100
AcDbDictionary
280
0
281
1
  3
Standard
350
18
  0
DICTIONARY
  5
19
102
{ACAD_REACTORS
330
C
102
}
100
AcDbDictionary
281
1
  0
DICTIONARY
  5
1A
102
{ACAD_REACTORS
330
C
102
}
100
AcDbDictionary
281
1
  3
Model
350
2A3
  3
Layout1
350
2A4
  0
ACDBPLACEHOLDER
  5
F
102
{ACAD_REACTORS
330
E
102
}
  0
MLINESTYLE
  5
18
102
{ACAD_REACTORS
330
17
102
}
100
AcDbMlineStyle
  2
STANDARD
 70
0
  3

 62
256
 51
90.0
 52
90.0
 71
2
 49
0.5
 62
256
  6
BYLAYER
 49
-0.5
 62
256
  6
BYLAYER
  0
LAYOUT
  5
2A3
102
{ACAD_REACTORS
330
1A
102
}
100
AcDbPlotSettings
  1

  2
none_device
  4

  6

 40
0.0
 41
0.0
 42
0.0
 43
0.0
 44
210.0
 45
297.0
 46
0.0
 47
0.0
 48
0.0
 49
0.0
140
0.0
141
0.0
142
1.0
143
1.0
 70
1024
 72
1
 73
0
 74
0
  7

 75
0
147
1.0
148
0.0
149
0.0
100
AcDbLayout
  1
Model
 70
0
 71
0
 10
0.0
 20
0.0
 11
210.0
 21
297.0
 12
0.0
 22
0.0
 32
0.0
 14
0.0
 24
0.0
 34
0.0
 15
0.0
 25
0.0
 35
0.0
146
0.0
 13
0.0
 23
0.0
 33
0.0
 16
1.0
 26
0.0
 36
0.0
 17
0.0
 27
1.0
 37
0.0
 76
0
330
210
345
0
346
0
  0
LAYOUT
  5
2A4
102
{ACAD_REACTORS
330
1A
102
}
100
AcDbPlotSettings
  1

  2
none_device
  4

  6

 40
0.0
 41
0.0
 42
0.0
 43
0.0
 44
210.0
 45
297.0
 46
0.0
 47
0.0
 48
0.0
 49
0.0
140
0.0
141
0.0
142
1.0
143
1.0
 70
0
 72
1
 73
0
 74
0
  7

 75
0
147
1.0
148
0.0
149
0.0
100
AcDbLayout
  1
Layout1
 70
0
 71
1
 10
0.0
 20
0.0
 11
210.0
 21
297.0
 12
0.0
 22
0.0
 32
0.0
 14
0.0
 24
0.0
 34
0.0
 15
0.0
 25
0.0
 35
0.0
146
0.0
 13
0.0
 23
0.0
 33
0.0
 16
1.0
 26
0.0
 36
0.0
 17
0.0
 27
1.0
 37
0.0
 76
0
330
211
345
0
346
0
  0
ENDSEC
  0
EOF
