999
DXF file: C:\Users\sesa63760\Dev\_Creo\CAD\MCADID0004745_3D-CAD\drw0001_6.dxf
999
Pro/ENGINEER 2019471 by Parametric Technology Corporation
  0
SECTION
  2
HEADER
  9
$ACADVER
  1
AC1024
  9
$DWGCODEPAGE
  3
ANSI_1252
  9
$EXTMAX
 10
32.822543618
 20
46.4204545455
 30
0.0
  9
$EXTMIN
 10
0.0
 20
0.0
 30
0.0
  9
$LIMMIN
 10
0.0
 20
0.0
  9
$LIMMAX
 10
32.822543618
 20
46.4204545455
  9
$VIEWCTR
 10
16.411271809
 20
23.2102272727
  9
$VIEWSIZE
 40
46.4204545455
  9
$CLAYER
  8
0
  9
$LTSCALE
 40
3.0259259259
  9
$CELTYPE
  6
BYLAYER
  9
$DIMSCALE
 40
1.0
  9
$DIMASZ
 40
0.3907445669
  9
$DIMEXO
 40
1.0
  9
$DIMDLI
 40
2.0906397306
  9
$DIMEXE
 40
1.0
  9
$DIMCEN
 40
0.4951515152
  9
$DIMLFAC
 40
1.0
  9
$DIMBLK
  1
_FILLED
  9
$DIMALT
 70
0
  9
$DIMALTF
 40
0.0393700787
  9
$DIMTXT
 40
0.5470423936
  9
$DIMTOL
 70
1
  9
$DIMLIM
 70
0
  9
$DIMTFAC
 40
1.0
  9
$DIMTP
 40
0.01
  9
$DIMTM
 40
0.01
  9
$DIMGAP
 40
0.625
  9
$DIMDSEP
 70
46
  9
$AUNITS
 70
0
  9
$PDMODE
 70
3
  9
$PDSIZE
 40
0.3125
  9
$HANDSEED
  5
277
  9
$TILEMODE
 70
1
  9
$MEASUREMENT
 70
1
  9
$INSUNITS
 70
4
  0
ENDSEC
  0
SECTION
  2
CLASSES
  0
CLASS
  1
ACDBDICTIONARYWDFLT
  2
AcDbDictionaryWithDefault
  3
AutoCAD 2000
 90
0
 91
1
280
0
281
0
  0
CLASS
  1
ACDBPLACEHOLDER
  2
AcDbPlaceHolder
  3
AutoCAD 2000
 90
0
 91
1
280
0
281
0
  0
CLASS
  1
LAYOUT
  2
AcDbLayout
  3
AutoCAD 2000
 90
0
 91
0
280
0
281
0
  0
ENDSEC
  0
SECTION
  2
TABLES
  0
TABLE
  2
VPORT
  5
8
100
AcDbSymbolTable
 70
2
  0
VPORT
  5
1F4
100
AcDbSymbolTableRecord
100
AcDbViewportTableRecord
  2
*ACTIVE
 70
0
 10
0.0
 20
0.0
 11
1.0
 21
1.0
 12
16.411271809
 22
23.2102272727
 13
0.0
 23
0.0
 14
1.0
 24
1.0
 15
0.0
 25
0.0
 16
0.0
 26
0.0
 36
1.0
 17
0.0
 27
0.0
 37
0.0
 40
46.4204545455
 41
0.7070707071
 42
50.0
 43
0.0
 44
0.0
 50
0.0
 51
0.0
 71
0
 72
100
 73
1
 74
1
 75
0
 76
0
 77
0
 78
0
  0
ENDTAB
  0
TABLE
  2
LTYPE
  5
5
100
AcDbSymbolTable
 70
6
  0
LTYPE
  5
14
100
AcDbSymbolTableRecord
100
AcDbLinetypeTableRecord
  2
BYBLOCK
 70
0
  3

 72
65
 73
0
 40
0.0
  0
LTYPE
  5
15
100
AcDbSymbolTableRecord
100
AcDbLinetypeTableRecord
  2
BYLAYER
 70
0
  3

 72
65
 73
0
 40
0.0
  0
LTYPE
  5
16
100
AcDbSymbolTableRecord
100
AcDbLinetypeTableRecord
  2
CONTINUOUS
 70
64
  3
Solid line
 72
65
 73
0
 40
0.0
  0
LTYPE
  5
1F5
100
AcDbSymbolTableRecord
100
AcDbLinetypeTableRecord
  2
CENTER
 70
64
  3
____ _ ____ _ ____ _ ____ _ ____ _ ____ _ ____
 72
65
 73
4
 40
0.6
 49
0.375
 74
0
 49
-0.075
 74
0
 49
0.075
 74
0
 49
-0.075
 74
0
  0
LTYPE
  5
1F6
100
AcDbSymbolTableRecord
100
AcDbLinetypeTableRecord
  2
HIDDEN
 70
64
  3
- - - - - - - - - - - - - - - - - - - -
 72
65
 73
2
 40
0.2
 49
0.1
 74
0
 49
-0.1
 74
0
  0
LTYPE
  5
1F7
100
AcDbSymbolTableRecord
100
AcDbLinetypeTableRecord
  2
PHANTOM
 70
64
  3
_____ _ _ _____ _ _ _____ _ _ _____
 72
65
 73
6
 40
0.8
 49
0.45
 74
0
 49
-0.05
 74
0
 49
0.1
 74
0
 49
-0.05
 74
0
 49
0.1
 74
0
 49
-0.05
 74
0
  0
LTYPE
  5
1F8
100
AcDbSymbolTableRecord
100
AcDbLinetypeTableRecord
  2
DOT
 70
64
  3
. . . . . . . . . . . . . . . . . . . .
 72
65
 73
2
 40
0.2
 49
0.1
 74
0
 49
-0.1
 74
0
  0
LTYPE
  5
1F9
100
AcDbSymbolTableRecord
100
AcDbLinetypeTableRecord
  2
DASHED
 70
64
  3
- - - - - - - - - - - - - - - - - - - -
 72
65
 73
2
 40
0.2
 49
0.1
 74
0
 49
-0.1
 74
0
  0
ENDTAB
  0
TABLE
  2
LAYER
  5
2
100
AcDbSymbolTable
 70
36
  0
LAYER
  5
10
100
AcDbSymbolTableRecord
100
AcDbLayerTableRecord
  2
0
 70
0
 62
7
  6
CONTINUOUS
370
-3
390
F
  0
LAYER
  5
1FA
100
AcDbSymbolTableRecord
100
AcDbLayerTableRecord
  2
DEFAULT_1
 70
0
 62
7
  6
CENTER
370
-3
390
F
  0
LAYER
  5
1FB
100
AcDbSymbolTableRecord
100
AcDbLayerTableRecord
  2
DEFAULT_2
 70
0
 62
7
  6
HIDDEN
370
-3
390
F
  0
LAYER
  5
1FC
100
AcDbSymbolTableRecord
100
AcDbLayerTableRecord
  2
DEFAULT_3
 70
0
 62
7
  6
PHANTOM
370
-3
390
F
  0
LAYER
  5
1FD
100
AcDbSymbolTableRecord
100
AcDbLayerTableRecord
  2
00_COMPONENTS
 70
0
 62
7
  6
CONTINUOUS
370
-3
390
F
  0
LAYER
  5
1FE
100
AcDbSymbolTableRecord
100
AcDbLayerTableRecord
  2
01_1_DEFAULT_DATUMS
 70
0
 62
7
  6
CONTINUOUS
370
-3
390
F
  0
LAYER
  5
1FF
100
AcDbSymbolTableRecord
100
AcDbLayerTableRecord
  2
01_PLANES
 70
0
 62
7
  6
CONTINUOUS
370
-3
390
F
  0
LAYER
  5
200
100
AcDbSymbolTableRecord
100
AcDbLayerTableRecord
  2
02_COORD_SYS
 70
0
 62
7
  6
CONTINUOUS
370
-3
390
F
  0
LAYER
  5
201
100
AcDbSymbolTableRecord
100
AcDbLayerTableRecord
  2
03_AXES
 70
0
 62
7
  6
CONTINUOUS
370
-3
390
F
  0
LAYER
  5
202
100
AcDbSymbolTableRecord
100
AcDbLayerTableRecord
  2
04_POINTS
 70
0
 62
7
  6
CONTINUOUS
370
-3
390
F
  0
LAYER
  5
203
100
AcDbSymbolTableRecord
100
AcDbLayerTableRecord
  2
05_CURVES
 70
0
 62
7
  6
CONTINUOUS
370
-3
390
F
  0
LAYER
  5
204
100
AcDbSymbolTableRecord
100
AcDbLayerTableRecord
  2
06_SURFS
 70
0
 62
7
  6
CONTINUOUS
370
-3
390
F
  0
LAYER
  5
205
100
AcDbSymbolTableRecord
100
AcDbLayerTableRecord
  2
07_COSMETICS
 70
0
 62
7
  6
CONTINUOUS
370
-3
390
F
  0
LAYER
  5
206
100
AcDbSymbolTableRecord
100
AcDbLayerTableRecord
  2
10_NOTES
 70
0
 62
7
  6
CONTINUOUS
370
-3
390
F
  0
LAYER
  5
207
100
AcDbSymbolTableRecord
100
AcDbLayerTableRecord
  2
11_NOTES_PUB
 70
0
 62
7
  6
CONTINUOUS
370
-3
390
F
  0
LAYER
  5
208
100
AcDbSymbolTableRecord
100
AcDbLayerTableRecord
  2
13_REF_GTOL
 70
0
 62
7
  6
CONTINUOUS
370
-3
390
F
  0
LAYER
  5
209
100
AcDbSymbolTableRecord
100
AcDbLayerTableRecord
  2
16_MISC
 70
0
 62
7
  6
CONTINUOUS
370
-3
390
F
  0
LAYER
  5
20A
100
AcDbSymbolTableRecord
100
AcDbLayerTableRecord
  2
17_NO_PRINT
 70
0
 62
7
  6
CONTINUOUS
370
-3
390
F
  0
LAYER
  5
20B
100
AcDbSymbolTableRecord
100
AcDbLayerTableRecord
  2
18_DATUM_CAMS_JOINTS
 70
0
 62
7
  6
CONTINUOUS
370
-3
390
F
  0
LAYER
  5
20C
100
AcDbSymbolTableRecord
100
AcDbLayerTableRecord
  2
19_DATUM_FUNCTIONAL
 70
0
 62
7
  6
CONTINUOUS
370
-3
390
F
  0
LAYER
  5
20D
100
AcDbSymbolTableRecord
100
AcDbLayerTableRecord
  2
20_DATUM_KINEMATIC_SCHEME
 70
0
 62
7
  6
CONTINUOUS
370
-3
390
F
  0
ENDTAB
  0
TABLE
  2
STYLE
  5
3
100
AcDbSymbolTable
 70
1
  0
STYLE
  5
11
100
AcDbSymbolTableRecord
100
AcDbTextStyleTableRecord
  2
STANDARD
 70
0
 40
0.0
 41
1.0
 50
0.0
 71
0
 42
0.2
  3
ARIAL.TTF
  4

  0
STYLE
  5
20E
100
AcDbSymbolTableRecord
100
AcDbTextStyleTableRecord
  2
TEXTSTYLE_1
 70
0
 40
0.0
 41
0.8
 50
0.0
 71
0
 42
0.2
  3
gdt
  4

  0
ENDTAB
  0
TABLE
  2
VIEW
  5
6
100
AcDbSymbolTable
 70
0
  0
ENDTAB
  0
TABLE
  2
UCS
  5
7
100
AcDbSymbolTable
 70
0
  0
ENDTAB
  0
TABLE
  2
APPID
  5
9
100
AcDbSymbolTable
 70
1
  0
APPID
  5
20F
100
AcDbSymbolTableRecord
100
AcDbRegAppTableRecord
  2
ACAD
 70
0
  0
ENDTAB
  0
TABLE
  2
BLOCK_RECORD
  5
1
100
AcDbSymbolTable
 70
0
  0
BLOCK_RECORD
  5
210
100
AcDbSymbolTableRecord
100
AcDbBlockTableRecord
  2
*Model_Space
  0
BLOCK_RECORD
  5
211
100
AcDbSymbolTableRecord
100
AcDbBlockTableRecord
  2
*Paper_Space
  0
BLOCK_RECORD
  5
212
100
AcDbSymbolTableRecord
100
AcDbBlockTableRecord
  2
_FILLED
  0
ENDTAB
  0
TABLE
  2
DIMSTYLE
  5
A
100
AcDbSymbolTable
 70
1
100
AcDbDimStyleTable
 71
0
  0
DIMSTYLE
105
213
100
AcDbSymbolTableRecord
100
AcDbDimStyleTableRecord
  2
STANDARD
 70
0
  3

  4

 40
1.0
 41
0.3907445669
 42
1.0
 43
0.38
 44
1.0
 45
0.0
 46
0.0
 47
0.01
 48
0.01
140
0.5470423936
141
0.09
142
0.0
143
25.4
144
1.0
145
0.0
146
1.0
147
0.625
 71
1
 72
0
 73
0
 74
0
 75
0
 76
0
 77
1
 78
8
 79
2
170
0
171
1
172
0
173
0
174
0
175
0
176
0
177
0
178
0
270
2
179
2
271
2
272
2
273
2
274
2
275
0
280
0
281
0
282
0
283
1
284
8
285
0
286
0
287
3
288
0
340
11
278
46
341
212
342
212
343
212
344
212
  0
ENDTAB
  0
ENDSEC
  0
SECTION
  2
BLOCKS
  0
BLOCK
  5
20
100
AcDbEntity
  8
0
100
AcDbBlockBegin
  2
*Model_Space
 70
0
 10
0.0
 20
0.0
 30
0.0
  3
*Model_Space
  1

  0
ENDBLK
  5
21
100
AcDbEntity
  8
0
100
AcDbBlockEnd
  0
BLOCK
  5
1C
100
AcDbEntity
  8
0
100
AcDbBlockBegin
  2
*Paper_Space
 70
0
 10
0.0
 20
0.0
 30
0.0
  3
*Paper_Space
  1

  0
ENDBLK
  5
1D
100
AcDbEntity
  8
0
100
AcDbBlockEnd
  0
BLOCK
  5
214
100
AcDbEntity
  8
0
100
AcDbBlockBegin
  2
_FILLED
 70
64
 10
0.0
 20
0.0
  3
_FILLED
  1

  0
SOLID
  5
215
100
AcDbEntity
  8
0
  6
BYBLOCK
 62
0
100
AcDbTrace
 10
0.0
 20
0.0
 11
-1.0
 21
0.25
 12
-1.0
 22
-0.25
 13
-1.0
 23
-0.25
  0
ENDBLK
  5
216
100
AcDbEntity
  8
0
  6
BYBLOCK
 62
0
100
AcDbBlockEnd
  0
ENDSEC
  0
SECTION
  2
ENTITIES
  0
LINE
  5
217
100
AcDbEntity
  8
0
100
AcDbLine
 62
7
  6
BYLAYER
 10
22.5453626771
 20
3.8352272727
 11
10.845362759
 21
3.8352272727
  0
LINE
  5
218
100
AcDbEntity
  8
0
100
AcDbLine
 62
7
  6
BYLAYER
 10
23.0453627181
 20
4.3352272727
 11
10.3453627181
 21
4.3352272727
  0
LINE
  5
219
100
AcDbEntity
  8
0
100
AcDbLine
 62
7
  6
BYLAYER
 10
10.3453627181
 20
6.3352272727
 11
23.0453627181
 21
6.3352272727
  0
LINE
  5
21A
100
AcDbEntity
  8
0
100
AcDbLine
 62
7
  6
BYLAYER
 10
22.6953627181
 20
6.4352272727
 11
10.7466935498
 21
6.4352272727
  0
LINE
  5
21B
100
AcDbEntity
  8
0
100
AcDbLine
 62
7
  6
BYLAYER
 10
12.6953627181
 20
42.5852272727
 11
12.0765605646
 21
41.9664251192
  0
LINE
  5
21C
100
AcDbEntity
  8
0
100
AcDbLine
 62
7
  6
BYLAYER
 10
12.6953627181
 20
39.0852272727
 11
12.3003627181
 21
38.8571739164
  0
LINE
  5
21D
100
AcDbEntity
  8
0
100
AcDbLine
 62
7
  6
BYLAYER
 10
22.6953627181
 20
7.4352272727
 11
10.7466935498
 21
7.4352272727
  0
LINE
  5
21E
100
AcDbEntity
  8
0
100
AcDbLine
 62
7
  6
BYLAYER
 10
23.0453627181
 20
7.5352272727
 11
10.3453627181
 21
7.5352272727
  0
LINE
  5
21F
100
AcDbEntity
  8
0
100
AcDbLine
 62
7
  6
BYLAYER
 10
10.3453627181
 20
8.6852272727
 11
23.0453627181
 21
8.6852272727
  0
LINE
  5
220
100
AcDbEntity
  8
0
100
AcDbLine
 62
7
  6
BYLAYER
 10
23.3953627181
 20
10.0352272727
 11
9.9953627181
 21
10.0352272727
  0
LINE
  5
221
100
AcDbEntity
  8
0
100
AcDbLine
 62
7
  6
BYLAYER
 10
24.6953627181
 20
12.1352272727
 11
8.6953627181
 21
12.1352272727
  0
LINE
  5
222
100
AcDbEntity
  8
0
100
AcDbLine
 62
7
  6
BYLAYER
 10
12.6953627181
 20
34.5852272727
 11
13.1953627181
 21
35.0852272727
  0
LINE
  5
223
100
AcDbEntity
  8
0
100
AcDbLine
 62
7
  6
BYLAYER
 10
20.6953627181
 20
39.0852272727
 11
21.3141648716
 21
39.7040294262
  0
LINE
  5
224
100
AcDbEntity
  8
0
100
AcDbLine
 62
7
  6
BYLAYER
 10
20.6953627181
 20
35.0852272727
 11
21.0903627181
 21
35.3132806291
  0
LINE
  5
225
100
AcDbEntity
  8
0
100
AcDbLine
 62
7
  6
BYLAYER
 10
8.6953627181
 20
13.8352272727
 11
24.6953627181
 21
13.8352272727
  0
LINE
  5
226
100
AcDbEntity
  8
0
100
AcDbLine
 62
7
  6
BYLAYER
 10
9.1953627181
 20
14.3352272727
 11
24.1953627181
 21
14.3352272727
  0
LINE
  5
227
100
AcDbEntity
  8
0
100
AcDbLine
 62
7
  6
BYLAYER
 10
8.6953627181
 20
13.8352272727
 11
8.6953627181
 21
12.1352272727
  0
LINE
  5
228
100
AcDbEntity
  8
0
100
AcDbLine
 62
7
  6
BYLAYER
 10
9.9953627181
 20
12.1352272727
 11
9.9953627181
 21
10.0352272727
  0
LINE
  5
229
100
AcDbEntity
  8
0
100
AcDbLine
 62
7
  6
BYLAYER
 10
10.3453627181
 20
8.6852272727
 11
10.3453627181
 21
7.5352272727
  0
LINE
  5
22A
100
AcDbEntity
  8
0
100
AcDbLine
 62
7
  6
BYLAYER
 10
10.3453627181
 20
6.3352272727
 11
10.3453627181
 21
4.3352272727
  0
LINE
  5
22B
100
AcDbEntity
  8
0
100
AcDbLine
 62
7
  6
BYLAYER
 10
10.4953627181
 20
22.0352272727
 11
10.4953627181
 21
14.3352272727
  0
LINE
  5
22C
100
AcDbEntity
  8
0
100
AcDbLine
 62
7
  6
BYLAYER
 10
11.0953627181
 20
7.5352272727
 11
11.0953627181
 21
7.4352272727
  0
LINE
  5
22D
100
AcDbEntity
  8
0
100
AcDbLine
 62
7
  6
BYLAYER
 10
11.0953627181
 20
6.4352272727
 11
11.0953627181
 21
6.3352272727
  0
LINE
  5
22E
100
AcDbEntity
  8
0
100
AcDbLine
 62
7
  6
BYLAYER
 10
11.1953627181
 20
10.0352272727
 11
11.1953627181
 21
8.6852272727
  0
LINE
  5
22F
100
AcDbEntity
  8
0
100
AcDbLine
 62
7
  6
BYLAYER
 10
12.0765605646
 20
41.9664251192
 11
12.0765605646
 21
39.7040294262
  0
LINE
  5
230
100
AcDbEntity
  8
0
100
AcDbLine
 62
7
  6
BYLAYER
 10
12.3003627181
 20
38.8571739164
 11
12.3003627181
 21
35.3132806291
  0
LINE
  5
231
100
AcDbEntity
  8
0
100
AcDbLine
 62
7
  6
BYLAYER
 10
12.6953627181
 20
34.5852272727
 11
12.6953627181
 21
23.0352272727
  0
LINE
  5
232
100
AcDbEntity
  8
0
100
AcDbLine
 62
7
  6
BYLAYER
 10
10.4953627181
 20
22.0352272727
 11
11.4953627181
 21
23.0352272727
  0
LINE
  5
233
100
AcDbEntity
  8
0
100
AcDbLine
 62
7
  6
BYLAYER
 10
14.3859616413
 20
41.9664251192
 11
14.3859616413
 21
39.7040294262
  0
LINE
  5
234
100
AcDbEntity
  8
0
100
AcDbLine
 62
7
  6
BYLAYER
 10
14.4296478626
 20
38.7404829248
 11
14.4296478626
 21
35.4299716207
  0
LINE
  5
235
100
AcDbEntity
  8
0
100
AcDbLine
 62
7
  6
BYLAYER
 10
14.758871045
 20
28.6852272727
 11
14.758871045
 21
34.5852272727
  0
LINE
  5
236
100
AcDbEntity
  8
0
100
AcDbLine
 62
7
  6
BYLAYER
 10
10.4953627181
 20
22.0352272727
 11
22.8953627181
 21
22.0352272727
  0
LINE
  5
237
100
AcDbEntity
  8
0
100
AcDbLine
 62
7
  6
BYLAYER
 10
11.4953627181
 20
23.0352272727
 11
21.8953627181
 21
23.0352272727
  0
LINE
  5
238
100
AcDbEntity
  8
0
100
AcDbLine
 62
7
  6
BYLAYER
 10
24.6953627181
 20
13.8352272727
 11
24.1953627181
 21
14.3352272727
  0
LINE
  5
239
100
AcDbEntity
  8
0
100
AcDbLine
 62
7
  6
BYLAYER
 10
8.6953627181
 20
13.8352272727
 11
9.1953627181
 21
14.3352272727
  0
LINE
  5
23A
100
AcDbEntity
  8
0
100
AcDbLine
 62
7
  6
BYLAYER
 10
18.6318543912
 20
34.5852272727
 11
18.6318543912
 21
28.6852272727
  0
LINE
  5
23B
100
AcDbEntity
  8
0
100
AcDbLine
 62
7
  6
BYLAYER
 10
18.9610775736
 20
38.7404829248
 11
18.9610775736
 21
35.4299716207
  0
LINE
  5
23C
100
AcDbEntity
  8
0
100
AcDbLine
 62
7
  6
BYLAYER
 10
19.0047637948
 20
41.9664251192
 11
19.0047637948
 21
39.7040294262
  0
LINE
  5
23D
100
AcDbEntity
  8
0
100
AcDbLine
 62
7
  6
BYLAYER
 10
20.6953627181
 20
34.5852272727
 11
20.6953627181
 21
23.0352272727
  0
LINE
  5
23E
100
AcDbEntity
  8
0
100
AcDbLine
 62
7
  6
BYLAYER
 10
22.8953627181
 20
22.0352272727
 11
21.8953627181
 21
23.0352272727
  0
LINE
  5
23F
100
AcDbEntity
  8
0
100
AcDbLine
 62
7
  6
BYLAYER
 10
21.0903627181
 20
38.8571739164
 11
21.0903627181
 21
35.3132806291
  0
LINE
  5
240
100
AcDbEntity
  8
0
100
AcDbLine
 62
7
  6
BYLAYER
 10
21.3141648716
 20
41.9664251192
 11
21.3141648716
 21
39.7040294262
  0
LINE
  5
241
100
AcDbEntity
  8
0
100
AcDbLine
 62
7
  6
BYLAYER
 10
22.1953627181
 20
10.0352272727
 11
22.1953627181
 21
8.6852272727
  0
LINE
  5
242
100
AcDbEntity
  8
0
100
AcDbLine
 62
7
  6
BYLAYER
 10
22.2953627181
 20
7.5352272727
 11
22.2953627181
 21
7.4352272727
  0
LINE
  5
243
100
AcDbEntity
  8
0
100
AcDbLine
 62
7
  6
BYLAYER
 10
22.2953627181
 20
6.4352272727
 11
22.2953627181
 21
6.3352272727
  0
LINE
  5
244
100
AcDbEntity
  8
0
100
AcDbLine
 62
7
  6
BYLAYER
 10
14.758871045
 20
28.6852272727
 11
18.6318543912
 21
28.6852272727
  0
LINE
  5
245
100
AcDbEntity
  8
0
100
AcDbLine
 62
7
  6
BYLAYER
 10
22.8953627181
 20
22.0352272727
 11
22.8953627181
 21
14.3352272727
  0
LINE
  5
246
100
AcDbEntity
  8
0
100
AcDbLine
 62
7
  6
BYLAYER
 10
23.0453627181
 20
8.6852272727
 11
23.0453627181
 21
7.5352272727
  0
LINE
  5
247
100
AcDbEntity
  8
0
100
AcDbLine
 62
7
  6
BYLAYER
 10
23.0453627181
 20
6.3352272727
 11
23.0453627181
 21
4.3352272727
  0
LINE
  5
248
100
AcDbEntity
  8
0
100
AcDbLine
 62
7
  6
BYLAYER
 10
23.3953627181
 20
12.1352272727
 11
23.3953627181
 21
10.0352272727
  0
LINE
  5
249
100
AcDbEntity
  8
0
100
AcDbLine
 62
7
  6
BYLAYER
 10
24.6953627181
 20
13.8352272727
 11
24.6953627181
 21
12.1352272727
  0
LINE
  5
24A
100
AcDbEntity
  8
0
100
AcDbLine
 62
7
  6
BYLAYER
 10
12.6953627181
 20
35.0852272727
 11
12.3003627181
 21
35.3132806291
  0
LINE
  5
24B
100
AcDbEntity
  8
0
100
AcDbLine
 62
7
  6
BYLAYER
 10
12.6953627181
 20
39.0852272727
 11
12.0765605646
 21
39.7040294262
  0
LINE
  5
24C
100
AcDbEntity
  8
0
100
AcDbLine
 62
7
  6
BYLAYER
 10
20.1953627181
 20
35.0852272727
 11
20.6953627181
 21
34.5852272727
  0
LINE
  5
24D
100
AcDbEntity
  8
0
100
AcDbLine
 62
7
  6
BYLAYER
 10
12.6953627181
 20
34.5852272727
 11
14.758871045
 21
34.5852272727
  0
LINE
  5
24E
100
AcDbEntity
  8
0
100
AcDbLine
 62
7
  6
BYLAYER
 10
18.6318543912
 20
34.5852272727
 11
20.6953627181
 21
34.5852272727
  0
LINE
  5
24F
100
AcDbEntity
  8
0
100
AcDbLine
 62
7
  6
BYLAYER
 10
20.695361919
 20
35.0852272727
 11
12.6953635172
 21
35.0852272727
  0
LINE
  5
250
100
AcDbEntity
  8
0
100
AcDbLine
 62
7
  6
BYLAYER
 10
20.6953135182
 20
39.0852272727
 11
12.695411918
 21
39.0852272727
  0
LINE
  5
251
100
AcDbEntity
  8
0
100
AcDbLine
 62
7
  6
BYLAYER
 10
20.6953627181
 20
39.0852272727
 11
21.0903627181
 21
38.8571739164
  0
LINE
  5
252
100
AcDbEntity
  8
0
100
AcDbLine
 62
7
  6
BYLAYER
 10
20.6953627181
 20
42.5852272727
 11
21.3141648716
 21
41.9664251192
  0
LINE
  5
253
100
AcDbEntity
  8
0
100
AcDbLine
 62
7
  6
BYLAYER
 10
12.695411918
 20
42.5852272727
 11
20.6953135182
 21
42.5852272727
  0
ARC
  5
254
100
AcDbEntity
  8
0
100
AcDbCircle
 62
7
  6
BYLAYER
 10
20.0144022402
 20
37.2077503444
 40
1.960155929
100
AcDbArc
 50
70.0726725103
 51
73.2995408573
  0
ARC
  5
255
100
AcDbEntity
  8
0
100
AcDbCircle
 62
7
  6
BYLAYER
 10
20.0144045349
 20
36.962650262
 40
1.9601036058
100
AcDbArc
 50
286.7008479874
 51
289.9341406492
  0
ARC
  5
256
100
AcDbEntity
  8
0
100
AcDbCircle
 62
7
  6
BYLAYER
 10
13.3658689496
 20
37.2393264141
 40
1.9269077429
100
AcDbArc
 50
106.6725285608
 51
109.9533048108
  0
ARC
  5
257
100
AcDbEntity
  8
0
100
AcDbCircle
 62
7
  6
BYLAYER
 10
10.6953627181
 20
6.9352272727
 40
0.5
100
AcDbArc
 50
90.0
 51
270.0
  0
ARC
  5
258
100
AcDbEntity
  8
0
100
AcDbCircle
 62
7
  6
BYLAYER
 10
22.6953627181
 20
6.9352272727
 40
0.5
100
AcDbArc
 50
270.0
 51
90.0
  0
ARC
  5
259
100
AcDbEntity
  8
0
100
AcDbCircle
 62
7
  6
BYLAYER
 10
10.8453627181
 20
4.3352272727
 40
0.5
100
AcDbArc
 50
180.0
 51
270.0000046917
  0
ARC
  5
25A
100
AcDbEntity
  8
0
100
AcDbCircle
 62
7
  6
BYLAYER
 10
22.5453627181
 20
4.3352272727
 40
0.5
100
AcDbArc
 50
269.9999953083
 51
360.0
  0
SPLINE
  5
25B
100
AcDbEntity
  8
0
100
AcDbSpline
 62
7
  6
BYLAYER
 70
0
 71
3
 72
13
 73
9
 74
0
 42
0.0000001
 43
0.0000001
 44
0.0000000001
 40
0.0
 40
0.0
 40
0.0
 40
0.0
 40
0.2499866451
 40
0.4999648172
 40
0.6249716927
 40
0.7499799723
 40
0.874994359
 40
1.0
 40
1.0
 40
1.0
 40
1.0
 10
14.4296478626
 20
38.7404829248
 30
0.0
 10
14.6139134301
 20
38.7929157757
 30
0.0
 10
14.9850672759
 20
38.8888693387
 30
0.0
 10
15.4554896757
 20
38.9808514413
 30
0.0
 10
15.8350063679
 20
39.0342427509
 30
0.0
 10
16.121002205
 20
39.0634575839
 30
0.0
 10
16.4079337805
 20
39.0812392569
 30
0.0
 10
16.5995631383
 20
39.0852272727
 30
0.0
 10
16.6953627181
 20
39.0852272727
 30
0.0
  0
SPLINE
  5
25C
100
AcDbEntity
  8
0
100
AcDbSpline
 62
7
  6
BYLAYER
 70
0
 71
3
 72
13
 73
9
 74
0
 42
0.0000001
 43
0.0000001
 44
0.0000000001
 40
0.0
 40
0.0
 40
0.0
 40
0.0
 40
0.1250056686
 40
0.2500200955
 40
0.3750283563
 40
0.5000352465
 40
0.7500134899
 40
1.0
 40
1.0
 40
1.0
 40
1.0
 10
16.6953627181
 20
39.0852272727
 30
0.0
 10
16.7911623179
 20
39.0852272727
 30
0.0
 10
16.9827917227
 20
39.0812392492
 30
0.0
 10
17.2697233489
 20
39.0634578288
 30
0.0
 10
17.5557192037
 20
39.0342428938
 30
0.0
 10
17.9352358973
 20
38.9808512115
 30
0.0
 10
18.4056580758
 20
38.8888683499
 30
0.0
 10
18.7768121077
 20
38.7929157467
 30
0.0
 10
18.9610775736
 20
38.7404829248
 30
0.0
  0
SPLINE
  5
25D
100
AcDbEntity
  8
0
100
AcDbSpline
 62
7
  6
BYLAYER
 70
0
 71
3
 72
9
 73
5
 74
0
 42
0.0000001
 43
0.0000001
 44
0.0000000001
 40
0.0
 40
0.0
 40
0.0
 40
0.0
 40
0.507710356
 40
1.0
 40
1.0
 40
1.0
 40
1.0
 10
21.0903627181
 20
38.8571739164
 30
0.0
 10
21.0241403286
 20
38.8954074308
 30
0.0
 10
20.8910598659
 20
38.9662663225
 30
0.0
 10
20.7521894954
 20
39.0252896195
 30
0.0
 10
20.6824782383
 20
39.0505432592
 30
0.0
  0
SPLINE
  5
25E
100
AcDbEntity
  8
0
100
AcDbSpline
 62
7
  6
BYLAYER
 70
0
 71
3
 72
11
 73
7
 74
0
 42
0.0000001
 43
0.0000001
 44
0.0000000001
 40
0.0
 40
0.0
 40
0.0
 40
0.0
 40
0.2597298361
 40
0.5130222872
 40
0.7596898059
 40
1.0
 40
1.0
 40
1.0
 40
1.0
 10
14.4296478626
 20
35.4299716207
 30
0.0
 10
14.372983783
 20
35.3926207508
 30
0.0
 10
14.259270598
 20
35.3214974559
 30
0.0
 10
14.0849241722
 20
35.2262954801
 30
0.0
 10
13.9087681595
 20
35.145946541
 30
0.0
 10
13.7886692709
 20
35.1032278314
 30
0.0
 10
13.7285121475
 20
35.0852272727
 30
0.0
  0
SPLINE
  5
25F
100
AcDbEntity
  8
0
100
AcDbSpline
 62
7
  6
BYLAYER
 70
0
 71
3
 72
13
 73
9
 74
0
 42
0.0000001
 43
0.0000001
 44
0.0000000001
 40
0.0
 40
0.0
 40
0.0
 40
0.0
 40
0.2499865419
 40
0.4999648058
 40
0.6249717017
 40
0.7499799533
 40
0.8749943459
 40
1.0
 40
1.0
 40
1.0
 40
1.0
 10
18.9610775736
 20
35.4299716207
 30
0.0
 10
18.7768120841
 20
35.377538792
 30
0.0
 10
18.4056580128
 20
35.2815861764
 30
0.0
 10
17.9352357879
 20
35.1896033285
 30
0.0
 10
17.5557190867
 20
35.1362115971
 30
0.0
 10
17.2697232541
 20
35.1069967322
 30
0.0
 10
16.9827916755
 20
35.089215263
 30
0.0
 10
16.7911623068
 20
35.0852272727
 30
0.0
 10
16.695362718
 20
35.0852272727
 30
0.0
  0
SPLINE
  5
260
100
AcDbEntity
  8
0
100
AcDbSpline
 62
7
  6
BYLAYER
 70
0
 71
3
 72
11
 73
7
 74
0
 42
0.0000001
 43
0.0000001
 44
0.0000000001
 40
0.0
 40
0.0
 40
0.0
 40
0.0
 40
0.240310225
 40
0.486977796
 40
0.7402702188
 40
1.0
 40
1.0
 40
1.0
 40
1.0
 10
19.6622132887
 20
35.0852272727
 30
0.0
 10
19.6020561576
 20
35.1032278337
 30
0.0
 10
19.4819572479
 20
35.1459465469
 30
0.0
 10
19.3058012184
 20
35.2262954874
 30
0.0
 10
19.1314548338
 20
35.3214975189
 30
0.0
 10
19.0177416412
 20
35.3926207587
 30
0.0
 10
18.9610775736
 20
35.4299716207
 30
0.0
  0
SPLINE
  5
261
100
AcDbEntity
  8
0
100
AcDbSpline
 62
7
  6
BYLAYER
 70
0
 71
3
 72
9
 73
5
 74
0
 42
0.0000001
 43
0.0000001
 44
0.0000000001
 40
0.0
 40
0.0
 40
0.0
 40
0.0
 40
0.5077111145
 40
1.0
 40
1.0
 40
1.0
 40
1.0
 10
21.0903627181
 20
35.3132806291
 30
0.0
 10
21.0241719636
 20
35.2750653792
 30
0.0
 10
20.891158179
 20
35.2042349552
 30
0.0
 10
20.7523566173
 20
35.1452356211
 30
0.0
 10
20.6826818195
 20
35.1199859909
 30
0.0
  0
SPLINE
  5
262
100
AcDbEntity
  8
0
100
AcDbSpline
 62
7
  6
BYLAYER
 70
0
 71
3
 72
13
 73
9
 74
0
 42
0.0000001
 43
0.0000001
 44
0.0000000001
 40
0.0
 40
0.0
 40
0.0
 40
0.0
 40
0.1250056572
 40
0.2500200829
 40
0.3750283732
 40
0.5000352431
 40
0.7500133944
 40
1.0
 40
1.0
 40
1.0
 40
1.0
 10
16.695362718
 20
35.0852272727
 30
0.0
 10
16.5995631258
 20
35.0852272727
 30
0.0
 10
16.4079337274
 20
35.0892153281
 30
0.0
 10
16.1210020979
 20
35.1069969441
 30
0.0
 10
15.8350062346
 20
35.1362118514
 30
0.0
 10
15.4554895483
 20
35.189603108
 30
0.0
 10
14.9850672118
 20
35.2815852736
 30
0.0
 10
14.6139134008
 20
35.3775387781
 30
0.0
 10
14.4296478626
 20
35.4299716207
 30
0.0
  0
SPLINE
  5
263
100
AcDbEntity
  8
0
100
AcDbSpline
 62
7
  6
BYLAYER
 70
0
 71
3
 72
9
 73
5
 74
0
 42
0.0000001
 43
0.0000001
 44
0.0000000001
 40
0.0
 40
0.0
 40
0.0
 40
0.0
 40
0.4922899553
 40
1.0
 40
1.0
 40
1.0
 40
1.0
 10
12.7083035997
 20
39.0505639082
 30
0.0
 10
12.6385822273
 20
39.0253091513
 30
0.0
 10
12.4996925723
 20
38.9662797127
 30
0.0
 10
12.3665938592
 20
38.8954124836
 30
0.0
 10
12.3003627181
 20
38.8571739164
 30
0.0
  0
SPLINE
  5
264
100
AcDbEntity
  8
0
100
AcDbSpline
 62
7
  6
BYLAYER
 70
0
 71
3
 72
11
 73
7
 74
0
 42
0.0000001
 43
0.0000001
 44
0.0000000001
 40
0.0
 40
0.0
 40
0.0
 40
0.0
 40
0.2597368246
 40
0.5130303958
 40
0.7596928729
 40
1.0
 40
1.0
 40
1.0
 40
1.0
 10
14.4296478626
 20
38.7404829248
 30
0.0
 10
14.372982264
 20
38.7778347959
 30
0.0
 10
14.2592657801
 20
38.848956897
 30
0.0
 10
14.0849186229
 20
38.9441586609
 30
0.0
 10
13.9087667933
 20
39.0245127126
 30
0.0
 10
13.7886684971
 20
39.0672269456
 30
0.0
 10
13.7285121475
 20
39.0852272727
 30
0.0
  0
SPLINE
  5
265
100
AcDbEntity
  8
0
100
AcDbSpline
 62
7
  6
BYLAYER
 70
0
 71
3
 72
10
 73
6
 74
0
 42
0.0000001
 43
0.0000001
 44
0.0000000001
 40
0.0
 40
0.0
 40
0.0
 40
0.0
 40
0.4902928676
 40
0.7427000506
 40
1.0
 40
1.0
 40
1.0
 40
1.0
 10
12.813036724
 20
35.0852272727
 30
0.0
 10
12.7250202378
 20
35.1115640693
 30
0.0
 10
12.5945401602
 20
35.1614599817
 30
0.0
 10
12.4258942951
 20
35.2432033618
 30
0.0
 10
12.3421168619
 20
35.2891738629
 30
0.0
 10
12.3003627181
 20
35.3132806291
 30
0.0
  0
SPLINE
  5
266
100
AcDbEntity
  8
0
100
AcDbSpline
 62
7
  6
BYLAYER
 70
0
 71
3
 72
11
 73
7
 74
0
 42
0.0000001
 43
0.0000001
 44
0.0000000001
 40
0.0
 40
0.0
 40
0.0
 40
0.0
 40
0.2403072472
 40
0.4869697472
 40
0.7402632781
 40
1.0
 40
1.0
 40
1.0
 40
1.0
 10
19.6622132887
 20
39.0852272727
 30
0.0
 10
19.602056909
 20
39.0672269366
 30
0.0
 10
19.4819585779
 20
39.0245126893
 30
0.0
 10
19.3058067294
 20
38.9441586146
 30
0.0
 10
19.1314596002
 20
38.8489568653
 30
0.0
 10
19.0177431498
 20
38.7778347812
 30
0.0
 10
18.9610775736
 20
38.7404829248
 30
0.0
  0
SPLINE
  5
267
100
AcDbEntity
  8
0
100
AcDbSpline
 62
7
  6
BYLAYER
 70
0
 71
3
 72
16
 73
12
 74
0
 42
0.0000001
 43
0.0000001
 44
0.0000000001
 40
0.0
 40
0.0
 40
0.0
 40
0.0
 40
0.1399841705
 40
0.275827302
 40
0.407152105
 40
0.5337306398
 40
0.6555999573
 40
0.7731963324
 40
0.8307061877
 40
0.8875579267
 40
1.0
 40
1.0
 40
1.0
 40
1.0
 10
14.3859616413
 20
39.7040294262
 30
0.0
 10
14.3416216503
 20
39.6596894353
 30
0.0
 10
14.2523670397
 20
39.5741701285
 30
0.0
 10
14.1140887129
 20
39.4550908307
 30
0.0
 10
13.9731693937
 20
39.3487697465
 30
0.0
 10
13.8295021875
 20
39.2572581481
 30
0.0
 10
13.6831493166
 20
39.1826765146
 30
0.0
 10
13.5581135276
 20
39.1361600726
 30
0.0
 10
13.4575186501
 20
39.1098189623
 30
0.0
 10
13.3576118682
 20
39.0910499588
 30
0.0
 10
13.2816297734
 20
39.0852272724
 30
0.0
 10
13.2312610997
 20
39.0852272725
 30
0.0
  0
SPLINE
  5
268
100
AcDbEntity
  8
0
100
AcDbSpline
 62
7
  6
BYLAYER
 70
0
 71
3
 72
13
 73
9
 74
0
 42
0.0000001
 43
0.0000001
 44
0.0000000001
 40
0.0
 40
0.0
 40
0.0
 40
0.0
 40
0.1250130275
 40
0.250048898
 40
0.3750720526
 40
0.5000885859
 40
0.7500286835
 40
1.0
 40
1.0
 40
1.0
 40
1.0
 10
16.6953627181
 20
39.0852272727
 30
0.0
 10
16.5948382595
 20
39.0852272726
 30
0.0
 10
16.3936903302
 20
39.0928513136
 30
0.0
 10
16.09373481
 20
39.1266310783
 30
0.0
 10
15.7969224791
 20
39.181517375
 30
0.0
 10
15.4069758355
 20
39.2803644028
 30
0.0
 10
14.9317263159
 20
39.4467662663
 30
0.0
 10
14.5657458906
 20
39.6141373016
 30
0.0
 10
14.3859616413
 20
39.7040294262
 30
0.0
  0
SPLINE
  5
269
100
AcDbEntity
  8
0
100
AcDbSpline
 62
7
  6
BYLAYER
 70
0
 71
3
 72
16
 73
12
 74
0
 42
0.0000001
 43
0.0000001
 44
0.0000000001
 40
0.0
 40
0.0
 40
0.0
 40
0.0
 40
0.1124424404
 40
0.1692945951
 40
0.2268047497
 40
0.3444014776
 40
0.4662705477
 40
0.5928491311
 40
0.7241736876
 40
0.860016384
 40
1.0
 40
1.0
 40
1.0
 40
1.0
 10
13.2312610997
 20
39.0852272725
 30
0.0
 10
13.1808922624
 20
39.0852272727
 30
0.0
 10
13.1049099016
 20
39.0910506802
 30
0.0
 10
13.0050024941
 20
39.1098188877
 30
0.0
 10
12.9044071513
 20
39.1361602327
 30
0.0
 10
12.7793715312
 20
39.1826775544
 30
0.0
 10
12.6330182822
 20
39.2572585445
 30
0.0
 10
12.4893515152
 20
39.348770536
 30
0.0
 10
12.3484328526
 20
39.4550919881
 30
0.0
 10
12.2101550033
 20
39.5741709596
 30
0.0
 10
12.1209003792
 20
39.6596896116
 30
0.0
 10
12.0765605646
 20
39.7040294262
 30
0.0
  0
SPLINE
  5
26A
100
AcDbEntity
  8
0
100
AcDbSpline
 62
7
  6
BYLAYER
 70
0
 71
3
 72
16
 73
12
 74
0
 42
0.0000001
 43
0.0000001
 44
0.0000000001
 40
0.0
 40
0.0
 40
0.0
 40
0.0
 40
0.1399841182
 40
0.2758272009
 40
0.4071520016
 40
0.5337305899
 40
0.6555999599
 40
0.773196352
 40
0.8307062055
 40
0.8875579361
 40
1.0
 40
1.0
 40
1.0
 40
1.0
 10
12.0765605646
 20
41.9664251192
 30
0.0
 10
12.120900537
 20
42.0107650916
 30
0.0
 10
12.2101551579
 20
42.0962843161
 30
0.0
 10
12.3484335027
 20
42.2153635068
 30
0.0
 10
12.4893528245
 20
42.3216845743
 30
0.0
 10
12.633020045
 20
42.413196217
 30
0.0
 10
12.7793729046
 20
42.4877779795
 30
0.0
 10
12.9044087157
 20
42.5342944393
 30
0.0
 10
13.0050035858
 20
42.5606355671
 30
0.0
 10
13.1049103487
 20
42.5794046031
 30
0.0
 10
13.1808924345
 20
42.5852272727
 30
0.0
 10
13.2312611017
 20
42.5852272727
 30
0.0
  0
SPLINE
  5
26B
100
AcDbEntity
  8
0
100
AcDbSpline
 62
7
  6
BYLAYER
 70
0
 71
3
 72
16
 73
12
 74
0
 42
0.0000001
 43
0.0000001
 44
0.0000000001
 40
0.0
 40
0.0
 40
0.0
 40
0.0
 40
0.1124424502
 40
0.1692946137
 40
0.2268047698
 40
0.344401479
 40
0.4662704981
 40
0.5928490298
 40
0.7241735887
 40
0.8600163323
 40
1.0
 40
1.0
 40
1.0
 40
1.0
 10
20.1594643318
 20
42.5852272727
 30
0.0
 10
20.2098331756
 20
42.5852272728
 30
0.0
 10
20.2858155455
 20
42.5794038423
 30
0.0
 10
20.3857229711
 20
42.5606356634
 30
0.0
 10
20.4863183219
 20
42.534294343
 30
0.0
 10
20.6113539232
 20
42.4877770475
 30
0.0
 10
20.7577071804
 20
42.4131961788
 30
0.0
 10
20.9013739311
 20
42.3216842266
 30
0.0
 10
21.0422925916
 20
42.2153627591
 30
0.0
 10
21.1805704249
 20
42.096283685
 30
0.0
 10
21.2698250387
 20
42.0107649521
 30
0.0
 10
21.3141648716
 20
41.9664251192
 30
0.0
  0
SPLINE
  5
26C
100
AcDbEntity
  8
0
100
AcDbSpline
 62
7
  6
BYLAYER
 70
0
 71
3
 72
16
 73
12
 74
0
 42
0.0000001
 43
0.0000001
 44
0.0000000001
 40
0.0
 40
0.0
 40
0.0
 40
0.0
 40
0.1399841705
 40
0.275827302
 40
0.407152105
 40
0.5337306398
 40
0.6555999573
 40
0.7731963324
 40
0.8307061877
 40
0.8875579267
 40
1.0
 40
1.0
 40
1.0
 40
1.0
 10
21.3141648716
 20
39.7040294262
 30
0.0
 10
21.2698248806
 20
39.6596894352
 30
0.0
 10
21.1805702699
 20
39.5741701284
 30
0.0
 10
21.0422919431
 20
39.4550908306
 30
0.0
 10
20.9013726239
 20
39.3487697464
 30
0.0
 10
20.7577054176
 20
39.257258148
 30
0.0
 10
20.6113525467
 20
39.1826765145
 30
0.0
 10
20.4863167576
 20
39.1361600725
 30
0.0
 10
20.3857218802
 20
39.1098189622
 30
0.0
 10
20.2858150982
 20
39.0910499587
 30
0.0
 10
20.2098330034
 20
39.0852272724
 30
0.0
 10
20.1594643297
 20
39.0852272725
 30
0.0
  0
SPLINE
  5
26D
100
AcDbEntity
  8
0
100
AcDbSpline
 62
7
  6
BYLAYER
 70
0
 71
3
 72
13
 73
9
 74
0
 42
0.0000001
 43
0.0000001
 44
0.0000000001
 40
0.0
 40
0.0
 40
0.0
 40
0.0
 40
0.2499716815
 40
0.4999125338
 40
0.6249294545
 40
0.7499522425
 40
0.8749872958
 40
1.0
 40
1.0
 40
1.0
 40
1.0
 10
19.0047637948
 20
39.7040294262
 30
0.0
 10
18.8249792981
 20
39.6141371779
 30
0.0
 10
18.4589981769
 20
39.4467652437
 30
0.0
 10
17.9837463592
 20
39.2803668733
 30
0.0
 10
17.5937999343
 20
39.181516663
 30
0.0
 10
17.2969881427
 20
39.1266309639
 30
0.0
 10
16.9970339468
 20
39.0928504989
 30
0.0
 10
16.7958869083
 20
39.0852272726
 30
0.0
 10
16.6953627181
 20
39.0852272727
 30
0.0
  0
SPLINE
  5
26E
100
AcDbEntity
  8
0
100
AcDbSpline
 62
7
  6
BYLAYER
 70
0
 71
3
 72
16
 73
12
 74
0
 42
0.0000001
 43
0.0000001
 44
0.0000000001
 40
0.0
 40
0.0
 40
0.0
 40
0.0
 40
0.1124424404
 40
0.1692945951
 40
0.2268047497
 40
0.3444014776
 40
0.4662705477
 40
0.5928491311
 40
0.7241736876
 40
0.860016384
 40
1.0
 40
1.0
 40
1.0
 40
1.0
 10
20.1594643297
 20
39.0852272725
 30
0.0
 10
20.1090954924
 20
39.0852272727
 30
0.0
 10
20.0331131316
 20
39.0910506802
 30
0.0
 10
19.9332057241
 20
39.1098188877
 30
0.0
 10
19.8326103814
 20
39.1361602328
 30
0.0
 10
19.7075747613
 20
39.1826775545
 30
0.0
 10
19.5612215123
 20
39.2572585445
 30
0.0
 10
19.4175547454
 20
39.3487705361
 30
0.0
 10
19.2766360828
 20
39.4550919882
 30
0.0
 10
19.1383582336
 20
39.5741709596
 30
0.0
 10
19.0491036094
 20
39.6596896117
 30
0.0
 10
19.0047637948
 20
39.7040294262
 30
0.0
  0
SPLINE
  5
26F
100
AcDbEntity
  8
0
100
AcDbSpline
 62
7
  6
BYLAYER
 70
0
 71
3
 72
13
 73
9
 74
0
 42
0.0000001
 43
0.0000001
 44
0.0000000001
 40
0.0
 40
0.0
 40
0.0
 40
0.0
 40
0.2499720143
 40
0.4999126281
 40
0.624929376
 40
0.7499522992
 40
0.8749873624
 40
1.0
 40
1.0
 40
1.0
 40
1.0
 10
14.3859616413
 20
41.9664251192
 30
0.0
 10
14.5657463918
 20
42.0563174944
 30
0.0
 10
14.9317274396
 20
42.2236896864
 30
0.0
 10
15.4069786937
 20
42.3900898751
 30
0.0
 10
15.796925408
 20
42.4889383119
 30
0.0
 10
16.093737328
 20
42.5438231496
 30
0.0
 10
16.3936915585
 20
42.5776039755
 30
0.0
 10
16.5948385734
 20
42.5852272728
 30
0.0
 10
16.6953627181
 20
42.5852272727
 30
0.0
  0
SPLINE
  5
270
100
AcDbEntity
  8
0
100
AcDbSpline
 62
7
  6
BYLAYER
 70
0
 71
3
 72
16
 73
12
 74
0
 42
0.0000001
 43
0.0000001
 44
0.0000000001
 40
0.0
 40
0.0
 40
0.0
 40
0.0
 40
0.1124424502
 40
0.1692946137
 40
0.2268047698
 40
0.344401479
 40
0.4662704981
 40
0.5928490298
 40
0.7241735887
 40
0.8600163323
 40
1.0
 40
1.0
 40
1.0
 40
1.0
 10
13.2312611017
 20
42.5852272727
 30
0.0
 10
13.2816299455
 20
42.5852272728
 30
0.0
 10
13.3576123153
 20
42.5794038422
 30
0.0
 10
13.457519741
 20
42.5606356634
 30
0.0
 10
13.5581150917
 20
42.534294343
 30
0.0
 10
13.683150693
 20
42.4877770475
 30
0.0
 10
13.8295039502
 20
42.4131961788
 30
0.0
 10
13.9731707009
 20
42.3216842266
 30
0.0
 10
14.1140893613
 20
42.215362759
 30
0.0
 10
14.2523671947
 20
42.096283685
 30
0.0
 10
14.3416218085
 20
42.0107649521
 30
0.0
 10
14.3859616413
 20
41.9664251192
 30
0.0
  0
SPLINE
  5
271
100
AcDbEntity
  8
0
100
AcDbSpline
 62
7
  6
BYLAYER
 70
0
 71
3
 72
16
 73
12
 74
0
 42
0.0000001
 43
0.0000001
 44
0.0000000001
 40
0.0
 40
0.0
 40
0.0
 40
0.0
 40
0.1399841182
 40
0.2758272009
 40
0.4071520016
 40
0.5337305899
 40
0.6555999599
 40
0.773196352
 40
0.8307062055
 40
0.8875579361
 40
1.0
 40
1.0
 40
1.0
 40
1.0
 10
19.0047637948
 20
41.9664251192
 30
0.0
 10
19.0491037673
 20
42.0107650916
 30
0.0
 10
19.1383583881
 20
42.0962843161
 30
0.0
 10
19.276636733
 20
42.2153635068
 30
0.0
 10
19.4175560548
 20
42.3216845743
 30
0.0
 10
19.5612232752
 20
42.413196217
 30
0.0
 10
19.7075761348
 20
42.4877779795
 30
0.0
 10
19.8326119459
 20
42.5342944393
 30
0.0
 10
19.933206816
 20
42.5606355671
 30
0.0
 10
20.0331135789
 20
42.5794046031
 30
0.0
 10
20.1090956646
 20
42.5852272727
 30
0.0
 10
20.1594643318
 20
42.5852272727
 30
0.0
  0
SPLINE
  5
272
100
AcDbEntity
  8
0
100
AcDbSpline
 62
7
  6
BYLAYER
 70
0
 71
3
 72
13
 73
9
 74
0
 42
0.0000001
 43
0.0000001
 44
0.0000000001
 40
0.0
 40
0.0
 40
0.0
 40
0.0
 40
0.1250130721
 40
0.2500488847
 40
0.3750718862
 40
0.5000886032
 40
0.7500289722
 40
1.0
 40
1.0
 40
1.0
 40
1.0
 10
16.6953627181
 20
42.5852272727
 30
0.0
 10
16.795887204
 20
42.5852272728
 30
0.0
 10
16.9970351033
 20
42.577603353
 30
0.0
 10
17.2969905046
 20
42.5438238359
 30
0.0
 10
17.5938026618
 20
42.4889366984
 30
0.0
 10
17.9837490417
 20
42.3900879258
 30
0.0
 10
18.4589992453
 20
42.2236880094
 30
0.0
 10
18.8249797685
 20
42.0563171324
 30
0.0
 10
19.0047637948
 20
41.9664251192
 30
0.0
  0
SPLINE
  5
273
100
AcDbEntity
  8
0
100
AcDbSpline
 62
7
  6
BYLAYER
 70
0
 71
3
 72
13
 73
9
 74
0
 42
0.0000001
 43
0.0000001
 44
0.0000000001
 40
0.0
 40
0.0
 40
0.0
 40
0.0
 40
0.2499890626
 40
0.4999417956
 40
0.6249578813
 40
0.7499730364
 40
0.8749862946
 40
1.0
 40
1.0
 40
1.0
 40
1.0
 10
14.758871045
 20
34.5852272727
 30
0.0
 10
14.9101484757
 20
34.658464144
 30
0.0
 10
15.2179619232
 20
34.794417902
 30
0.0
 10
15.6169594133
 20
34.9287314429
 30
0.0
 10
15.943785135
 20
35.0081562493
 30
0.0
 10
16.192260412
 20
35.0521386763
 30
0.0
 10
16.4431528912
 20
35.0791510318
 30
0.0
 10
16.611313376
 20
35.0852272727
 30
0.0
 10
16.6953627181
 20
35.0852272727
 30
0.0
  0
SPLINE
  5
274
100
AcDbEntity
  8
0
100
AcDbSpline
 62
7
  6
BYLAYER
 70
0
 71
3
 72
13
 73
9
 74
0
 42
0.0000001
 43
0.0000001
 44
0.0000000001
 40
0.0
 40
0.0
 40
0.0
 40
0.0
 40
0.1250137066
 40
0.2500269659
 40
0.3750421213
 40
0.5000582071
 40
0.7500109388
 40
1.0
 40
1.0
 40
1.0
 40
1.0
 10
16.6953627181
 20
35.0852272727
 30
0.0
 10
16.779412061
 20
35.0852272727
 30
0.0
 10
16.9475725474
 20
35.0791510317
 30
0.0
 10
17.1984650283
 20
35.052138676
 30
0.0
 10
17.4469403062
 20
35.0081562483
 30
0.0
 10
17.7737660272
 20
34.9287314418
 30
0.0
 10
18.1727635155
 20
34.7944179008
 30
0.0
 10
18.4805769613
 20
34.6584641435
 30
0.0
 10
18.6318543912
 20
34.5852272727
 30
0.0
  0
ENDSEC
  0
SECTION
  2
OBJECTS
  0
DICTIONARY
  5
C
100
AcDbDictionary
280
0
281
1
  3
ACAD_GROUP
350
D
  3
ACAD_MLINESTYLE
350
17
  3
ACAD_LAYOUT
350
1A
  3
ACAD_PLOTSETTINGS
350
19
  3
ACAD_PLOTSTYLENAME
350
E
  0
DICTIONARY
  5
D
102
{ACAD_REACTORS
330
C
102
}
100
AcDbDictionary
280
0
281
1
  0
ACDBDICTIONARYWDFLT
  5
E
102
{ACAD_REACTORS
330
C
102
}
100
AcDbDictionary
281
1
  3
Normal
350
F
100
AcDbDictionaryWithDefault
340
F
  0
DICTIONARY
  5
17
102
{ACAD_REACTORS
330
C
102
}
100
AcDbDictionary
280
0
281
1
  3
Standard
350
18
  0
DICTIONARY
  5
19
102
{ACAD_REACTORS
330
C
102
}
100
AcDbDictionary
281
1
  0
DICTIONARY
  5
1A
102
{ACAD_REACTORS
330
C
102
}
100
AcDbDictionary
281
1
  3
Model
350
275
  3
Layout1
350
276
  0
ACDBPLACEHOLDER
  5
F
102
{ACAD_REACTORS
330
E
102
}
  0
MLINESTYLE
  5
18
102
{ACAD_REACTORS
330
17
102
}
100
AcDbMlineStyle
  2
STANDARD
 70
0
  3

 62
256
 51
90.0
 52
90.0
 71
2
 49
0.5
 62
256
  6
BYLAYER
 49
-0.5
 62
256
  6
BYLAYER
  0
LAYOUT
  5
275
102
{ACAD_REACTORS
330
1A
102
}
100
AcDbPlotSettings
  1

  2
none_device
  4

  6

 40
0.0
 41
0.0
 42
0.0
 43
0.0
 44
210.0
 45
297.0
 46
0.0
 47
0.0
 48
0.0
 49
0.0
140
0.0
141
0.0
142
1.0
143
1.0
 70
1024
 72
1
 73
0
 74
0
  7

 75
0
147
1.0
148
0.0
149
0.0
100
AcDbLayout
  1
Model
 70
0
 71
0
 10
0.0
 20
0.0
 11
210.0
 21
297.0
 12
0.0
 22
0.0
 32
0.0
 14
0.0
 24
0.0
 34
0.0
 15
0.0
 25
0.0
 35
0.0
146
0.0
 13
0.0
 23
0.0
 33
0.0
 16
1.0
 26
0.0
 36
0.0
 17
0.0
 27
1.0
 37
0.0
 76
0
330
210
345
0
346
0
  0
LAYOUT
  5
276
102
{ACAD_REACTORS
330
1A
102
}
100
AcDbPlotSettings
  1

  2
none_device
  4

  6

 40
0.0
 41
0.0
 42
0.0
 43
0.0
 44
210.0
 45
297.0
 46
0.0
 47
0.0
 48
0.0
 49
0.0
140
0.0
141
0.0
142
1.0
143
1.0
 70
0
 72
1
 73
0
 74
0
  7

 75
0
147
1.0
148
0.0
149
0.0
100
AcDbLayout
  1
Layout1
 70
0
 71
1
 10
0.0
 20
0.0
 11
210.0
 21
297.0
 12
0.0
 22
0.0
 32
0.0
 14
0.0
 24
0.0
 34
0.0
 15
0.0
 25
0.0
 35
0.0
146
0.0
 13
0.0
 23
0.0
 33
0.0
 16
1.0
 26
0.0
 36
0.0
 17
0.0
 27
1.0
 37
0.0
 76
0
330
211
345
0
346
0
  0
ENDSEC
  0
EOF
