999
DXF file: C:\Users\sesa63760\Dev\_Creo\CAD\MCADID0004735_3D-CAD\drw0001_5.dxf
999
Pro/ENGINEER 2019471 by Parametric Technology Corporation
  0
SECTION
  2
HEADER
  9
$ACADVER
  1
AC1024
  9
$DWGCODEPAGE
  3
ANSI_1252
  9
$EXTMAX
 10
32.4707202746
 20
45.922875817
 30
0.0
  9
$EXTMIN
 10
0.0
 20
0.0
 30
0.0
  9
$LIMMIN
 10
0.0
 20
0.0
  9
$LIMMAX
 10
32.4707202746
 20
45.922875817
  9
$VIEWCTR
 10
16.2353601373
 20
22.9614379085
  9
$VIEWSIZE
 40
45.922875817
  9
$CLAYER
  8
0
  9
$LTSCALE
 40
2.9934911644
  9
$CELTYPE
  6
BYLAYER
  9
$DIMSCALE
 40
1.0
  9
$DIMASZ
 40
0.3865561937
  9
$DIMEXO
 40
1.0
  9
$DIMDLI
 40
2.068230259
  9
$DIMEXE
 40
1.0
  9
$DIMCEN
 40
0.4898440087
  9
$DIMLFAC
 40
1.0
  9
$DIMBLK
  1
_FILLED
  9
$DIMALT
 70
0
  9
$DIMALTF
 40
0.0393700787
  9
$DIMTXT
 40
0.5411786712
  9
$DIMTOL
 70
1
  9
$DIMLIM
 70
0
  9
$DIMTFAC
 40
1.0
  9
$DIMTP
 40
0.01
  9
$DIMTM
 40
0.01
  9
$DIMGAP
 40
0.625
  9
$DIMDSEP
 70
46
  9
$AUNITS
 70
0
  9
$PDMODE
 70
3
  9
$PDSIZE
 40
0.3125
  9
$HANDSEED
  5
2A8
  9
$TILEMODE
 70
1
  9
$MEASUREMENT
 70
1
  9
$INSUNITS
 70
4
  0
ENDSEC
  0
SECTION
  2
CLASSES
  0
CLASS
  1
ACDBDICTIONARYWDFLT
  2
AcDbDictionaryWithDefault
  3
AutoCAD 2000
 90
0
 91
1
280
0
281
0
  0
CLASS
  1
ACDBPLACEHOLDER
  2
AcDbPlaceHolder
  3
AutoCAD 2000
 90
0
 91
1
280
0
281
0
  0
CLASS
  1
LAYOUT
  2
AcDbLayout
  3
AutoCAD 2000
 90
0
 91
0
280
0
281
0
  0
ENDSEC
  0
SECTION
  2
TABLES
  0
TABLE
  2
VPORT
  5
8
100
AcDbSymbolTable
 70
2
  0
VPORT
  5
1F4
100
AcDbSymbolTableRecord
100
AcDbViewportTableRecord
  2
*ACTIVE
 70
0
 10
0.0
 20
0.0
 11
1.0
 21
1.0
 12
16.2353601373
 22
22.9614379085
 13
0.0
 23
0.0
 14
1.0
 24
1.0
 15
0.0
 25
0.0
 16
0.0
 26
0.0
 36
1.0
 17
0.0
 27
0.0
 37
0.0
 40
45.922875817
 41
0.7070707071
 42
50.0
 43
0.0
 44
0.0
 50
0.0
 51
0.0
 71
0
 72
100
 73
1
 74
1
 75
0
 76
0
 77
0
 78
0
  0
ENDTAB
  0
TABLE
  2
LTYPE
  5
5
100
AcDbSymbolTable
 70
6
  0
LTYPE
  5
14
100
AcDbSymbolTableRecord
100
AcDbLinetypeTableRecord
  2
BYBLOCK
 70
0
  3

 72
65
 73
0
 40
0.0
  0
LTYPE
  5
15
100
AcDbSymbolTableRecord
100
AcDbLinetypeTableRecord
  2
BYLAYER
 70
0
  3

 72
65
 73
0
 40
0.0
  0
LTYPE
  5
16
100
AcDbSymbolTableRecord
100
AcDbLinetypeTableRecord
  2
CONTINUOUS
 70
64
  3
Solid line
 72
65
 73
0
 40
0.0
  0
LTYPE
  5
1F5
100
AcDbSymbolTableRecord
100
AcDbLinetypeTableRecord
  2
CENTER
 70
64
  3
____ _ ____ _ ____ _ ____ _ ____ _ ____ _ ____
 72
65
 73
4
 40
0.6
 49
0.375
 74
0
 49
-0.075
 74
0
 49
0.075
 74
0
 49
-0.075
 74
0
  0
LTYPE
  5
1F6
100
AcDbSymbolTableRecord
100
AcDbLinetypeTableRecord
  2
HIDDEN
 70
64
  3
- - - - - - - - - - - - - - - - - - - -
 72
65
 73
2
 40
0.2
 49
0.1
 74
0
 49
-0.1
 74
0
  0
LTYPE
  5
1F7
100
AcDbSymbolTableRecord
100
AcDbLinetypeTableRecord
  2
PHANTOM
 70
64
  3
_____ _ _ _____ _ _ _____ _ _ _____
 72
65
 73
6
 40
0.8
 49
0.45
 74
0
 49
-0.05
 74
0
 49
0.1
 74
0
 49
-0.05
 74
0
 49
0.1
 74
0
 49
-0.05
 74
0
  0
LTYPE
  5
1F8
100
AcDbSymbolTableRecord
100
AcDbLinetypeTableRecord
  2
DOT
 70
64
  3
. . . . . . . . . . . . . . . . . . . .
 72
65
 73
2
 40
0.2
 49
0.1
 74
0
 49
-0.1
 74
0
  0
LTYPE
  5
1F9
100
AcDbSymbolTableRecord
100
AcDbLinetypeTableRecord
  2
DASHED
 70
64
  3
- - - - - - - - - - - - - - - - - - - -
 72
65
 73
2
 40
0.2
 49
0.1
 74
0
 49
-0.1
 74
0
  0
ENDTAB
  0
TABLE
  2
LAYER
  5
2
100
AcDbSymbolTable
 70
36
  0
LAYER
  5
10
100
AcDbSymbolTableRecord
100
AcDbLayerTableRecord
  2
0
 70
0
 62
7
  6
CONTINUOUS
370
-3
390
F
  0
LAYER
  5
1FA
100
AcDbSymbolTableRecord
100
AcDbLayerTableRecord
  2
DEFAULT_1
 70
0
 62
7
  6
CENTER
370
-3
390
F
  0
LAYER
  5
1FB
100
AcDbSymbolTableRecord
100
AcDbLayerTableRecord
  2
DEFAULT_2
 70
0
 62
7
  6
HIDDEN
370
-3
390
F
  0
LAYER
  5
1FC
100
AcDbSymbolTableRecord
100
AcDbLayerTableRecord
  2
DEFAULT_3
 70
0
 62
7
  6
PHANTOM
370
-3
390
F
  0
LAYER
  5
1FD
100
AcDbSymbolTableRecord
100
AcDbLayerTableRecord
  2
00_COMPONENTS
 70
0
 62
7
  6
CONTINUOUS
370
-3
390
F
  0
LAYER
  5
1FE
100
AcDbSymbolTableRecord
100
AcDbLayerTableRecord
  2
01_1_DEFAULT_DATUMS
 70
0
 62
7
  6
CONTINUOUS
370
-3
390
F
  0
LAYER
  5
1FF
100
AcDbSymbolTableRecord
100
AcDbLayerTableRecord
  2
01_PLANES
 70
0
 62
7
  6
CONTINUOUS
370
-3
390
F
  0
LAYER
  5
200
100
AcDbSymbolTableRecord
100
AcDbLayerTableRecord
  2
02_COORD_SYS
 70
0
 62
7
  6
CONTINUOUS
370
-3
390
F
  0
LAYER
  5
201
100
AcDbSymbolTableRecord
100
AcDbLayerTableRecord
  2
03_AXES
 70
0
 62
7
  6
CONTINUOUS
370
-3
390
F
  0
LAYER
  5
202
100
AcDbSymbolTableRecord
100
AcDbLayerTableRecord
  2
04_POINTS
 70
0
 62
7
  6
CONTINUOUS
370
-3
390
F
  0
LAYER
  5
203
100
AcDbSymbolTableRecord
100
AcDbLayerTableRecord
  2
05_CURVES
 70
0
 62
7
  6
CONTINUOUS
370
-3
390
F
  0
LAYER
  5
204
100
AcDbSymbolTableRecord
100
AcDbLayerTableRecord
  2
06_SURFS
 70
0
 62
7
  6
CONTINUOUS
370
-3
390
F
  0
LAYER
  5
205
100
AcDbSymbolTableRecord
100
AcDbLayerTableRecord
  2
07_COSMETICS
 70
0
 62
7
  6
CONTINUOUS
370
-3
390
F
  0
LAYER
  5
206
100
AcDbSymbolTableRecord
100
AcDbLayerTableRecord
  2
10_NOTES
 70
0
 62
7
  6
CONTINUOUS
370
-3
390
F
  0
LAYER
  5
207
100
AcDbSymbolTableRecord
100
AcDbLayerTableRecord
  2
11_NOTES_PUB
 70
0
 62
7
  6
CONTINUOUS
370
-3
390
F
  0
LAYER
  5
208
100
AcDbSymbolTableRecord
100
AcDbLayerTableRecord
  2
13_REF_GTOL
 70
0
 62
7
  6
CONTINUOUS
370
-3
390
F
  0
LAYER
  5
209
100
AcDbSymbolTableRecord
100
AcDbLayerTableRecord
  2
16_MISC
 70
0
 62
7
  6
CONTINUOUS
370
-3
390
F
  0
LAYER
  5
20A
100
AcDbSymbolTableRecord
100
AcDbLayerTableRecord
  2
17_NO_PRINT
 70
0
 62
7
  6
CONTINUOUS
370
-3
390
F
  0
LAYER
  5
20B
100
AcDbSymbolTableRecord
100
AcDbLayerTableRecord
  2
18_DATUM_CAMS_JOINTS
 70
0
 62
7
  6
CONTINUOUS
370
-3
390
F
  0
LAYER
  5
20C
100
AcDbSymbolTableRecord
100
AcDbLayerTableRecord
  2
19_DATUM_FUNCTIONAL
 70
0
 62
7
  6
CONTINUOUS
370
-3
390
F
  0
LAYER
  5
20D
100
AcDbSymbolTableRecord
100
AcDbLayerTableRecord
  2
20_DATUM_KINEMATIC_SCHEME
 70
0
 62
7
  6
CONTINUOUS
370
-3
390
F
  0
ENDTAB
  0
TABLE
  2
STYLE
  5
3
100
AcDbSymbolTable
 70
1
  0
STYLE
  5
11
100
AcDbSymbolTableRecord
100
AcDbTextStyleTableRecord
  2
STANDARD
 70
0
 40
0.0
 41
1.0
 50
0.0
 71
0
 42
0.2
  3
ARIAL.TTF
  4

  0
STYLE
  5
20E
100
AcDbSymbolTableRecord
100
AcDbTextStyleTableRecord
  2
TEXTSTYLE_1
 70
0
 40
0.0
 41
0.8
 50
0.0
 71
0
 42
0.2
  3
gdt
  4

  0
ENDTAB
  0
TABLE
  2
VIEW
  5
6
100
AcDbSymbolTable
 70
0
  0
ENDTAB
  0
TABLE
  2
UCS
  5
7
100
AcDbSymbolTable
 70
0
  0
ENDTAB
  0
TABLE
  2
APPID
  5
9
100
AcDbSymbolTable
 70
1
  0
APPID
  5
20F
100
AcDbSymbolTableRecord
100
AcDbRegAppTableRecord
  2
ACAD
 70
0
  0
ENDTAB
  0
TABLE
  2
BLOCK_RECORD
  5
1
100
AcDbSymbolTable
 70
0
  0
BLOCK_RECORD
  5
210
100
AcDbSymbolTableRecord
100
AcDbBlockTableRecord
  2
*Model_Space
  0
BLOCK_RECORD
  5
211
100
AcDbSymbolTableRecord
100
AcDbBlockTableRecord
  2
*Paper_Space
  0
BLOCK_RECORD
  5
212
100
AcDbSymbolTableRecord
100
AcDbBlockTableRecord
  2
_FILLED
  0
ENDTAB
  0
TABLE
  2
DIMSTYLE
  5
A
100
AcDbSymbolTable
 70
1
100
AcDbDimStyleTable
 71
0
  0
DIMSTYLE
105
213
100
AcDbSymbolTableRecord
100
AcDbDimStyleTableRecord
  2
STANDARD
 70
0
  3

  4

 40
1.0
 41
0.3865561937
 42
1.0
 43
0.38
 44
1.0
 45
0.0
 46
0.0
 47
0.01
 48
0.01
140
0.5411786712
141
0.09
142
0.0
143
25.4
144
1.0
145
0.0
146
1.0
147
0.625
 71
1
 72
0
 73
0
 74
0
 75
0
 76
0
 77
1
 78
8
 79
2
170
0
171
1
172
0
173
0
174
0
175
0
176
0
177
0
178
0
270
2
179
2
271
2
272
2
273
2
274
2
275
0
280
0
281
0
282
0
283
1
284
8
285
0
286
0
287
3
288
0
340
11
278
46
341
212
342
212
343
212
344
212
  0
ENDTAB
  0
ENDSEC
  0
SECTION
  2
BLOCKS
  0
BLOCK
  5
20
100
AcDbEntity
  8
0
100
AcDbBlockBegin
  2
*Model_Space
 70
0
 10
0.0
 20
0.0
 30
0.0
  3
*Model_Space
  1

  0
ENDBLK
  5
21
100
AcDbEntity
  8
0
100
AcDbBlockEnd
  0
BLOCK
  5
1C
100
AcDbEntity
  8
0
100
AcDbBlockBegin
  2
*Paper_Space
 70
0
 10
0.0
 20
0.0
 30
0.0
  3
*Paper_Space
  1

  0
ENDBLK
  5
1D
100
AcDbEntity
  8
0
100
AcDbBlockEnd
  0
BLOCK
  5
214
100
AcDbEntity
  8
0
100
AcDbBlockBegin
  2
_FILLED
 70
64
 10
0.0
 20
0.0
  3
_FILLED
  1

  0
SOLID
  5
215
100
AcDbEntity
  8
0
  6
BYBLOCK
 62
0
100
AcDbTrace
 10
0.0
 20
0.0
 11
-1.0
 21
0.25
 12
-1.0
 22
-0.25
 13
-1.0
 23
-0.25
  0
ENDBLK
  5
216
100
AcDbEntity
  8
0
  6
BYBLOCK
 62
0
100
AcDbBlockEnd
  0
ENDSEC
  0
SECTION
  2
ENTITIES
  0
LINE
  5
217
100
AcDbEntity
  8
0
100
AcDbLine
 62
7
  6
BYLAYER
 10
4.2350333399
 20
30.7176470588
 11
4.0350333399
 21
30.5176470588
  0
LINE
  5
218
100
AcDbEntity
  8
0
100
AcDbLine
 62
7
  6
BYLAYER
 10
4.2350333399
 20
15.3176470588
 11
4.0350333399
 21
15.5176470588
  0
LINE
  5
219
100
AcDbEntity
  8
0
100
AcDbLine
 62
7
  6
BYLAYER
 10
4.0350333399
 20
15.5176470588
 11
4.0350333399
 21
30.5176470588
  0
LINE
  5
21A
100
AcDbEntity
  8
0
100
AcDbLine
 62
7
  6
BYLAYER
 10
4.2350333399
 20
11.4630194016
 11
4.2350333399
 21
15.3176470588
  0
LINE
  5
21B
100
AcDbEntity
  8
0
100
AcDbLine
 62
7
  6
BYLAYER
 10
4.2350333399
 20
30.7176470588
 11
4.2350333399
 21
34.572274716
  0
LINE
  5
21C
100
AcDbEntity
  8
0
100
AcDbLine
 62
7
  6
BYLAYER
 10
11.6850327922
 20
10.3676470588
 11
15.5404136692
 21
10.3676470588
  0
LINE
  5
21D
100
AcDbEntity
  8
0
100
AcDbLine
 62
7
  6
BYLAYER
 10
17.8296530107
 20
10.3676470588
 11
21.685032754
 21
10.3676470588
  0
LINE
  5
21E
100
AcDbEntity
  8
0
100
AcDbLine
 62
7
  6
BYLAYER
 10
20.7350333399
 20
10.5650410158
 11
17.8120224936
 21
10.5650410158
  0
LINE
  5
21F
100
AcDbEntity
  8
0
100
AcDbLine
 62
7
  6
BYLAYER
 10
15.5580441863
 20
10.5650410158
 11
12.6350333399
 21
10.5650410158
  0
LINE
  5
220
100
AcDbEntity
  8
0
100
AcDbLine
 62
7
  6
BYLAYER
 10
8.8350333399
 20
30.7176470588
 11
8.6350333399
 21
30.5176470588
  0
LINE
  5
221
100
AcDbEntity
  8
0
100
AcDbLine
 62
7
  6
BYLAYER
 10
15.8948409611
 20
11.1176470588
 11
17.4752257188
 21
11.1176470588
  0
LINE
  5
222
100
AcDbEntity
  8
0
100
AcDbLine
 62
7
  6
BYLAYER
 10
15.9280513813
 20
11.2676470588
 11
17.4420152986
 21
11.2676470588
  0
LINE
  5
223
100
AcDbEntity
  8
0
100
AcDbLine
 62
7
  6
BYLAYER
 10
17.5884987375
 20
11.3992430302
 11
15.7815679423
 21
11.3992430302
  0
LINE
  5
224
100
AcDbEntity
  8
0
100
AcDbLine
 62
7
  6
BYLAYER
 10
12.6350333399
 20
12.0161335105
 11
20.7350333399
 21
12.0161335105
  0
LINE
  5
225
100
AcDbEntity
  8
0
100
AcDbLine
 62
7
  6
BYLAYER
 10
8.6350333399
 20
15.5176470588
 11
8.8350333399
 21
15.3176470588
  0
LINE
  5
226
100
AcDbEntity
  8
0
100
AcDbLine
 62
7
  6
BYLAYER
 10
6.7350333399
 20
35.0192654128
 11
6.7350333399
 21
30.7176470588
  0
LINE
  5
227
100
AcDbEntity
  8
0
100
AcDbLine
 62
7
  6
BYLAYER
 10
6.7350333399
 20
11.0160287048
 11
6.7350333399
 21
15.3176470588
  0
LINE
  5
228
100
AcDbEntity
  8
0
100
AcDbLine
 62
7
  6
BYLAYER
 10
6.9350333399
 20
20.0176470588
 11
6.9350333399
 21
15.5176470588
  0
LINE
  5
229
100
AcDbEntity
  8
0
100
AcDbLine
 62
7
  6
BYLAYER
 10
6.9350333399
 20
26.0176470588
 11
6.9350333399
 21
30.5176470588
  0
LINE
  5
22A
100
AcDbEntity
  8
0
100
AcDbLine
 62
7
  6
BYLAYER
 10
8.6350333399
 20
28.2176470588
 11
7.609156492
 21
26.0176470588
  0
LINE
  5
22B
100
AcDbEntity
  8
0
100
AcDbLine
 62
7
  6
BYLAYER
 10
7.609156492
 20
20.0176470588
 11
8.6350333399
 21
17.8176470588
  0
LINE
  5
22C
100
AcDbEntity
  8
0
100
AcDbLine
 62
7
  6
BYLAYER
 10
8.6350333399
 20
17.8176470588
 11
8.6350333399
 21
15.5176470588
  0
LINE
  5
22D
100
AcDbEntity
  8
0
100
AcDbLine
 62
7
  6
BYLAYER
 10
8.6350333399
 20
28.2176470588
 11
8.6350333399
 21
30.5176470588
  0
LINE
  5
22E
100
AcDbEntity
  8
0
100
AcDbLine
 62
7
  6
BYLAYER
 10
8.8350333399
 20
15.3176470588
 11
8.8350333399
 21
10.685708106
  0
LINE
  5
22F
100
AcDbEntity
  8
0
100
AcDbLine
 62
7
  6
BYLAYER
 10
8.8350333399
 20
30.7176470588
 11
8.8350333399
 21
35.3495860117
  0
LINE
  5
230
100
AcDbEntity
  8
0
100
AcDbLine
 62
7
  6
BYLAYER
 10
4.2350333399
 20
15.3176470588
 11
8.8350333399
 21
15.3176470588
  0
LINE
  5
231
100
AcDbEntity
  8
0
100
AcDbLine
 62
7
  6
BYLAYER
 10
24.5350333399
 20
15.3176470588
 11
29.1350333399
 21
15.3176470588
  0
LINE
  5
232
100
AcDbEntity
  8
0
100
AcDbLine
 62
7
  6
BYLAYER
 10
6.9350333399
 20
15.5176470588
 11
8.6350333399
 21
15.5176470588
  0
LINE
  5
233
100
AcDbEntity
  8
0
100
AcDbLine
 62
7
  6
BYLAYER
 10
24.7350333399
 20
15.5176470588
 11
26.4350333399
 21
15.5176470588
  0
LINE
  5
234
100
AcDbEntity
  8
0
100
AcDbLine
 62
7
  6
BYLAYER
 10
29.3350333399
 20
15.5676470588
 11
26.4350333399
 21
15.5676470588
  0
LINE
  5
235
100
AcDbEntity
  8
0
100
AcDbLine
 62
7
  6
BYLAYER
 10
6.9350333399
 20
15.5676470588
 11
4.0350333399
 21
15.5676470588
  0
LINE
  5
236
100
AcDbEntity
  8
0
100
AcDbLine
 62
7
  6
BYLAYER
 10
10.1850333399
 20
35.630123592
 11
10.1850333399
 21
27.507635923
  0
LINE
  5
237
100
AcDbEntity
  8
0
100
AcDbLine
 62
7
  6
BYLAYER
 10
10.1850333399
 20
18.5276581947
 11
10.1850333399
 21
10.4051705257
  0
LINE
  5
238
100
AcDbEntity
  8
0
100
AcDbLine
 62
7
  6
BYLAYER
 10
12.6350333399
 20
10.3676470588
 11
12.6350333399
 21
17.431279724
  0
LINE
  5
239
100
AcDbEntity
  8
0
100
AcDbLine
 62
7
  6
BYLAYER
 10
12.6350333399
 20
28.6040143937
 11
12.6350333399
 21
35.6676470588
  0
LINE
  5
23A
100
AcDbEntity
  8
0
100
AcDbLine
 62
7
  6
BYLAYER
 10
17.4350333399
 20
34.7676470588
 11
17.6363317472
 21
35.5189029423
  0
LINE
  5
23B
100
AcDbEntity
  8
0
100
AcDbLine
 62
7
  6
BYLAYER
 10
6.9350333399
 20
20.0176470588
 11
7.609156492
 21
20.0176470588
  0
LINE
  5
23C
100
AcDbEntity
  8
0
100
AcDbLine
 62
7
  6
BYLAYER
 10
25.7609101879
 20
20.0176470588
 11
26.4350333399
 21
20.0176470588
  0
LINE
  5
23D
100
AcDbEntity
  8
0
100
AcDbLine
 62
7
  6
BYLAYER
 10
17.6363317399
 20
10.5163912028
 11
17.4350333399
 21
11.2676470588
  0
LINE
  5
23E
100
AcDbEntity
  8
0
100
AcDbLine
 62
7
  6
BYLAYER
 10
17.8120224936
 20
35.4702531018
 11
17.5884987375
 21
34.6360510875
  0
LINE
  5
23F
100
AcDbEntity
  8
0
100
AcDbLine
 62
7
  6
BYLAYER
 10
6.7350333399
 20
15.3176470588
 11
6.9350333399
 21
15.5176470588
  0
LINE
  5
240
100
AcDbEntity
  8
0
100
AcDbLine
 62
7
  6
BYLAYER
 10
6.7350333399
 20
30.7176470588
 11
6.9350333399
 21
30.5176470588
  0
LINE
  5
241
100
AcDbEntity
  8
0
100
AcDbLine
 62
7
  6
BYLAYER
 10
17.5884987375
 20
11.3992430302
 11
17.8120224936
 21
10.5650410158
  0
LINE
  5
242
100
AcDbEntity
  8
0
100
AcDbLine
 62
7
  6
BYLAYER
 10
15.5404136692
 20
35.6676470588
 11
15.5580441863
 21
35.4702531018
  0
LINE
  5
243
100
AcDbEntity
  8
0
100
AcDbLine
 62
7
  6
BYLAYER
 10
17.8296530107
 20
10.3676470588
 11
17.8120224936
 21
10.5650410158
  0
LINE
  5
244
100
AcDbEntity
  8
0
100
AcDbLine
 62
7
  6
BYLAYER
 10
15.5580441863
 20
10.5650410158
 11
15.5404136692
 21
10.3676470588
  0
LINE
  5
245
100
AcDbEntity
  8
0
100
AcDbLine
 62
7
  6
BYLAYER
 10
17.8120224936
 20
35.4702531018
 11
17.8296530116
 21
35.6676470594
  0
LINE
  5
246
100
AcDbEntity
  8
0
100
AcDbLine
 62
7
  6
BYLAYER
 10
15.5580441863
 20
10.5650410158
 11
15.7815679423
 21
11.3992430302
  0
LINE
  5
247
100
AcDbEntity
  8
0
100
AcDbLine
 62
7
  6
BYLAYER
 10
15.9350333399
 20
11.2676470588
 11
15.7337349327
 21
10.5163911754
  0
LINE
  5
248
100
AcDbEntity
  8
0
100
AcDbLine
 62
7
  6
BYLAYER
 10
26.6350333399
 20
30.7176470588
 11
26.4350333399
 21
30.5176470588
  0
LINE
  5
249
100
AcDbEntity
  8
0
100
AcDbLine
 62
7
  6
BYLAYER
 10
26.6350333399
 20
15.3176470588
 11
26.4350333399
 21
15.5176470588
  0
LINE
  5
24A
100
AcDbEntity
  8
0
100
AcDbLine
 62
7
  6
BYLAYER
 10
15.7815679423
 20
34.6360510875
 11
15.5580441863
 21
35.4702531018
  0
LINE
  5
24B
100
AcDbEntity
  8
0
100
AcDbLine
 62
7
  6
BYLAYER
 10
15.73373494
 20
35.5189029149
 11
15.9350333399
 21
34.7676470588
  0
LINE
  5
24C
100
AcDbEntity
  8
0
100
AcDbLine
 62
7
  6
BYLAYER
 10
26.4350333399
 20
26.0176470588
 11
25.7609101879
 21
26.0176470588
  0
LINE
  5
24D
100
AcDbEntity
  8
0
100
AcDbLine
 62
7
  6
BYLAYER
 10
7.609156492
 20
26.0176470588
 11
6.9350333399
 21
26.0176470588
  0
LINE
  5
24E
100
AcDbEntity
  8
0
100
AcDbLine
 62
7
  6
BYLAYER
 10
20.7350333399
 20
35.6676470588
 11
20.7350333399
 21
28.6040143937
  0
LINE
  5
24F
100
AcDbEntity
  8
0
100
AcDbLine
 62
7
  6
BYLAYER
 10
20.7350333399
 20
17.431279724
 11
20.7350333399
 21
10.3676470588
  0
LINE
  5
250
100
AcDbEntity
  8
0
100
AcDbLine
 62
7
  6
BYLAYER
 10
23.1850333399
 20
10.4051705257
 11
23.1850333399
 21
18.5276581947
  0
LINE
  5
251
100
AcDbEntity
  8
0
100
AcDbLine
 62
7
  6
BYLAYER
 10
23.1850333399
 20
27.507635923
 11
23.1850333399
 21
35.630123592
  0
LINE
  5
252
100
AcDbEntity
  8
0
100
AcDbLine
 62
7
  6
BYLAYER
 10
29.3350333399
 20
30.4676470588
 11
26.4350333399
 21
30.4676470588
  0
LINE
  5
253
100
AcDbEntity
  8
0
100
AcDbLine
 62
7
  6
BYLAYER
 10
6.9350333399
 20
30.4676470588
 11
4.0350333399
 21
30.4676470588
  0
LINE
  5
254
100
AcDbEntity
  8
0
100
AcDbLine
 62
7
  6
BYLAYER
 10
24.5350333399
 20
15.3176470588
 11
24.5350333399
 21
10.685708106
  0
LINE
  5
255
100
AcDbEntity
  8
0
100
AcDbLine
 62
7
  6
BYLAYER
 10
24.5350333399
 20
30.7176470588
 11
24.5350333399
 21
35.3495860117
  0
LINE
  5
256
100
AcDbEntity
  8
0
100
AcDbLine
 62
7
  6
BYLAYER
 10
24.7350333399
 20
17.8176470588
 11
24.7350333399
 21
15.5176470588
  0
LINE
  5
257
100
AcDbEntity
  8
0
100
AcDbLine
 62
7
  6
BYLAYER
 10
24.7350333399
 20
28.2176470588
 11
24.7350333399
 21
30.5176470588
  0
LINE
  5
258
100
AcDbEntity
  8
0
100
AcDbLine
 62
7
  6
BYLAYER
 10
26.4350333399
 20
30.5176470588
 11
24.7350333399
 21
30.5176470588
  0
LINE
  5
259
100
AcDbEntity
  8
0
100
AcDbLine
 62
7
  6
BYLAYER
 10
8.6350333399
 20
30.5176470588
 11
6.9350333399
 21
30.5176470588
  0
LINE
  5
25A
100
AcDbEntity
  8
0
100
AcDbLine
 62
7
  6
BYLAYER
 10
29.1350333399
 20
30.7176470588
 11
24.5350333399
 21
30.7176470588
  0
LINE
  5
25B
100
AcDbEntity
  8
0
100
AcDbLine
 62
7
  6
BYLAYER
 10
8.8350333399
 20
30.7176470588
 11
4.2350333399
 21
30.7176470588
  0
LINE
  5
25C
100
AcDbEntity
  8
0
100
AcDbLine
 62
7
  6
BYLAYER
 10
26.4350333399
 20
15.5176470588
 11
26.4350333399
 21
20.0176470588
  0
LINE
  5
25D
100
AcDbEntity
  8
0
100
AcDbLine
 62
7
  6
BYLAYER
 10
26.4350333399
 20
26.0176470588
 11
26.4350333399
 21
30.5176470588
  0
LINE
  5
25E
100
AcDbEntity
  8
0
100
AcDbLine
 62
7
  6
BYLAYER
 10
24.7350333399
 20
17.8176470588
 11
25.7609101879
 21
20.0176470588
  0
LINE
  5
25F
100
AcDbEntity
  8
0
100
AcDbLine
 62
7
  6
BYLAYER
 10
25.7609101879
 20
26.0176470588
 11
24.7350333399
 21
28.2176470588
  0
LINE
  5
260
100
AcDbEntity
  8
0
100
AcDbLine
 62
7
  6
BYLAYER
 10
26.6350333399
 20
35.0192654128
 11
26.6350333399
 21
30.7176470588
  0
LINE
  5
261
100
AcDbEntity
  8
0
100
AcDbLine
 62
7
  6
BYLAYER
 10
26.6350333399
 20
11.0160287048
 11
26.6350333399
 21
15.3176470588
  0
LINE
  5
262
100
AcDbEntity
  8
0
100
AcDbLine
 62
7
  6
BYLAYER
 10
24.5350333399
 20
15.3176470588
 11
24.7350333399
 21
15.5176470588
  0
LINE
  5
263
100
AcDbEntity
  8
0
100
AcDbLine
 62
7
  6
BYLAYER
 10
20.7350333399
 20
34.0191606072
 11
12.6350333399
 21
34.0191606072
  0
LINE
  5
264
100
AcDbEntity
  8
0
100
AcDbLine
 62
7
  6
BYLAYER
 10
24.7350333399
 20
30.5176470588
 11
24.5350333399
 21
30.7176470588
  0
LINE
  5
265
100
AcDbEntity
  8
0
100
AcDbLine
 62
7
  6
BYLAYER
 10
15.7815679423
 20
34.6360510875
 11
17.5884987375
 21
34.6360510875
  0
LINE
  5
266
100
AcDbEntity
  8
0
100
AcDbLine
 62
7
  6
BYLAYER
 10
17.4420152986
 20
34.7676470588
 11
15.9280513813
 21
34.7676470588
  0
LINE
  5
267
100
AcDbEntity
  8
0
100
AcDbLine
 62
7
  6
BYLAYER
 10
17.4752257188
 20
34.9176470588
 11
15.8948409611
 21
34.9176470588
  0
LINE
  5
268
100
AcDbEntity
  8
0
100
AcDbLine
 62
7
  6
BYLAYER
 10
29.1350333399
 20
11.4630194016
 11
29.1350333399
 21
15.3176470588
  0
LINE
  5
269
100
AcDbEntity
  8
0
100
AcDbLine
 62
7
  6
BYLAYER
 10
29.1350333399
 20
30.7176470588
 11
29.1350333399
 21
34.572274716
  0
LINE
  5
26A
100
AcDbEntity
  8
0
100
AcDbLine
 62
7
  6
BYLAYER
 10
29.3350333399
 20
30.5176470588
 11
29.3350333399
 21
15.5176470588
  0
LINE
  5
26B
100
AcDbEntity
  8
0
100
AcDbLine
 62
7
  6
BYLAYER
 10
12.6350333399
 20
35.4702531018
 11
15.5580441863
 21
35.4702531018
  0
LINE
  5
26C
100
AcDbEntity
  8
0
100
AcDbLine
 62
7
  6
BYLAYER
 10
17.8120224936
 20
35.4702531018
 11
20.7350333399
 21
35.4702531018
  0
LINE
  5
26D
100
AcDbEntity
  8
0
100
AcDbLine
 62
7
  6
BYLAYER
 10
21.6850333399
 20
35.6676470588
 11
17.8296530107
 21
35.6676470588
  0
LINE
  5
26E
100
AcDbEntity
  8
0
100
AcDbLine
 62
7
  6
BYLAYER
 10
15.5404136692
 20
35.6676470588
 11
11.6850333399
 21
35.6676470588
  0
LINE
  5
26F
100
AcDbEntity
  8
0
100
AcDbLine
 62
7
  6
BYLAYER
 10
29.1350333399
 20
15.3176470588
 11
29.3350333399
 21
15.5176470588
  0
LINE
  5
270
100
AcDbEntity
  8
0
100
AcDbLine
 62
7
  6
BYLAYER
 10
29.1350333399
 20
30.7176470588
 11
29.3350333399
 21
30.5176470588
  0
ARC
  5
271
100
AcDbEntity
  8
0
100
AcDbCircle
 62
7
  6
BYLAYER
 10
11.6850333399
 20
5.6676470588
 40
30.0
100
AcDbArc
 50
90.0
 51
104.0807172847
  0
ARC
  5
272
100
AcDbEntity
  8
0
100
AcDbCircle
 62
7
  6
BYLAYER
 10
11.6850333399
 20
5.6676470588
 40
29.8
100
AcDbArc
 50
95.4880177724
 51
104.4775121859
  0
ARC
  5
273
100
AcDbEntity
  8
0
100
AcDbCircle
 62
7
  6
BYLAYER
 10
4.4350333399
 20
11.4630194016
 40
0.2
100
AcDbArc
 50
180.0
 51
255.9192827156
  0
ARC
  5
274
100
AcDbEntity
  8
0
100
AcDbCircle
 62
7
  6
BYLAYER
 10
6.5350333399
 20
11.0160287048
 40
0.2
100
AcDbArc
 50
260.0482498019
 51
360.0
  0
ARC
  5
275
100
AcDbEntity
  8
0
100
AcDbCircle
 62
7
  6
BYLAYER
 10
9.0350333399
 20
10.685708106
 40
0.2
100
AcDbArc
 50
180.0
 51
264.8981662842
  0
ARC
  5
276
100
AcDbEntity
  8
0
100
AcDbCircle
 62
7
  6
BYLAYER
 10
15.5404136692
 20
10.5676470588
 40
0.2
100
AcDbArc
 50
270.0
 51
342.1161528093
  0
ARC
  5
277
100
AcDbEntity
  8
0
100
AcDbCircle
 62
7
  6
BYLAYER
 10
11.6850333399
 20
40.3676470588
 40
30.0
100
AcDbArc
 50
255.9192827153
 51
269.9999989539
  0
ARC
  5
278
100
AcDbEntity
  8
0
100
AcDbCircle
 62
7
  6
BYLAYER
 10
11.6850333399
 20
40.3676470588
 40
29.8
100
AcDbArc
 50
255.5224878141
 51
264.5119822276
  0
ARC
  5
279
100
AcDbEntity
  8
0
100
AcDbCircle
 62
7
  6
BYLAYER
 10
15.5404136692
 20
35.4676470588
 40
0.2
100
AcDbArc
 50
17.8838436043
 51
90.0
  0
ARC
  5
27A
100
AcDbEntity
  8
0
100
AcDbCircle
 62
7
  6
BYLAYER
 10
4.4350333399
 20
34.572274716
 40
0.2
100
AcDbArc
 50
104.0807172849
 51
180.0
  0
ARC
  5
27B
100
AcDbEntity
  8
0
100
AcDbCircle
 62
7
  6
BYLAYER
 10
6.5350333399
 20
35.0192654128
 40
0.2
100
AcDbArc
 50
0.0
 51
99.9517501981
  0
ARC
  5
27C
100
AcDbEntity
  8
0
100
AcDbCircle
 62
7
  6
BYLAYER
 10
9.0350333399
 20
35.3495860117
 40
0.2
100
AcDbArc
 50
95.1018337188
 51
180.0
  0
ARC
  5
27D
100
AcDbEntity
  8
0
100
AcDbCircle
 62
7
  6
BYLAYER
 10
21.6850333399
 20
5.6676470588
 40
30.0
100
AcDbArc
 50
75.9192827153
 51
90.0
  0
ARC
  5
27E
100
AcDbEntity
  8
0
100
AcDbCircle
 62
7
  6
BYLAYER
 10
21.6850333399
 20
5.6676470588
 40
29.8
100
AcDbArc
 50
75.5224878141
 51
84.5119822276
  0
ARC
  5
27F
100
AcDbEntity
  8
0
100
AcDbCircle
 62
7
  6
BYLAYER
 10
24.3350333399
 20
10.685708106
 40
0.2
100
AcDbArc
 50
275.1018337159
 51
360.0
  0
ARC
  5
280
100
AcDbEntity
  8
0
100
AcDbCircle
 62
7
  6
BYLAYER
 10
26.8350333399
 20
11.0160287048
 40
0.2
100
AcDbArc
 50
180.0
 51
279.9517501981
  0
ARC
  5
281
100
AcDbEntity
  8
0
100
AcDbCircle
 62
7
  6
BYLAYER
 10
28.9350333399
 20
11.4630194016
 40
0.2
100
AcDbArc
 50
284.0807172844
 51
360.0
  0
ARC
  5
282
100
AcDbEntity
  8
0
100
AcDbCircle
 62
7
  6
BYLAYER
 10
17.8296530107
 20
10.5676470588
 40
0.2
100
AcDbArc
 50
197.8838436045
 51
270.0
  0
ARC
  5
283
100
AcDbEntity
  8
0
100
AcDbCircle
 62
7
  6
BYLAYER
 10
21.6850333399
 20
40.3676470588
 40
30.0
100
AcDbArc
 50
269.9999988809
 51
284.0807172847
  0
ARC
  5
284
100
AcDbEntity
  8
0
100
AcDbCircle
 62
7
  6
BYLAYER
 10
21.6850333399
 20
40.3676470588
 40
29.8
100
AcDbArc
 50
275.4880177724
 51
284.4775121859
  0
ARC
  5
285
100
AcDbEntity
  8
0
100
AcDbCircle
 62
7
  6
BYLAYER
 10
16.6850333399
 20
23.0176470588
 40
12.9
100
AcDbArc
 50
260.0854784936
 51
279.9145215064
  0
ARC
  5
286
100
AcDbEntity
  8
0
100
AcDbCircle
 62
7
  6
BYLAYER
 10
16.6850333399
 20
23.0176470588
 40
12.9
100
AcDbArc
 50
169.3253140315
 51
190.6746859685
  0
ARC
  5
287
100
AcDbEntity
  8
0
100
AcDbCircle
 62
7
  6
BYLAYER
 10
16.6850333399
 20
23.0176470588
 40
12.9
100
AcDbArc
 50
80.0854784936
 51
99.9145215064
  0
ARC
  5
288
100
AcDbEntity
  8
0
100
AcDbCircle
 62
7
  6
BYLAYER
 10
16.6850333399
 20
23.0176470588
 40
12.9
100
AcDbArc
 50
349.3253140315
 51
10.6746859685
  0
ARC
  5
289
100
AcDbEntity
  8
0
100
AcDbCircle
 62
7
  6
BYLAYER
 10
16.6850333399
 20
23.0176470588
 40
7.9
100
AcDbArc
 50
300.8410557425
 51
59.1589442575
  0
ARC
  5
28A
100
AcDbEntity
  8
0
100
AcDbCircle
 62
7
  6
BYLAYER
 10
16.6850333399
 20
23.0176470588
 40
7.9
100
AcDbArc
 50
120.8410557425
 51
239.1589442575
  0
CIRCLE
  5
28B
100
AcDbEntity
  8
0
100
AcDbCircle
 62
7
  6
BYLAYER
 10
16.6850333399
 20
23.0176470588
 40
6.9
  0
ARC
  5
28C
100
AcDbEntity
  8
0
100
AcDbCircle
 62
7
  6
BYLAYER
 10
24.3350333399
 20
35.3495860117
 40
0.2
100
AcDbArc
 50
0.0
 51
84.8981662813
  0
ARC
  5
28D
100
AcDbEntity
  8
0
100
AcDbCircle
 62
7
  6
BYLAYER
 10
28.9350333399
 20
34.572274716
 40
0.2
100
AcDbArc
 50
0.0
 51
75.9192827151
  0
ARC
  5
28E
100
AcDbEntity
  8
0
100
AcDbCircle
 62
7
  6
BYLAYER
 10
26.8350333399
 20
35.0192654128
 40
0.2
100
AcDbArc
 50
80.048249802
 51
180.0
  0
ARC
  5
28F
100
AcDbEntity
  8
0
100
AcDbCircle
 62
7
  6
BYLAYER
 10
17.8296530107
 20
35.4676470588
 40
0.2
100
AcDbArc
 50
90.0
 51
162.1161528082
  0
LINE
  5
290
100
AcDbEntity
  8
0
100
AcDbLine
 62
7
  6
BYLAYER
 10
17.6363318345
 20
35.5189032679
 11
17.6393167869
 21
35.5290646362
  0
LINE
  5
291
100
AcDbEntity
  8
0
100
AcDbLine
 62
7
  6
BYLAYER
 10
15.7337348528
 20
35.5189032404
 11
15.7307498917
 21
35.5290646414
  0
LINE
  5
292
100
AcDbEntity
  8
0
100
AcDbLine
 62
7
  6
BYLAYER
 10
15.7337348454
 20
10.5163908497
 11
15.7307498929
 21
10.5062294814
  0
LINE
  5
293
100
AcDbEntity
  8
0
100
AcDbLine
 62
7
  6
BYLAYER
 10
17.6363318271
 20
10.5163908772
 11
17.6393167882
 21
10.5062294762
  0
SPLINE
  5
294
100
AcDbEntity
  8
0
100
AcDbSpline
 62
7
  6
BYLAYER
 70
0
 71
3
 72
11
 73
7
 74
0
 42
0.0000001
 43
0.0000001
 44
0.0000000001
 40
0.0
 40
0.0
 40
0.0
 40
0.0
 40
0.16521809
 40
0.3744004261
 40
0.651402524
 40
1.0
 40
1.0
 40
1.0
 40
1.0
 10
17.6188373241
 20
35.4536128663
 30
0.0
 10
17.6198448932
 20
35.4573731743
 30
0.0
 10
17.6246376834
 20
35.4652648333
 30
0.0
 10
17.6376652777
 20
35.4739295171
 30
0.0
 10
17.6564736352
 20
35.4801187606
 30
0.0
 10
17.6711003456
 20
35.4823527247
 30
0.0
 10
17.6792775028
 20
35.4831281351
 30
0.0
  0
SPLINE
  5
295
100
AcDbEntity
  8
0
100
AcDbSpline
 62
7
  6
BYLAYER
 70
0
 71
3
 72
10
 73
6
 74
0
 42
0.0000001
 43
0.0000001
 44
0.0000000001
 40
0.0
 40
0.0
 40
0.0
 40
0.0
 40
0.2260344719
 40
0.4771770727
 40
1.0
 40
1.0
 40
1.0
 40
1.0
 10
17.6792775028
 20
35.4831281351
 30
0.0
 10
17.6893162669
 20
35.4840800751
 30
0.0
 10
17.7106513789
 20
35.4846104961
 30
0.0
 10
17.7552011401
 20
35.4817204253
 30
0.0
 10
17.7893251121
 20
35.4756234578
 30
0.0
 10
17.812022497
 20
35.4702531418
 30
0.0
  0
SPLINE
  5
296
100
AcDbEntity
  8
0
100
AcDbSpline
 62
7
  6
BYLAYER
 70
0
 71
3
 72
11
 73
7
 74
0
 42
0.0000001
 43
0.0000001
 44
0.0000000001
 40
0.0
 40
0.0
 40
0.0
 40
0.0
 40
0.16521809
 40
0.3744004261
 40
0.651402524
 40
1.0
 40
1.0
 40
1.0
 40
1.0
 10
15.7512293558
 20
10.5816812513
 30
0.0
 10
15.7502217867
 20
10.5779209433
 30
0.0
 10
15.7454289965
 20
10.5700292844
 30
0.0
 10
15.7324014021
 20
10.5613646006
 30
0.0
 10
15.7135930447
 20
10.555175357
 30
0.0
 10
15.6989663343
 20
10.552941393
 30
0.0
 10
15.6907891771
 20
10.5521659825
 30
0.0
  0
SPLINE
  5
297
100
AcDbEntity
  8
0
100
AcDbSpline
 62
7
  6
BYLAYER
 70
0
 71
3
 72
10
 73
6
 74
0
 42
0.0000001
 43
0.0000001
 44
0.0000000001
 40
0.0
 40
0.0
 40
0.0
 40
0.0
 40
0.2260344719
 40
0.4771770727
 40
1.0
 40
1.0
 40
1.0
 40
1.0
 10
15.6907891771
 20
10.5521659825
 30
0.0
 10
15.680750413
 20
10.5512140426
 30
0.0
 10
15.6594153009
 20
10.5506836215
 30
0.0
 10
15.6148655398
 20
10.5535736923
 30
0.0
 10
15.5807415678
 20
10.5596706598
 30
0.0
 10
15.5580441829
 20
10.5650409759
 30
0.0
  0
SPLINE
  5
298
100
AcDbEntity
  8
0
100
AcDbSpline
 62
7
  6
BYLAYER
 70
0
 71
3
 72
9
 73
5
 74
0
 42
0.0000001
 43
0.0000001
 44
0.0000000001
 40
0.0
 40
0.0
 40
0.0
 40
0.0
 40
0.5366178854
 40
1.0
 40
1.0
 40
1.0
 40
1.0
 10
15.7815679423
 20
11.3992430302
 30
0.0
 10
15.7970108658
 20
11.3806246189
 30
0.0
 10
15.8266972727
 20
11.3466801931
 30
0.0
 10
15.8585910621
 20
11.3147129989
 30
0.0
 10
15.8742613284
 20
11.3009014975
 30
0.0
  0
SPLINE
  5
299
100
AcDbEntity
  8
0
100
AcDbSpline
 62
7
  6
BYLAYER
 70
0
 71
3
 72
12
 73
8
 74
0
 42
0.0000001
 43
0.0000001
 44
0.0000000001
 40
0.0
 40
0.0
 40
0.0
 40
0.0
 40
0.3340881791
 40
0.6170518773
 40
0.8405653787
 40
0.9282172883
 40
1.0
 40
1.0
 40
1.0
 40
1.0
 10
15.8742613284
 20
11.3009014975
 30
0.0
 10
15.879614311
 20
11.2961834712
 30
0.0
 10
15.8897097656
 20
11.2876913737
 30
0.0
 10
15.9042577848
 20
11.2771614111
 30
0.0
 10
15.9153759077
 20
11.2708834976
 30
0.0
 10
15.9231171416
 20
11.2681859092
 30
0.0
 10
15.9265182541
 20
11.2676470588
 30
0.0
 10
15.9280513813
 20
11.2676470588
 30
0.0
  0
SPLINE
  5
29A
100
AcDbEntity
  8
0
100
AcDbSpline
 62
7
  6
BYLAYER
 70
0
 71
3
 72
9
 73
5
 74
0
 42
0.0000001
 43
0.0000001
 44
0.0000000001
 40
0.0
 40
0.0
 40
0.0
 40
0.0
 40
0.5366205081
 40
1.0
 40
1.0
 40
1.0
 40
1.0
 10
17.5884987375
 20
11.3992430302
 30
0.0
 10
17.5730558741
 20
11.3806246912
 30
0.0
 10
17.5433681906
 20
11.346682914
 30
0.0
 10
17.5114870717
 20
11.3147023739
 30
0.0
 10
17.4958123836
 20
11.3008963471
 30
0.0
  0
SPLINE
  5
29B
100
AcDbEntity
  8
0
100
AcDbSpline
 62
7
  6
BYLAYER
 70
0
 71
3
 72
12
 73
8
 74
0
 42
0.0000001
 43
0.0000001
 44
0.0000000001
 40
0.0
 40
0.0
 40
0.0
 40
0.0
 40
0.3341409198
 40
0.617156984
 40
0.840633478
 40
0.9282420559
 40
1.0
 40
1.0
 40
1.0
 40
1.0
 10
17.4958123836
 20
11.3008963471
 30
0.0
 10
17.4904570609
 20
11.2961794604
 30
0.0
 10
17.480354378
 20
11.2876924864
 30
0.0
 10
17.4657979311
 20
11.2771728973
 30
0.0
 10
17.4546841774
 20
11.270890361
 30
0.0
 10
17.4469474456
 20
11.2681871485
 30
0.0
 10
17.4435478702
 20
11.2676470588
 30
0.0
 10
17.4420152986
 20
11.2676470588
 30
0.0
  0
SPLINE
  5
29C
100
AcDbEntity
  8
0
100
AcDbSpline
 62
7
  6
BYLAYER
 70
0
 71
3
 72
10
 73
6
 74
0
 42
0.0000001
 43
0.0000001
 44
0.0000000001
 40
0.0
 40
0.0
 40
0.0
 40
0.0
 40
0.5202868089
 40
0.7715856597
 40
1.0
 40
1.0
 40
1.0
 40
1.0
 10
17.8120225018
 20
10.5650409546
 30
0.0
 10
17.7900523154
 20
10.5598426976
 30
0.0
 10
17.7569825242
 20
10.5538785567
 30
0.0
 10
17.7136704873
 20
10.5507925212
 30
0.0
 10
17.692810778
 20
10.5510840751
 30
0.0
 10
17.682928956
 20
10.5518514436
 30
0.0
  0
SPLINE
  5
29D
100
AcDbEntity
  8
0
100
AcDbSpline
 62
7
  6
BYLAYER
 70
0
 71
3
 72
9
 73
5
 74
0
 42
0.0000001
 43
0.0000001
 44
0.0000000001
 40
0.0
 40
0.0
 40
0.0
 40
0.0
 40
0.5389421036
 40
1.0
 40
1.0
 40
1.0
 40
1.0
 10
17.682928956
 20
10.5518514436
 30
0.0
 10
17.6764279741
 20
10.5523562745
 30
0.0
 10
17.6643974525
 20
10.5538181033
 30
0.0
 10
17.652587847
 20
10.5566416668
 30
0.0
 10
17.6472899201
 20
10.5583877543
 30
0.0
  0
SPLINE
  5
29E
100
AcDbEntity
  8
0
100
AcDbSpline
 62
7
  6
BYLAYER
 70
0
 71
3
 72
11
 73
7
 74
0
 42
0.0000001
 43
0.0000001
 44
0.0000000001
 40
0.0
 40
0.0
 40
0.0
 40
0.0
 40
0.3186116122
 40
0.5827419884
 40
0.8045273201
 40
1.0
 40
1.0
 40
1.0
 40
1.0
 10
17.6472899201
 20
10.5583877543
 30
0.0
 10
17.6434372304
 20
10.5596575215
 30
0.0
 10
17.6365095403
 20
10.5624131636
 30
0.0
 10
17.6278069616
 20
10.5679651675
 30
0.0
 10
17.6217900699
 20
10.5743656989
 30
0.0
 10
17.6194814585
 20
10.5792773028
 30
0.0
 10
17.6188373255
 20
10.5816812461
 30
0.0
  0
SPLINE
  5
29F
100
AcDbEntity
  8
0
100
AcDbSpline
 62
7
  6
BYLAYER
 70
0
 71
3
 72
10
 73
6
 74
0
 42
0.0000001
 43
0.0000001
 44
0.0000000001
 40
0.0
 40
0.0
 40
0.0
 40
0.0
 40
0.5202868089
 40
0.7715856597
 40
1.0
 40
1.0
 40
1.0
 40
1.0
 10
15.5580441781
 20
35.470253163
 30
0.0
 10
15.5800143645
 20
35.4754514201
 30
0.0
 10
15.6130841557
 20
35.4814155609
 30
0.0
 10
15.6563961926
 20
35.4845015965
 30
0.0
 10
15.6772559019
 20
35.4842100425
 30
0.0
 10
15.6871377239
 20
35.483442674
 30
0.0
  0
SPLINE
  5
2A0
100
AcDbEntity
  8
0
100
AcDbSpline
 62
7
  6
BYLAYER
 70
0
 71
3
 72
9
 73
5
 74
0
 42
0.0000001
 43
0.0000001
 44
0.0000000001
 40
0.0
 40
0.0
 40
0.0
 40
0.0
 40
0.5389421036
 40
1.0
 40
1.0
 40
1.0
 40
1.0
 10
15.6871377239
 20
35.483442674
 30
0.0
 10
15.6936387057
 20
35.4829378432
 30
0.0
 10
15.7056692274
 20
35.4814760143
 30
0.0
 10
15.7174788329
 20
35.4786524508
 30
0.0
 10
15.7227767598
 20
35.4769063633
 30
0.0
  0
SPLINE
  5
2A1
100
AcDbEntity
  8
0
100
AcDbSpline
 62
7
  6
BYLAYER
 70
0
 71
3
 72
11
 73
7
 74
0
 42
0.0000001
 43
0.0000001
 44
0.0000000001
 40
0.0
 40
0.0
 40
0.0
 40
0.0
 40
0.3186116122
 40
0.5827419884
 40
0.8045273202
 40
1.0
 40
1.0
 40
1.0
 40
1.0
 10
15.7227767598
 20
35.4769063633
 30
0.0
 10
15.7266294494
 20
35.4756365962
 30
0.0
 10
15.7335571396
 20
35.472880954
 30
0.0
 10
15.7422597183
 20
35.4673289502
 30
0.0
 10
15.7482766099
 20
35.4609284188
 30
0.0
 10
15.7505852214
 20
35.4560168148
 30
0.0
 10
15.7512293544
 20
35.4536128716
 30
0.0
  0
SPLINE
  5
2A2
100
AcDbEntity
  8
0
100
AcDbSpline
 62
7
  6
BYLAYER
 70
0
 71
3
 72
9
 73
5
 74
0
 42
0.0000001
 43
0.0000001
 44
0.0000000001
 40
0.0
 40
0.0
 40
0.0
 40
0.0
 40
0.5366205081
 40
1.0
 40
1.0
 40
1.0
 40
1.0
 10
15.7815679423
 20
34.6360510875
 30
0.0
 10
15.7970108058
 20
34.6546694265
 30
0.0
 10
15.8266984893
 20
34.6886112036
 30
0.0
 10
15.8585796082
 20
34.7205917438
 30
0.0
 10
15.8742542963
 20
34.7343977706
 30
0.0
  0
SPLINE
  5
2A3
100
AcDbEntity
  8
0
100
AcDbSpline
 62
7
  6
BYLAYER
 70
0
 71
3
 72
12
 73
8
 74
0
 42
0.0000001
 43
0.0000001
 44
0.0000000001
 40
0.0
 40
0.0
 40
0.0
 40
0.0
 40
0.3341409198
 40
0.617156984
 40
0.840633478
 40
0.9282420559
 40
1.0
 40
1.0
 40
1.0
 40
1.0
 10
15.8742542963
 20
34.7343977706
 30
0.0
 10
15.8796096189
 20
34.7391146573
 30
0.0
 10
15.8897123019
 20
34.7476016312
 30
0.0
 10
15.9042687488
 20
34.7581212203
 30
0.0
 10
15.9153825025
 20
34.7644037567
 30
0.0
 10
15.9231192343
 20
34.7671069692
 30
0.0
 10
15.9265188097
 20
34.7676470588
 30
0.0
 10
15.9280513813
 20
34.7676470588
 30
0.0
  0
SPLINE
  5
2A4
100
AcDbEntity
  8
0
100
AcDbSpline
 62
7
  6
BYLAYER
 70
0
 71
3
 72
9
 73
5
 74
0
 42
0.0000001
 43
0.0000001
 44
0.0000000001
 40
0.0
 40
0.0
 40
0.0
 40
0.0
 40
0.5366178854
 40
1.0
 40
1.0
 40
1.0
 40
1.0
 10
17.5884987375
 20
34.6360510875
 30
0.0
 10
17.5730558141
 20
34.6546694987
 30
0.0
 10
17.5433694072
 20
34.6886139246
 30
0.0
 10
17.5114756177
 20
34.7205811188
 30
0.0
 10
17.4958053515
 20
34.7343926202
 30
0.0
  0
SPLINE
  5
2A5
100
AcDbEntity
  8
0
100
AcDbSpline
 62
7
  6
BYLAYER
 70
0
 71
3
 72
12
 73
8
 74
0
 42
0.0000001
 43
0.0000001
 44
0.0000000001
 40
0.0
 40
0.0
 40
0.0
 40
0.0
 40
0.3340881791
 40
0.6170518773
 40
0.8405653787
 40
0.9282172883
 40
1.0
 40
1.0
 40
1.0
 40
1.0
 10
17.4958053515
 20
34.7343926202
 30
0.0
 10
17.4904523688
 20
34.7391106464
 30
0.0
 10
17.4803569143
 20
34.747602744
 30
0.0
 10
17.465808895
 20
34.7581327066
 30
0.0
 10
17.4546907721
 20
34.7644106201
 30
0.0
 10
17.4469495382
 20
34.7671082085
 30
0.0
 10
17.4435484258
 20
34.7676470588
 30
0.0
 10
17.4420152986
 20
34.7676470588
 30
0.0
  0
ENDSEC
  0
SECTION
  2
OBJECTS
  0
DICTIONARY
  5
C
100
AcDbDictionary
280
0
281
1
  3
ACAD_GROUP
350
D
  3
ACAD_MLINESTYLE
350
17
  3
ACAD_LAYOUT
350
1A
  3
ACAD_PLOTSETTINGS
350
19
  3
ACAD_PLOTSTYLENAME
350
E
  0
DICTIONARY
  5
D
102
{ACAD_REACTORS
330
C
102
}
100
AcDbDictionary
280
0
281
1
  0
ACDBDICTIONARYWDFLT
  5
E
102
{ACAD_REACTORS
330
C
102
}
100
AcDbDictionary
281
1
  3
Normal
350
F
100
AcDbDictionaryWithDefault
340
F
  0
DICTIONARY
  5
17
102
{ACAD_REACTORS
330
C
102
}
100
AcDbDictionary
280
0
281
1
  3
Standard
350
18
  0
DICTIONARY
  5
19
102
{ACAD_REACTORS
330
C
102
}
100
AcDbDictionary
281
1
  0
DICTIONARY
  5
1A
102
{ACAD_REACTORS
330
C
102
}
100
AcDbDictionary
281
1
  3
Model
350
2A6
  3
Layout1
350
2A7
  0
ACDBPLACEHOLDER
  5
F
102
{ACAD_REACTORS
330
E
102
}
  0
MLINESTYLE
  5
18
102
{ACAD_REACTORS
330
17
102
}
100
AcDbMlineStyle
  2
STANDARD
 70
0
  3

 62
256
 51
90.0
 52
90.0
 71
2
 49
0.5
 62
256
  6
BYLAYER
 49
-0.5
 62
256
  6
BYLAYER
  0
LAYOUT
  5
2A6
102
{ACAD_REACTORS
330
1A
102
}
100
AcDbPlotSettings
  1

  2
none_device
  4

  6

 40
0.0
 41
0.0
 42
0.0
 43
0.0
 44
210.0
 45
297.0
 46
0.0
 47
0.0
 48
0.0
 49
0.0
140
0.0
141
0.0
142
1.0
143
1.0
 70
1024
 72
1
 73
0
 74
0
  7

 75
0
147
1.0
148
0.0
149
0.0
100
AcDbLayout
  1
Model
 70
0
 71
0
 10
0.0
 20
0.0
 11
210.0
 21
297.0
 12
0.0
 22
0.0
 32
0.0
 14
0.0
 24
0.0
 34
0.0
 15
0.0
 25
0.0
 35
0.0
146
0.0
 13
0.0
 23
0.0
 33
0.0
 16
1.0
 26
0.0
 36
0.0
 17
0.0
 27
1.0
 37
0.0
 76
0
330
210
345
0
346
0
  0
LAYOUT
  5
2A7
102
{ACAD_REACTORS
330
1A
102
}
100
AcDbPlotSettings
  1

  2
none_device
  4

  6

 40
0.0
 41
0.0
 42
0.0
 43
0.0
 44
210.0
 45
297.0
 46
0.0
 47
0.0
 48
0.0
 49
0.0
140
0.0
141
0.0
142
1.0
143
1.0
 70
0
 72
1
 73
0
 74
0
  7

 75
0
147
1.0
148
0.0
149
0.0
100
AcDbLayout
  1
Layout1
 70
0
 71
1
 10
0.0
 20
0.0
 11
210.0
 21
297.0
 12
0.0
 22
0.0
 32
0.0
 14
0.0
 24
0.0
 34
0.0
 15
0.0
 25
0.0
 35
0.0
146
0.0
 13
0.0
 23
0.0
 33
0.0
 16
1.0
 26
0.0
 36
0.0
 17
0.0
 27
1.0
 37
0.0
 76
0
330
211
345
0
346
0
  0
ENDSEC
  0
EOF
