999
DXF file: C:\Users\sesa63760\Dev\_Creo\CAD\MCADID0004745_3D-CAD\drw0001_5.dxf
999
Pro/ENGINEER 2019471 by Parametric Technology Corporation
  0
SECTION
  2
HEADER
  9
$ACADVER
  1
AC1024
  9
$DWGCODEPAGE
  3
ANSI_1252
  9
$EXTMAX
 10
32.631158524
 20
46.1497813411
 30
0.0
  9
$EXTMIN
 10
0.0
 20
0.0
 30
0.0
  9
$LIMMIN
 10
0.0
 20
0.0
  9
$LIMMAX
 10
32.631158524
 20
46.1497813411
  9
$VIEWCTR
 10
16.315579262
 20
23.0748906706
  9
$VIEWSIZE
 40
46.1497813411
  9
$CLAYER
  8
0
  9
$LTSCALE
 40
3.008282043
  9
$CELTYPE
  6
BYLAYER
  9
$DIMSCALE
 40
1.0
  9
$DIMASZ
 40
0.3884661729
  9
$DIMEXO
 40
1.0
  9
$DIMDLI
 40
2.0784494115
  9
$DIMEXE
 40
1.0
  9
$DIMCEN
 40
0.4922643343
  9
$DIMLFAC
 40
1.0
  9
$DIMBLK
  1
_FILLED
  9
$DIMALT
 70
0
  9
$DIMALTF
 40
0.0393700787
  9
$DIMTXT
 40
0.5438526421
  9
$DIMTOL
 70
1
  9
$DIMLIM
 70
0
  9
$DIMTFAC
 40
1.0
  9
$DIMTP
 40
0.01
  9
$DIMTM
 40
0.01
  9
$DIMGAP
 40
0.625
  9
$DIMDSEP
 70
46
  9
$AUNITS
 70
0
  9
$PDMODE
 70
3
  9
$PDSIZE
 40
0.3125
  9
$HANDSEED
  5
277
  9
$TILEMODE
 70
1
  9
$MEASUREMENT
 70
1
  9
$INSUNITS
 70
4
  0
ENDSEC
  0
SECTION
  2
CLASSES
  0
CLASS
  1
ACDBDICTIONARYWDFLT
  2
AcDbDictionaryWithDefault
  3
AutoCAD 2000
 90
0
 91
1
280
0
281
0
  0
CLASS
  1
ACDBPLACEHOLDER
  2
AcDbPlaceHolder
  3
AutoCAD 2000
 90
0
 91
1
280
0
281
0
  0
CLASS
  1
LAYOUT
  2
AcDbLayout
  3
AutoCAD 2000
 90
0
 91
0
280
0
281
0
  0
ENDSEC
  0
SECTION
  2
TABLES
  0
TABLE
  2
VPORT
  5
8
100
AcDbSymbolTable
 70
2
  0
VPORT
  5
1F4
100
AcDbSymbolTableRecord
100
AcDbViewportTableRecord
  2
*ACTIVE
 70
0
 10
0.0
 20
0.0
 11
1.0
 21
1.0
 12
16.315579262
 22
23.0748906706
 13
0.0
 23
0.0
 14
1.0
 24
1.0
 15
0.0
 25
0.0
 16
0.0
 26
0.0
 36
1.0
 17
0.0
 27
0.0
 37
0.0
 40
46.1497813411
 41
0.7070707071
 42
50.0
 43
0.0
 44
0.0
 50
0.0
 51
0.0
 71
0
 72
100
 73
1
 74
1
 75
0
 76
0
 77
0
 78
0
  0
ENDTAB
  0
TABLE
  2
LTYPE
  5
5
100
AcDbSymbolTable
 70
6
  0
LTYPE
  5
14
100
AcDbSymbolTableRecord
100
AcDbLinetypeTableRecord
  2
BYBLOCK
 70
0
  3

 72
65
 73
0
 40
0.0
  0
LTYPE
  5
15
100
AcDbSymbolTableRecord
100
AcDbLinetypeTableRecord
  2
BYLAYER
 70
0
  3

 72
65
 73
0
 40
0.0
  0
LTYPE
  5
16
100
AcDbSymbolTableRecord
100
AcDbLinetypeTableRecord
  2
CONTINUOUS
 70
64
  3
Solid line
 72
65
 73
0
 40
0.0
  0
LTYPE
  5
1F5
100
AcDbSymbolTableRecord
100
AcDbLinetypeTableRecord
  2
CENTER
 70
64
  3
____ _ ____ _ ____ _ ____ _ ____ _ ____ _ ____
 72
65
 73
4
 40
0.6
 49
0.375
 74
0
 49
-0.075
 74
0
 49
0.075
 74
0
 49
-0.075
 74
0
  0
LTYPE
  5
1F6
100
AcDbSymbolTableRecord
100
AcDbLinetypeTableRecord
  2
HIDDEN
 70
64
  3
- - - - - - - - - - - - - - - - - - - -
 72
65
 73
2
 40
0.2
 49
0.1
 74
0
 49
-0.1
 74
0
  0
LTYPE
  5
1F7
100
AcDbSymbolTableRecord
100
AcDbLinetypeTableRecord
  2
PHANTOM
 70
64
  3
_____ _ _ _____ _ _ _____ _ _ _____
 72
65
 73
6
 40
0.8
 49
0.45
 74
0
 49
-0.05
 74
0
 49
0.1
 74
0
 49
-0.05
 74
0
 49
0.1
 74
0
 49
-0.05
 74
0
  0
LTYPE
  5
1F8
100
AcDbSymbolTableRecord
100
AcDbLinetypeTableRecord
  2
DOT
 70
64
  3
. . . . . . . . . . . . . . . . . . . .
 72
65
 73
2
 40
0.2
 49
0.1
 74
0
 49
-0.1
 74
0
  0
LTYPE
  5
1F9
100
AcDbSymbolTableRecord
100
AcDbLinetypeTableRecord
  2
DASHED
 70
64
  3
- - - - - - - - - - - - - - - - - - - -
 72
65
 73
2
 40
0.2
 49
0.1
 74
0
 49
-0.1
 74
0
  0
ENDTAB
  0
TABLE
  2
LAYER
  5
2
100
AcDbSymbolTable
 70
36
  0
LAYER
  5
10
100
AcDbSymbolTableRecord
100
AcDbLayerTableRecord
  2
0
 70
0
 62
7
  6
CONTINUOUS
370
-3
390
F
  0
LAYER
  5
1FA
100
AcDbSymbolTableRecord
100
AcDbLayerTableRecord
  2
DEFAULT_1
 70
0
 62
7
  6
CENTER
370
-3
390
F
  0
LAYER
  5
1FB
100
AcDbSymbolTableRecord
100
AcDbLayerTableRecord
  2
DEFAULT_2
 70
0
 62
7
  6
HIDDEN
370
-3
390
F
  0
LAYER
  5
1FC
100
AcDbSymbolTableRecord
100
AcDbLayerTableRecord
  2
DEFAULT_3
 70
0
 62
7
  6
PHANTOM
370
-3
390
F
  0
LAYER
  5
1FD
100
AcDbSymbolTableRecord
100
AcDbLayerTableRecord
  2
00_COMPONENTS
 70
0
 62
7
  6
CONTINUOUS
370
-3
390
F
  0
LAYER
  5
1FE
100
AcDbSymbolTableRecord
100
AcDbLayerTableRecord
  2
01_1_DEFAULT_DATUMS
 70
0
 62
7
  6
CONTINUOUS
370
-3
390
F
  0
LAYER
  5
1FF
100
AcDbSymbolTableRecord
100
AcDbLayerTableRecord
  2
01_PLANES
 70
0
 62
7
  6
CONTINUOUS
370
-3
390
F
  0
LAYER
  5
200
100
AcDbSymbolTableRecord
100
AcDbLayerTableRecord
  2
02_COORD_SYS
 70
0
 62
7
  6
CONTINUOUS
370
-3
390
F
  0
LAYER
  5
201
100
AcDbSymbolTableRecord
100
AcDbLayerTableRecord
  2
03_AXES
 70
0
 62
7
  6
CONTINUOUS
370
-3
390
F
  0
LAYER
  5
202
100
AcDbSymbolTableRecord
100
AcDbLayerTableRecord
  2
04_POINTS
 70
0
 62
7
  6
CONTINUOUS
370
-3
390
F
  0
LAYER
  5
203
100
AcDbSymbolTableRecord
100
AcDbLayerTableRecord
  2
05_CURVES
 70
0
 62
7
  6
CONTINUOUS
370
-3
390
F
  0
LAYER
  5
204
100
AcDbSymbolTableRecord
100
AcDbLayerTableRecord
  2
06_SURFS
 70
0
 62
7
  6
CONTINUOUS
370
-3
390
F
  0
LAYER
  5
205
100
AcDbSymbolTableRecord
100
AcDbLayerTableRecord
  2
07_COSMETICS
 70
0
 62
7
  6
CONTINUOUS
370
-3
390
F
  0
LAYER
  5
206
100
AcDbSymbolTableRecord
100
AcDbLayerTableRecord
  2
10_NOTES
 70
0
 62
7
  6
CONTINUOUS
370
-3
390
F
  0
LAYER
  5
207
100
AcDbSymbolTableRecord
100
AcDbLayerTableRecord
  2
11_NOTES_PUB
 70
0
 62
7
  6
CONTINUOUS
370
-3
390
F
  0
LAYER
  5
208
100
AcDbSymbolTableRecord
100
AcDbLayerTableRecord
  2
13_REF_GTOL
 70
0
 62
7
  6
CONTINUOUS
370
-3
390
F
  0
LAYER
  5
209
100
AcDbSymbolTableRecord
100
AcDbLayerTableRecord
  2
16_MISC
 70
0
 62
7
  6
CONTINUOUS
370
-3
390
F
  0
LAYER
  5
20A
100
AcDbSymbolTableRecord
100
AcDbLayerTableRecord
  2
17_NO_PRINT
 70
0
 62
7
  6
CONTINUOUS
370
-3
390
F
  0
LAYER
  5
20B
100
AcDbSymbolTableRecord
100
AcDbLayerTableRecord
  2
18_DATUM_CAMS_JOINTS
 70
0
 62
7
  6
CONTINUOUS
370
-3
390
F
  0
LAYER
  5
20C
100
AcDbSymbolTableRecord
100
AcDbLayerTableRecord
  2
19_DATUM_FUNCTIONAL
 70
0
 62
7
  6
CONTINUOUS
370
-3
390
F
  0
LAYER
  5
20D
100
AcDbSymbolTableRecord
100
AcDbLayerTableRecord
  2
20_DATUM_KINEMATIC_SCHEME
 70
0
 62
7
  6
CONTINUOUS
370
-3
390
F
  0
ENDTAB
  0
TABLE
  2
STYLE
  5
3
100
AcDbSymbolTable
 70
1
  0
STYLE
  5
11
100
AcDbSymbolTableRecord
100
AcDbTextStyleTableRecord
  2
STANDARD
 70
0
 40
0.0
 41
1.0
 50
0.0
 71
0
 42
0.2
  3
ARIAL.TTF
  4

  0
STYLE
  5
20E
100
AcDbSymbolTableRecord
100
AcDbTextStyleTableRecord
  2
TEXTSTYLE_1
 70
0
 40
0.0
 41
0.8
 50
0.0
 71
0
 42
0.2
  3
gdt
  4

  0
ENDTAB
  0
TABLE
  2
VIEW
  5
6
100
AcDbSymbolTable
 70
0
  0
ENDTAB
  0
TABLE
  2
UCS
  5
7
100
AcDbSymbolTable
 70
0
  0
ENDTAB
  0
TABLE
  2
APPID
  5
9
100
AcDbSymbolTable
 70
1
  0
APPID
  5
20F
100
AcDbSymbolTableRecord
100
AcDbRegAppTableRecord
  2
ACAD
 70
0
  0
ENDTAB
  0
TABLE
  2
BLOCK_RECORD
  5
1
100
AcDbSymbolTable
 70
0
  0
BLOCK_RECORD
  5
210
100
AcDbSymbolTableRecord
100
AcDbBlockTableRecord
  2
*Model_Space
  0
BLOCK_RECORD
  5
211
100
AcDbSymbolTableRecord
100
AcDbBlockTableRecord
  2
*Paper_Space
  0
BLOCK_RECORD
  5
212
100
AcDbSymbolTableRecord
100
AcDbBlockTableRecord
  2
_FILLED
  0
ENDTAB
  0
TABLE
  2
DIMSTYLE
  5
A
100
AcDbSymbolTable
 70
1
100
AcDbDimStyleTable
 71
0
  0
DIMSTYLE
105
213
100
AcDbSymbolTableRecord
100
AcDbDimStyleTableRecord
  2
STANDARD
 70
0
  3

  4

 40
1.0
 41
0.3884661729
 42
1.0
 43
0.38
 44
1.0
 45
0.0
 46
0.0
 47
0.01
 48
0.01
140
0.5438526421
141
0.09
142
0.0
143
25.4
144
1.0
145
0.0
146
1.0
147
0.625
 71
1
 72
0
 73
0
 74
0
 75
0
 76
0
 77
1
 78
8
 79
2
170
0
171
1
172
0
173
0
174
0
175
0
176
0
177
0
178
0
270
2
179
2
271
2
272
2
273
2
274
2
275
0
280
0
281
0
282
0
283
1
284
8
285
0
286
0
287
3
288
0
340
11
278
46
341
212
342
212
343
212
344
212
  0
ENDTAB
  0
ENDSEC
  0
SECTION
  2
BLOCKS
  0
BLOCK
  5
20
100
AcDbEntity
  8
0
100
AcDbBlockBegin
  2
*Model_Space
 70
0
 10
0.0
 20
0.0
 30
0.0
  3
*Model_Space
  1

  0
ENDBLK
  5
21
100
AcDbEntity
  8
0
100
AcDbBlockEnd
  0
BLOCK
  5
1C
100
AcDbEntity
  8
0
100
AcDbBlockBegin
  2
*Paper_Space
 70
0
 10
0.0
 20
0.0
 30
0.0
  3
*Paper_Space
  1

  0
ENDBLK
  5
1D
100
AcDbEntity
  8
0
100
AcDbBlockEnd
  0
BLOCK
  5
214
100
AcDbEntity
  8
0
100
AcDbBlockBegin
  2
_FILLED
 70
64
 10
0.0
 20
0.0
  3
_FILLED
  1

  0
SOLID
  5
215
100
AcDbEntity
  8
0
  6
BYBLOCK
 62
0
100
AcDbTrace
 10
0.0
 20
0.0
 11
-1.0
 21
0.25
 12
-1.0
 22
-0.25
 13
-1.0
 23
-0.25
  0
ENDBLK
  5
216
100
AcDbEntity
  8
0
  6
BYBLOCK
 62
0
100
AcDbBlockEnd
  0
ENDSEC
  0
SECTION
  2
ENTITIES
  0
LINE
  5
217
100
AcDbEntity
  8
0
100
AcDbLine
 62
7
  6
BYLAYER
 10
22.6174742648
 20
3.756377551
 11
10.9174743467
 21
3.756377551
  0
LINE
  5
218
100
AcDbEntity
  8
0
100
AcDbLine
 62
7
  6
BYLAYER
 10
23.1174743057
 20
4.256377551
 11
10.4174743057
 21
4.256377551
  0
LINE
  5
219
100
AcDbEntity
  8
0
100
AcDbLine
 62
7
  6
BYLAYER
 10
10.4174743057
 20
6.256377551
 11
23.1174743057
 21
6.256377551
  0
LINE
  5
21A
100
AcDbEntity
  8
0
100
AcDbLine
 62
7
  6
BYLAYER
 10
22.7674743057
 20
6.356377551
 11
10.7674743057
 21
6.356377551
  0
LINE
  5
21B
100
AcDbEntity
  8
0
100
AcDbLine
 62
7
  6
BYLAYER
 10
12.7674743057
 20
42.506377551
 11
12.1486721522
 21
41.8875753975
  0
LINE
  5
21C
100
AcDbEntity
  8
0
100
AcDbLine
 62
7
  6
BYLAYER
 10
12.7674743057
 20
39.006377551
 11
12.3724743057
 21
38.7783241947
  0
LINE
  5
21D
100
AcDbEntity
  8
0
100
AcDbLine
 62
7
  6
BYLAYER
 10
22.7674743057
 20
7.356377551
 11
10.7674743057
 21
7.356377551
  0
LINE
  5
21E
100
AcDbEntity
  8
0
100
AcDbLine
 62
7
  6
BYLAYER
 10
23.1174743057
 20
7.456377551
 11
10.4174743057
 21
7.456377551
  0
LINE
  5
21F
100
AcDbEntity
  8
0
100
AcDbLine
 62
7
  6
BYLAYER
 10
10.4174743057
 20
8.606377551
 11
23.1174743057
 21
8.606377551
  0
LINE
  5
220
100
AcDbEntity
  8
0
100
AcDbLine
 62
7
  6
BYLAYER
 10
23.4674743057
 20
9.956377551
 11
10.0674743057
 21
9.956377551
  0
LINE
  5
221
100
AcDbEntity
  8
0
100
AcDbLine
 62
7
  6
BYLAYER
 10
24.7674743057
 20
12.056377551
 11
8.7674743057
 21
12.056377551
  0
LINE
  5
222
100
AcDbEntity
  8
0
100
AcDbLine
 62
7
  6
BYLAYER
 10
13.2674743057
 20
35.006377551
 11
12.7674743057
 21
34.506377551
  0
LINE
  5
223
100
AcDbEntity
  8
0
100
AcDbLine
 62
7
  6
BYLAYER
 10
20.7674743057
 20
39.006377551
 11
21.3862764593
 21
39.6251797045
  0
LINE
  5
224
100
AcDbEntity
  8
0
100
AcDbLine
 62
7
  6
BYLAYER
 10
20.7674743057
 20
35.006377551
 11
21.1624743057
 21
35.2344309074
  0
LINE
  5
225
100
AcDbEntity
  8
0
100
AcDbLine
 62
7
  6
BYLAYER
 10
8.7674743057
 20
13.756377551
 11
24.7674743057
 21
13.756377551
  0
LINE
  5
226
100
AcDbEntity
  8
0
100
AcDbLine
 62
7
  6
BYLAYER
 10
9.2674743057
 20
14.256377551
 11
24.2674743057
 21
14.256377551
  0
LINE
  5
227
100
AcDbEntity
  8
0
100
AcDbLine
 62
7
  6
BYLAYER
 10
8.7674743057
 20
13.756377551
 11
8.7674743057
 21
12.056377551
  0
LINE
  5
228
100
AcDbEntity
  8
0
100
AcDbLine
 62
7
  6
BYLAYER
 10
10.0674743057
 20
12.056377551
 11
10.0674743057
 21
9.956377551
  0
LINE
  5
229
100
AcDbEntity
  8
0
100
AcDbLine
 62
7
  6
BYLAYER
 10
10.4174743057
 20
8.606377551
 11
10.4174743057
 21
7.456377551
  0
LINE
  5
22A
100
AcDbEntity
  8
0
100
AcDbLine
 62
7
  6
BYLAYER
 10
10.4174743057
 20
6.256377551
 11
10.4174743057
 21
4.256377551
  0
LINE
  5
22B
100
AcDbEntity
  8
0
100
AcDbLine
 62
7
  6
BYLAYER
 10
10.5674743057
 20
21.956377551
 11
10.5674743057
 21
14.256377551
  0
LINE
  5
22C
100
AcDbEntity
  8
0
100
AcDbLine
 62
7
  6
BYLAYER
 10
11.1674743057
 20
7.456377551
 11
11.1674743057
 21
7.356377551
  0
LINE
  5
22D
100
AcDbEntity
  8
0
100
AcDbLine
 62
7
  6
BYLAYER
 10
11.1674743057
 20
6.356377551
 11
11.1674743057
 21
6.256377551
  0
LINE
  5
22E
100
AcDbEntity
  8
0
100
AcDbLine
 62
7
  6
BYLAYER
 10
11.2674743057
 20
9.956377551
 11
11.2674743057
 21
8.606377551
  0
LINE
  5
22F
100
AcDbEntity
  8
0
100
AcDbLine
 62
7
  6
BYLAYER
 10
12.1486721522
 20
41.8875753975
 11
12.1486721522
 21
39.6251797045
  0
LINE
  5
230
100
AcDbEntity
  8
0
100
AcDbLine
 62
7
  6
BYLAYER
 10
12.3724743057
 20
38.7783241947
 11
12.3724743057
 21
35.2344309074
  0
LINE
  5
231
100
AcDbEntity
  8
0
100
AcDbLine
 62
7
  6
BYLAYER
 10
12.7674743057
 20
34.506377551
 11
12.7674743057
 21
22.956377551
  0
LINE
  5
232
100
AcDbEntity
  8
0
100
AcDbLine
 62
7
  6
BYLAYER
 10
10.5674743057
 20
21.956377551
 11
11.5674743057
 21
22.956377551
  0
LINE
  5
233
100
AcDbEntity
  8
0
100
AcDbLine
 62
7
  6
BYLAYER
 10
14.458073229
 20
41.8875753975
 11
14.458073229
 21
39.6251797045
  0
LINE
  5
234
100
AcDbEntity
  8
0
100
AcDbLine
 62
7
  6
BYLAYER
 10
14.5017594502
 20
38.6616332031
 11
14.5017594502
 21
35.351121899
  0
LINE
  5
235
100
AcDbEntity
  8
0
100
AcDbLine
 62
7
  6
BYLAYER
 10
14.8309826326
 20
28.606377551
 11
14.8309826326
 21
34.506377551
  0
LINE
  5
236
100
AcDbEntity
  8
0
100
AcDbLine
 62
7
  6
BYLAYER
 10
10.5674743057
 20
21.956377551
 11
22.9674743057
 21
21.956377551
  0
LINE
  5
237
100
AcDbEntity
  8
0
100
AcDbLine
 62
7
  6
BYLAYER
 10
11.5674743057
 20
22.956377551
 11
21.9674743057
 21
22.956377551
  0
LINE
  5
238
100
AcDbEntity
  8
0
100
AcDbLine
 62
7
  6
BYLAYER
 10
24.7674743057
 20
13.756377551
 11
24.2674743057
 21
14.256377551
  0
LINE
  5
239
100
AcDbEntity
  8
0
100
AcDbLine
 62
7
  6
BYLAYER
 10
8.7674743057
 20
13.756377551
 11
9.2674743057
 21
14.256377551
  0
LINE
  5
23A
100
AcDbEntity
  8
0
100
AcDbLine
 62
7
  6
BYLAYER
 10
18.7039659788
 20
34.506377551
 11
18.7039659788
 21
28.606377551
  0
LINE
  5
23B
100
AcDbEntity
  8
0
100
AcDbLine
 62
7
  6
BYLAYER
 10
19.0331891613
 20
38.6616332031
 11
19.0331891613
 21
35.351121899
  0
LINE
  5
23C
100
AcDbEntity
  8
0
100
AcDbLine
 62
7
  6
BYLAYER
 10
19.0768753825
 20
41.8875753975
 11
19.0768753825
 21
39.6251797045
  0
LINE
  5
23D
100
AcDbEntity
  8
0
100
AcDbLine
 62
7
  6
BYLAYER
 10
20.7674743057
 20
34.506377551
 11
20.7674743057
 21
22.956377551
  0
LINE
  5
23E
100
AcDbEntity
  8
0
100
AcDbLine
 62
7
  6
BYLAYER
 10
22.9674743057
 20
21.956377551
 11
21.9674743057
 21
22.956377551
  0
LINE
  5
23F
100
AcDbEntity
  8
0
100
AcDbLine
 62
7
  6
BYLAYER
 10
21.1624743057
 20
38.7783241947
 11
21.1624743057
 21
35.2344309074
  0
LINE
  5
240
100
AcDbEntity
  8
0
100
AcDbLine
 62
7
  6
BYLAYER
 10
21.3862764593
 20
41.8875753975
 11
21.3862764593
 21
39.6251797045
  0
LINE
  5
241
100
AcDbEntity
  8
0
100
AcDbLine
 62
7
  6
BYLAYER
 10
22.2674743057
 20
9.956377551
 11
22.2674743057
 21
8.606377551
  0
LINE
  5
242
100
AcDbEntity
  8
0
100
AcDbLine
 62
7
  6
BYLAYER
 10
22.3674743057
 20
7.456377551
 11
22.3674743057
 21
7.356377551
  0
LINE
  5
243
100
AcDbEntity
  8
0
100
AcDbLine
 62
7
  6
BYLAYER
 10
22.3674743057
 20
6.356377551
 11
22.3674743057
 21
6.256377551
  0
LINE
  5
244
100
AcDbEntity
  8
0
100
AcDbLine
 62
7
  6
BYLAYER
 10
14.8309826326
 20
28.606377551
 11
18.7039659788
 21
28.606377551
  0
LINE
  5
245
100
AcDbEntity
  8
0
100
AcDbLine
 62
7
  6
BYLAYER
 10
22.9674743057
 20
21.956377551
 11
22.9674743057
 21
14.256377551
  0
LINE
  5
246
100
AcDbEntity
  8
0
100
AcDbLine
 62
7
  6
BYLAYER
 10
23.1174743057
 20
8.606377551
 11
23.1174743057
 21
7.456377551
  0
LINE
  5
247
100
AcDbEntity
  8
0
100
AcDbLine
 62
7
  6
BYLAYER
 10
23.1174743057
 20
6.256377551
 11
23.1174743057
 21
4.256377551
  0
LINE
  5
248
100
AcDbEntity
  8
0
100
AcDbLine
 62
7
  6
BYLAYER
 10
23.4674743057
 20
12.056377551
 11
23.4674743057
 21
9.956377551
  0
LINE
  5
249
100
AcDbEntity
  8
0
100
AcDbLine
 62
7
  6
BYLAYER
 10
24.7674743057
 20
13.756377551
 11
24.7674743057
 21
12.056377551
  0
LINE
  5
24A
100
AcDbEntity
  8
0
100
AcDbLine
 62
7
  6
BYLAYER
 10
12.7674743057
 20
35.006377551
 11
12.3724743057
 21
35.2344309074
  0
LINE
  5
24B
100
AcDbEntity
  8
0
100
AcDbLine
 62
7
  6
BYLAYER
 10
12.7674743057
 20
39.006377551
 11
12.1486721522
 21
39.6251797045
  0
LINE
  5
24C
100
AcDbEntity
  8
0
100
AcDbLine
 62
7
  6
BYLAYER
 10
20.7674743057
 20
34.506377551
 11
20.2674743057
 21
35.006377551
  0
LINE
  5
24D
100
AcDbEntity
  8
0
100
AcDbLine
 62
7
  6
BYLAYER
 10
12.7674743057
 20
34.506377551
 11
14.8309826326
 21
34.506377551
  0
LINE
  5
24E
100
AcDbEntity
  8
0
100
AcDbLine
 62
7
  6
BYLAYER
 10
18.7039659788
 20
34.506377551
 11
20.7674743057
 21
34.506377551
  0
LINE
  5
24F
100
AcDbEntity
  8
0
100
AcDbLine
 62
7
  6
BYLAYER
 10
20.7674735066
 20
35.006377551
 11
12.7674751048
 21
35.006377551
  0
LINE
  5
250
100
AcDbEntity
  8
0
100
AcDbLine
 62
7
  6
BYLAYER
 10
20.7674251058
 20
39.006377551
 11
12.7675235057
 21
39.006377551
  0
LINE
  5
251
100
AcDbEntity
  8
0
100
AcDbLine
 62
7
  6
BYLAYER
 10
20.7674743057
 20
39.006377551
 11
21.1624743057
 21
38.7783241947
  0
LINE
  5
252
100
AcDbEntity
  8
0
100
AcDbLine
 62
7
  6
BYLAYER
 10
20.7674743057
 20
42.506377551
 11
21.3862764593
 21
41.8875753975
  0
LINE
  5
253
100
AcDbEntity
  8
0
100
AcDbLine
 62
7
  6
BYLAYER
 10
12.7675235057
 20
42.506377551
 11
20.7674251058
 21
42.506377551
  0
ARC
  5
254
100
AcDbEntity
  8
0
100
AcDbCircle
 62
7
  6
BYLAYER
 10
20.0865138279
 20
37.1289006227
 40
1.960155929
100
AcDbArc
 50
70.0726725104
 51
73.2995408573
  0
ARC
  5
255
100
AcDbEntity
  8
0
100
AcDbCircle
 62
7
  6
BYLAYER
 10
20.0865161225
 20
36.8838005403
 40
1.9601036057
100
AcDbArc
 50
286.7008479873
 51
289.9341406493
  0
ARC
  5
256
100
AcDbEntity
  8
0
100
AcDbCircle
 62
7
  6
BYLAYER
 10
13.4379805372
 20
37.1604766924
 40
1.9269077429
100
AcDbArc
 50
106.6725285608
 51
109.9533048108
  0
ARC
  5
257
100
AcDbEntity
  8
0
100
AcDbCircle
 62
7
  6
BYLAYER
 10
22.7674743057
 20
6.856377551
 40
0.5
100
AcDbArc
 50
270.0
 51
90.0
  0
ARC
  5
258
100
AcDbEntity
  8
0
100
AcDbCircle
 62
7
  6
BYLAYER
 10
10.7674743057
 20
6.856377551
 40
0.5
100
AcDbArc
 50
90.0
 51
270.0
  0
ARC
  5
259
100
AcDbEntity
  8
0
100
AcDbCircle
 62
7
  6
BYLAYER
 10
22.6174743057
 20
4.256377551
 40
0.5
100
AcDbArc
 50
269.9999953083
 51
360.0
  0
ARC
  5
25A
100
AcDbEntity
  8
0
100
AcDbCircle
 62
7
  6
BYLAYER
 10
10.9174743057
 20
4.256377551
 40
0.5
100
AcDbArc
 50
180.0
 51
270.0000046917
  0
SPLINE
  5
25B
100
AcDbEntity
  8
0
100
AcDbSpline
 62
7
  6
BYLAYER
 70
0
 71
3
 72
9
 73
5
 74
0
 42
0.0000001
 43
0.0000001
 44
0.0000000001
 40
0.0
 40
0.0
 40
0.0
 40
0.0
 40
0.507710356
 40
1.0
 40
1.0
 40
1.0
 40
1.0
 10
21.1624743057
 20
38.7783241947
 30
0.0
 10
21.0962519162
 20
38.8165577091
 30
0.0
 10
20.9631714535
 20
38.8874166007
 30
0.0
 10
20.8243010831
 20
38.9464398978
 30
0.0
 10
20.7545898259
 20
38.9716935375
 30
0.0
  0
SPLINE
  5
25C
100
AcDbEntity
  8
0
100
AcDbSpline
 62
7
  6
BYLAYER
 70
0
 71
3
 72
13
 73
9
 74
0
 42
0.0000001
 43
0.0000001
 44
0.0000000001
 40
0.0
 40
0.0
 40
0.0
 40
0.0
 40
0.1250056686
 40
0.2500200955
 40
0.3750283563
 40
0.5000352465
 40
0.7500134899
 40
1.0
 40
1.0
 40
1.0
 40
1.0
 10
16.7674743057
 20
39.006377551
 30
0.0
 10
16.8632739056
 20
39.006377551
 30
0.0
 10
17.0549033104
 20
39.0023895275
 30
0.0
 10
17.3418349366
 20
38.984608107
 30
0.0
 10
17.6278307913
 20
38.9553931721
 30
0.0
 10
18.007347485
 20
38.9020014898
 30
0.0
 10
18.4777696635
 20
38.8100186282
 30
0.0
 10
18.8489236954
 20
38.714066025
 30
0.0
 10
19.0331891613
 20
38.6616332031
 30
0.0
  0
SPLINE
  5
25D
100
AcDbEntity
  8
0
100
AcDbSpline
 62
7
  6
BYLAYER
 70
0
 71
3
 72
13
 73
9
 74
0
 42
0.0000001
 43
0.0000001
 44
0.0000000001
 40
0.0
 40
0.0
 40
0.0
 40
0.0
 40
0.2499866451
 40
0.4999648172
 40
0.6249716927
 40
0.7499799723
 40
0.874994359
 40
1.0
 40
1.0
 40
1.0
 40
1.0
 10
14.5017594502
 20
38.6616332031
 30
0.0
 10
14.6860250178
 20
38.7140660539
 30
0.0
 10
15.0571788636
 20
38.8100196169
 30
0.0
 10
15.5276012633
 20
38.9020017196
 30
0.0
 10
15.9071179555
 20
38.9553930292
 30
0.0
 10
16.1931137926
 20
38.9846078622
 30
0.0
 10
16.4800453682
 20
39.0023895352
 30
0.0
 10
16.6716747259
 20
39.006377551
 30
0.0
 10
16.7674743057
 20
39.006377551
 30
0.0
  0
SPLINE
  5
25E
100
AcDbEntity
  8
0
100
AcDbSpline
 62
7
  6
BYLAYER
 70
0
 71
3
 72
10
 73
6
 74
0
 42
0.0000001
 43
0.0000001
 44
0.0000000001
 40
0.0
 40
0.0
 40
0.0
 40
0.0
 40
0.4902928676
 40
0.7427000506
 40
1.0
 40
1.0
 40
1.0
 40
1.0
 10
12.8851483116
 20
35.006377551
 30
0.0
 10
12.7971318254
 20
35.0327143476
 30
0.0
 10
12.6666517478
 20
35.08261026
 30
0.0
 10
12.4980058827
 20
35.1643536401
 30
0.0
 10
12.4142284495
 20
35.2103241412
 30
0.0
 10
12.3724743057
 20
35.2344309074
 30
0.0
  0
SPLINE
  5
25F
100
AcDbEntity
  8
0
100
AcDbSpline
 62
7
  6
BYLAYER
 70
0
 71
3
 72
11
 73
7
 74
0
 42
0.0000001
 43
0.0000001
 44
0.0000000001
 40
0.0
 40
0.0
 40
0.0
 40
0.0
 40
0.2597298361
 40
0.5130222872
 40
0.7596898059
 40
1.0
 40
1.0
 40
1.0
 40
1.0
 10
14.5017594502
 20
35.351121899
 30
0.0
 10
14.4450953706
 20
35.3137710291
 30
0.0
 10
14.3313821856
 20
35.2426477342
 30
0.0
 10
14.1570357599
 20
35.1474457584
 30
0.0
 10
13.9808797472
 20
35.0670968193
 30
0.0
 10
13.8607808585
 20
35.0243781097
 30
0.0
 10
13.8006237352
 20
35.006377551
 30
0.0
  0
SPLINE
  5
260
100
AcDbEntity
  8
0
100
AcDbSpline
 62
7
  6
BYLAYER
 70
0
 71
3
 72
13
 73
9
 74
0
 42
0.0000001
 43
0.0000001
 44
0.0000000001
 40
0.0
 40
0.0
 40
0.0
 40
0.0
 40
0.1250056572
 40
0.2500200829
 40
0.3750283732
 40
0.5000352431
 40
0.7500133944
 40
1.0
 40
1.0
 40
1.0
 40
1.0
 10
16.7674743056
 20
35.006377551
 30
0.0
 10
16.6716747135
 20
35.006377551
 30
0.0
 10
16.4800453151
 20
35.0103656064
 30
0.0
 10
16.1931136856
 20
35.0281472224
 30
0.0
 10
15.9071178223
 20
35.0573621297
 30
0.0
 10
15.527601136
 20
35.1107533863
 30
0.0
 10
15.0571787995
 20
35.2027355519
 30
0.0
 10
14.6860249885
 20
35.2986890564
 30
0.0
 10
14.5017594502
 20
35.351121899
 30
0.0
  0
SPLINE
  5
261
100
AcDbEntity
  8
0
100
AcDbSpline
 62
7
  6
BYLAYER
 70
0
 71
3
 72
13
 73
9
 74
0
 42
0.0000001
 43
0.0000001
 44
0.0000000001
 40
0.0
 40
0.0
 40
0.0
 40
0.0
 40
0.2499865419
 40
0.4999648058
 40
0.6249717017
 40
0.7499799533
 40
0.8749943459
 40
1.0
 40
1.0
 40
1.0
 40
1.0
 10
19.0331891613
 20
35.351121899
 30
0.0
 10
18.8489236718
 20
35.2986890703
 30
0.0
 10
18.4777696005
 20
35.2027364547
 30
0.0
 10
18.0073473756
 20
35.1107536068
 30
0.0
 10
17.6278306744
 20
35.0573618754
 30
0.0
 10
17.3418348418
 20
35.0281470104
 30
0.0
 10
17.0549032632
 20
35.0103655413
 30
0.0
 10
16.8632738944
 20
35.006377551
 30
0.0
 10
16.7674743056
 20
35.006377551
 30
0.0
  0
SPLINE
  5
262
100
AcDbEntity
  8
0
100
AcDbSpline
 62
7
  6
BYLAYER
 70
0
 71
3
 72
11
 73
7
 74
0
 42
0.0000001
 43
0.0000001
 44
0.0000000001
 40
0.0
 40
0.0
 40
0.0
 40
0.0
 40
0.240310225
 40
0.486977796
 40
0.7402702188
 40
1.0
 40
1.0
 40
1.0
 40
1.0
 10
19.7343248763
 20
35.006377551
 30
0.0
 10
19.6741677453
 20
35.024378112
 30
0.0
 10
19.5540688356
 20
35.0670968252
 30
0.0
 10
19.3779128061
 20
35.1474457657
 30
0.0
 10
19.2035664215
 20
35.2426477972
 30
0.0
 10
19.0898532288
 20
35.313771037
 30
0.0
 10
19.0331891613
 20
35.351121899
 30
0.0
  0
SPLINE
  5
263
100
AcDbEntity
  8
0
100
AcDbSpline
 62
7
  6
BYLAYER
 70
0
 71
3
 72
9
 73
5
 74
0
 42
0.0000001
 43
0.0000001
 44
0.0000000001
 40
0.0
 40
0.0
 40
0.0
 40
0.0
 40
0.5077111145
 40
1.0
 40
1.0
 40
1.0
 40
1.0
 10
21.1624743057
 20
35.2344309074
 30
0.0
 10
21.0962835513
 20
35.1962156575
 30
0.0
 10
20.9632697667
 20
35.1253852335
 30
0.0
 10
20.824468205
 20
35.0663858993
 30
0.0
 10
20.7547934071
 20
35.0411362692
 30
0.0
  0
SPLINE
  5
264
100
AcDbEntity
  8
0
100
AcDbSpline
 62
7
  6
BYLAYER
 70
0
 71
3
 72
11
 73
7
 74
0
 42
0.0000001
 43
0.0000001
 44
0.0000000001
 40
0.0
 40
0.0
 40
0.0
 40
0.0
 40
0.2403072472
 40
0.4869697472
 40
0.7402632781
 40
1.0
 40
1.0
 40
1.0
 40
1.0
 10
19.7343248763
 20
39.006377551
 30
0.0
 10
19.6741684967
 20
38.9883772149
 30
0.0
 10
19.5540701655
 20
38.9456629676
 30
0.0
 10
19.3779183171
 20
38.8653088929
 30
0.0
 10
19.2035711878
 20
38.7701071436
 30
0.0
 10
19.0898547374
 20
38.6989850595
 30
0.0
 10
19.0331891613
 20
38.6616332031
 30
0.0
  0
SPLINE
  5
265
100
AcDbEntity
  8
0
100
AcDbSpline
 62
7
  6
BYLAYER
 70
0
 71
3
 72
9
 73
5
 74
0
 42
0.0000001
 43
0.0000001
 44
0.0000000001
 40
0.0
 40
0.0
 40
0.0
 40
0.0
 40
0.4922899553
 40
1.0
 40
1.0
 40
1.0
 40
1.0
 10
12.7804151873
 20
38.9717141865
 30
0.0
 10
12.710693815
 20
38.9464594296
 30
0.0
 10
12.5718041599
 20
38.887429991
 30
0.0
 10
12.4387054469
 20
38.8165627619
 30
0.0
 10
12.3724743057
 20
38.7783241947
 30
0.0
  0
SPLINE
  5
266
100
AcDbEntity
  8
0
100
AcDbSpline
 62
7
  6
BYLAYER
 70
0
 71
3
 72
11
 73
7
 74
0
 42
0.0000001
 43
0.0000001
 44
0.0000000001
 40
0.0
 40
0.0
 40
0.0
 40
0.0
 40
0.2597368246
 40
0.5130303958
 40
0.7596928729
 40
1.0
 40
1.0
 40
1.0
 40
1.0
 10
14.5017594502
 20
38.6616332031
 30
0.0
 10
14.4450938516
 20
38.6989850742
 30
0.0
 10
14.3313773677
 20
38.7701071753
 30
0.0
 10
14.1570302105
 20
38.8653089392
 30
0.0
 10
13.980878381
 20
38.9456629909
 30
0.0
 10
13.8607800848
 20
38.9883772239
 30
0.0
 10
13.8006237352
 20
39.006377551
 30
0.0
  0
SPLINE
  5
267
100
AcDbEntity
  8
0
100
AcDbSpline
 62
7
  6
BYLAYER
 70
0
 71
3
 72
16
 73
12
 74
0
 42
0.0000001
 43
0.0000001
 44
0.0000000001
 40
0.0
 40
0.0
 40
0.0
 40
0.0
 40
0.1399841705
 40
0.275827302
 40
0.407152105
 40
0.5337306398
 40
0.6555999573
 40
0.7731963324
 40
0.8307061877
 40
0.8875579267
 40
1.0
 40
1.0
 40
1.0
 40
1.0
 10
21.3862764593
 20
39.6251797045
 30
0.0
 10
21.3419364683
 20
39.5808397135
 30
0.0
 10
21.2526818576
 20
39.4953204067
 30
0.0
 10
21.1144035308
 20
39.3762411089
 30
0.0
 10
20.9734842116
 20
39.2699200247
 30
0.0
 10
20.8298170053
 20
39.1784084263
 30
0.0
 10
20.6834641343
 20
39.1038267928
 30
0.0
 10
20.5584283453
 20
39.0573103508
 30
0.0
 10
20.4578334678
 20
39.0309692405
 30
0.0
 10
20.3579266859
 20
39.012200237
 30
0.0
 10
20.281944591
 20
39.0063775507
 30
0.0
 10
20.2315759173
 20
39.0063775508
 30
0.0
  0
SPLINE
  5
268
100
AcDbEntity
  8
0
100
AcDbSpline
 62
7
  6
BYLAYER
 70
0
 71
3
 72
16
 73
12
 74
0
 42
0.0000001
 43
0.0000001
 44
0.0000000001
 40
0.0
 40
0.0
 40
0.0
 40
0.0
 40
0.1124424502
 40
0.1692946137
 40
0.2268047698
 40
0.344401479
 40
0.4662704981
 40
0.5928490298
 40
0.7241735887
 40
0.8600163323
 40
1.0
 40
1.0
 40
1.0
 40
1.0
 10
20.2315759195
 20
42.506377551
 30
0.0
 10
20.2819447633
 20
42.5063775511
 30
0.0
 10
20.3579271331
 20
42.5005541206
 30
0.0
 10
20.4578345588
 20
42.4817859417
 30
0.0
 10
20.5584299095
 20
42.4554446213
 30
0.0
 10
20.6834655109
 20
42.4089273258
 30
0.0
 10
20.829818768
 20
42.3343464571
 30
0.0
 10
20.9734855188
 20
42.2428345049
 30
0.0
 10
21.1144041792
 20
42.1365130374
 30
0.0
 10
21.2526820126
 20
42.0174339633
 30
0.0
 10
21.3419366264
 20
41.9319152304
 30
0.0
 10
21.3862764593
 20
41.8875753975
 30
0.0
  0
SPLINE
  5
269
100
AcDbEntity
  8
0
100
AcDbSpline
 62
7
  6
BYLAYER
 70
0
 71
3
 72
16
 73
12
 74
0
 42
0.0000001
 43
0.0000001
 44
0.0000000001
 40
0.0
 40
0.0
 40
0.0
 40
0.0
 40
0.1399841182
 40
0.2758272009
 40
0.4071520016
 40
0.5337305899
 40
0.6555999599
 40
0.773196352
 40
0.8307062055
 40
0.8875579361
 40
1.0
 40
1.0
 40
1.0
 40
1.0
 10
12.1486721522
 20
41.8875753975
 30
0.0
 10
12.1930121246
 20
41.9319153699
 30
0.0
 10
12.2822667455
 20
42.0174345944
 30
0.0
 10
12.4205450904
 20
42.1365137851
 30
0.0
 10
12.5614644122
 20
42.2428348526
 30
0.0
 10
12.7051316326
 20
42.3343464953
 30
0.0
 10
12.8514844923
 20
42.4089282578
 30
0.0
 10
12.9765203033
 20
42.4554447176
 30
0.0
 10
13.0771151735
 20
42.4817858454
 30
0.0
 10
13.1770219363
 20
42.5005548814
 30
0.0
 10
13.2530040221
 20
42.506377551
 30
0.0
 10
13.3033726893
 20
42.506377551
 30
0.0
  0
SPLINE
  5
26A
100
AcDbEntity
  8
0
100
AcDbSpline
 62
7
  6
BYLAYER
 70
0
 71
3
 72
16
 73
12
 74
0
 42
0.0000001
 43
0.0000001
 44
0.0000000001
 40
0.0
 40
0.0
 40
0.0
 40
0.0
 40
0.1124424404
 40
0.1692945951
 40
0.2268047497
 40
0.3444014776
 40
0.4662705477
 40
0.5928491311
 40
0.7241736876
 40
0.860016384
 40
1.0
 40
1.0
 40
1.0
 40
1.0
 10
13.3033726874
 20
39.0063775508
 30
0.0
 10
13.2530038501
 20
39.006377551
 30
0.0
 10
13.1770214893
 20
39.0122009585
 30
0.0
 10
13.0771140817
 20
39.030969166
 30
0.0
 10
12.976518739
 20
39.057310511
 30
0.0
 10
12.8514831188
 20
39.1038278327
 30
0.0
 10
12.7051298698
 20
39.1784088228
 30
0.0
 10
12.5614631029
 20
39.2699208143
 30
0.0
 10
12.4205444403
 20
39.3762422664
 30
0.0
 10
12.282266591
 20
39.4953212379
 30
0.0
 10
12.1930119668
 20
39.5808398899
 30
0.0
 10
12.1486721522
 20
39.6251797045
 30
0.0
  0
SPLINE
  5
26B
100
AcDbEntity
  8
0
100
AcDbSpline
 62
7
  6
BYLAYER
 70
0
 71
3
 72
13
 73
9
 74
0
 42
0.0000001
 43
0.0000001
 44
0.0000000001
 40
0.0
 40
0.0
 40
0.0
 40
0.0
 40
0.2499720143
 40
0.4999126281
 40
0.624929376
 40
0.7499522992
 40
0.8749873624
 40
1.0
 40
1.0
 40
1.0
 40
1.0
 10
14.458073229
 20
41.8875753975
 30
0.0
 10
14.6378579794
 20
41.9774677727
 30
0.0
 10
15.0038390272
 20
42.1448399647
 30
0.0
 10
15.4790902813
 20
42.3112401533
 30
0.0
 10
15.8690369956
 20
42.4100885902
 30
0.0
 10
16.1658489156
 20
42.4649734279
 30
0.0
 10
16.4658031462
 20
42.4987542538
 30
0.0
 10
16.666950161
 20
42.5063775511
 30
0.0
 10
16.7674743057
 20
42.506377551
 30
0.0
  0
SPLINE
  5
26C
100
AcDbEntity
  8
0
100
AcDbSpline
 62
7
  6
BYLAYER
 70
0
 71
3
 72
16
 73
12
 74
0
 42
0.0000001
 43
0.0000001
 44
0.0000000001
 40
0.0
 40
0.0
 40
0.0
 40
0.0
 40
0.1124424502
 40
0.1692946137
 40
0.2268047698
 40
0.344401479
 40
0.4662704981
 40
0.5928490298
 40
0.7241735887
 40
0.8600163323
 40
1.0
 40
1.0
 40
1.0
 40
1.0
 10
13.3033726893
 20
42.506377551
 30
0.0
 10
13.3537415331
 20
42.5063775511
 30
0.0
 10
13.429723903
 20
42.5005541205
 30
0.0
 10
13.5296313286
 20
42.4817859417
 30
0.0
 10
13.6302266793
 20
42.4554446213
 30
0.0
 10
13.7552622807
 20
42.4089273258
 30
0.0
 10
13.9016155378
 20
42.3343464571
 30
0.0
 10
14.0452822885
 20
42.2428345049
 30
0.0
 10
14.186200949
 20
42.1365130373
 30
0.0
 10
14.3244787823
 20
42.0174339633
 30
0.0
 10
14.4137333961
 20
41.9319152304
 30
0.0
 10
14.458073229
 20
41.8875753975
 30
0.0
  0
SPLINE
  5
26D
100
AcDbEntity
  8
0
100
AcDbSpline
 62
7
  6
BYLAYER
 70
0
 71
3
 72
16
 73
12
 74
0
 42
0.0000001
 43
0.0000001
 44
0.0000000001
 40
0.0
 40
0.0
 40
0.0
 40
0.0
 40
0.1399841705
 40
0.275827302
 40
0.407152105
 40
0.5337306398
 40
0.6555999573
 40
0.7731963324
 40
0.8307061877
 40
0.8875579267
 40
1.0
 40
1.0
 40
1.0
 40
1.0
 10
14.458073229
 20
39.6251797045
 30
0.0
 10
14.413733238
 20
39.5808397135
 30
0.0
 10
14.3244786273
 20
39.4953204068
 30
0.0
 10
14.1862003006
 20
39.3762411089
 30
0.0
 10
14.0452809814
 20
39.2699200248
 30
0.0
 10
13.9016137751
 20
39.1784084264
 30
0.0
 10
13.7552609042
 20
39.1038267929
 30
0.0
 10
13.6302251152
 20
39.0573103509
 30
0.0
 10
13.5296302378
 20
39.0309692406
 30
0.0
 10
13.4297234559
 20
39.0122002371
 30
0.0
 10
13.3537413611
 20
39.0063775507
 30
0.0
 10
13.3033726874
 20
39.0063775508
 30
0.0
  0
SPLINE
  5
26E
100
AcDbEntity
  8
0
100
AcDbSpline
 62
7
  6
BYLAYER
 70
0
 71
3
 72
13
 73
9
 74
0
 42
0.0000001
 43
0.0000001
 44
0.0000000001
 40
0.0
 40
0.0
 40
0.0
 40
0.0
 40
0.1250130275
 40
0.250048898
 40
0.3750720526
 40
0.5000885859
 40
0.7500286835
 40
1.0
 40
1.0
 40
1.0
 40
1.0
 10
16.7674743057
 20
39.006377551
 30
0.0
 10
16.6669498471
 20
39.0063775509
 30
0.0
 10
16.4658019179
 20
39.0140015919
 30
0.0
 10
16.1658463976
 20
39.0477813566
 30
0.0
 10
15.8690340667
 20
39.1026676533
 30
0.0
 10
15.4790874232
 20
39.2015146811
 30
0.0
 10
15.0038379036
 20
39.3679165446
 30
0.0
 10
14.6378574782
 20
39.5352875799
 30
0.0
 10
14.458073229
 20
39.6251797045
 30
0.0
  0
SPLINE
  5
26F
100
AcDbEntity
  8
0
100
AcDbSpline
 62
7
  6
BYLAYER
 70
0
 71
3
 72
16
 73
12
 74
0
 42
0.0000001
 43
0.0000001
 44
0.0000000001
 40
0.0
 40
0.0
 40
0.0
 40
0.0
 40
0.1399841182
 40
0.2758272009
 40
0.4071520016
 40
0.5337305899
 40
0.6555999599
 40
0.773196352
 40
0.8307062055
 40
0.8875579361
 40
1.0
 40
1.0
 40
1.0
 40
1.0
 10
19.0768753825
 20
41.8875753975
 30
0.0
 10
19.1212153549
 20
41.9319153699
 30
0.0
 10
19.2104699758
 20
42.0174345943
 30
0.0
 10
19.3487483206
 20
42.1365137851
 30
0.0
 10
19.4896676424
 20
42.2428348526
 30
0.0
 10
19.6333348628
 20
42.3343464953
 30
0.0
 10
19.7796877225
 20
42.4089282578
 30
0.0
 10
19.9047235335
 20
42.4554447176
 30
0.0
 10
20.0053184037
 20
42.4817858454
 30
0.0
 10
20.1052251665
 20
42.5005548814
 30
0.0
 10
20.1812072523
 20
42.506377551
 30
0.0
 10
20.2315759195
 20
42.506377551
 30
0.0
  0
SPLINE
  5
270
100
AcDbEntity
  8
0
100
AcDbSpline
 62
7
  6
BYLAYER
 70
0
 71
3
 72
13
 73
9
 74
0
 42
0.0000001
 43
0.0000001
 44
0.0000000001
 40
0.0
 40
0.0
 40
0.0
 40
0.0
 40
0.1250130721
 40
0.2500488847
 40
0.3750718862
 40
0.5000886032
 40
0.7500289722
 40
1.0
 40
1.0
 40
1.0
 40
1.0
 10
16.7674743057
 20
42.506377551
 30
0.0
 10
16.8679987917
 20
42.5063775511
 30
0.0
 10
17.069146691
 20
42.4987536313
 30
0.0
 10
17.3691020923
 20
42.4649741142
 30
0.0
 10
17.6659142494
 20
42.4100869767
 30
0.0
 10
18.0558606294
 20
42.3112382041
 30
0.0
 10
18.531110833
 20
42.1448382877
 30
0.0
 10
18.8970913562
 20
41.9774674107
 30
0.0
 10
19.0768753825
 20
41.8875753975
 30
0.0
  0
SPLINE
  5
271
100
AcDbEntity
  8
0
100
AcDbSpline
 62
7
  6
BYLAYER
 70
0
 71
3
 72
13
 73
9
 74
0
 42
0.0000001
 43
0.0000001
 44
0.0000000001
 40
0.0
 40
0.0
 40
0.0
 40
0.0
 40
0.2499716815
 40
0.4999125338
 40
0.6249294545
 40
0.7499522425
 40
0.8749872958
 40
1.0
 40
1.0
 40
1.0
 40
1.0
 10
19.0768753825
 20
39.6251797045
 30
0.0
 10
18.8970908858
 20
39.5352874562
 30
0.0
 10
18.5311097646
 20
39.3679155219
 30
0.0
 10
18.0558579469
 20
39.2015171516
 30
0.0
 10
17.665911522
 20
39.1026669412
 30
0.0
 10
17.3690997303
 20
39.0477812422
 30
0.0
 10
17.0691455345
 20
39.0140007771
 30
0.0
 10
16.8679984959
 20
39.0063775509
 30
0.0
 10
16.7674743057
 20
39.006377551
 30
0.0
  0
SPLINE
  5
272
100
AcDbEntity
  8
0
100
AcDbSpline
 62
7
  6
BYLAYER
 70
0
 71
3
 72
16
 73
12
 74
0
 42
0.0000001
 43
0.0000001
 44
0.0000000001
 40
0.0
 40
0.0
 40
0.0
 40
0.0
 40
0.1124424404
 40
0.1692945951
 40
0.2268047497
 40
0.3444014776
 40
0.4662705477
 40
0.5928491311
 40
0.7241736876
 40
0.860016384
 40
1.0
 40
1.0
 40
1.0
 40
1.0
 10
20.2315759173
 20
39.0063775508
 30
0.0
 10
20.1812070801
 20
39.006377551
 30
0.0
 10
20.1052247193
 20
39.0122009585
 30
0.0
 10
20.0053173118
 20
39.030969166
 30
0.0
 10
19.904721969
 20
39.0573105111
 30
0.0
 10
19.7796863489
 20
39.1038278328
 30
0.0
 10
19.6333331
 20
39.1784088228
 30
0.0
 10
19.489666333
 20
39.2699208143
 30
0.0
 10
19.3487476705
 20
39.3762422665
 30
0.0
 10
19.2104698212
 20
39.4953212379
 30
0.0
 10
19.1212151971
 20
39.5808398899
 30
0.0
 10
19.0768753825
 20
39.6251797045
 30
0.0
  0
SPLINE
  5
273
100
AcDbEntity
  8
0
100
AcDbSpline
 62
7
  6
BYLAYER
 70
0
 71
3
 72
13
 73
9
 74
0
 42
0.0000001
 43
0.0000001
 44
0.0000000001
 40
0.0
 40
0.0
 40
0.0
 40
0.0
 40
0.2499890626
 40
0.4999417956
 40
0.6249578813
 40
0.7499730364
 40
0.8749862946
 40
1.0
 40
1.0
 40
1.0
 40
1.0
 10
14.8309826326
 20
34.506377551
 30
0.0
 10
14.9822600634
 20
34.5796144223
 30
0.0
 10
15.2900735109
 20
34.7155681803
 30
0.0
 10
15.689071001
 20
34.8498817212
 30
0.0
 10
16.0158967227
 20
34.9293065276
 30
0.0
 10
16.2643719996
 20
34.9732889546
 30
0.0
 10
16.5152644788
 20
35.0003013101
 30
0.0
 10
16.6834249637
 20
35.006377551
 30
0.0
 10
16.7674743057
 20
35.006377551
 30
0.0
  0
SPLINE
  5
274
100
AcDbEntity
  8
0
100
AcDbSpline
 62
7
  6
BYLAYER
 70
0
 71
3
 72
13
 73
9
 74
0
 42
0.0000001
 43
0.0000001
 44
0.0000000001
 40
0.0
 40
0.0
 40
0.0
 40
0.0
 40
0.1250137066
 40
0.2500269659
 40
0.3750421213
 40
0.5000582071
 40
0.7500109388
 40
1.0
 40
1.0
 40
1.0
 40
1.0
 10
16.7674743057
 20
35.006377551
 30
0.0
 10
16.8515236486
 20
35.006377551
 30
0.0
 10
17.019684135
 20
35.00030131
 30
0.0
 10
17.270576616
 20
34.9732889543
 30
0.0
 10
17.5190518939
 20
34.9293065266
 30
0.0
 10
17.8458776149
 20
34.84988172
 30
0.0
 10
18.2448751031
 20
34.7155681791
 30
0.0
 10
18.552688549
 20
34.5796144218
 30
0.0
 10
18.7039659788
 20
34.506377551
 30
0.0
  0
ENDSEC
  0
SECTION
  2
OBJECTS
  0
DICTIONARY
  5
C
100
AcDbDictionary
280
0
281
1
  3
ACAD_GROUP
350
D
  3
ACAD_MLINESTYLE
350
17
  3
ACAD_LAYOUT
350
1A
  3
ACAD_PLOTSETTINGS
350
19
  3
ACAD_PLOTSTYLENAME
350
E
  0
DICTIONARY
  5
D
102
{ACAD_REACTORS
330
C
102
}
100
AcDbDictionary
280
0
281
1
  0
ACDBDICTIONARYWDFLT
  5
E
102
{ACAD_REACTORS
330
C
102
}
100
AcDbDictionary
281
1
  3
Normal
350
F
100
AcDbDictionaryWithDefault
340
F
  0
DICTIONARY
  5
17
102
{ACAD_REACTORS
330
C
102
}
100
AcDbDictionary
280
0
281
1
  3
Standard
350
18
  0
DICTIONARY
  5
19
102
{ACAD_REACTORS
330
C
102
}
100
AcDbDictionary
281
1
  0
DICTIONARY
  5
1A
102
{ACAD_REACTORS
330
C
102
}
100
AcDbDictionary
281
1
  3
Model
350
275
  3
Layout1
350
276
  0
ACDBPLACEHOLDER
  5
F
102
{ACAD_REACTORS
330
E
102
}
  0
MLINESTYLE
  5
18
102
{ACAD_REACTORS
330
17
102
}
100
AcDbMlineStyle
  2
STANDARD
 70
0
  3

 62
256
 51
90.0
 52
90.0
 71
2
 49
0.5
 62
256
  6
BYLAYER
 49
-0.5
 62
256
  6
BYLAYER
  0
LAYOUT
  5
275
102
{ACAD_REACTORS
330
1A
102
}
100
AcDbPlotSettings
  1

  2
none_device
  4

  6

 40
0.0
 41
0.0
 42
0.0
 43
0.0
 44
210.0
 45
297.0
 46
0.0
 47
0.0
 48
0.0
 49
0.0
140
0.0
141
0.0
142
1.0
143
1.0
 70
1024
 72
1
 73
0
 74
0
  7

 75
0
147
1.0
148
0.0
149
0.0
100
AcDbLayout
  1
Model
 70
0
 71
0
 10
0.0
 20
0.0
 11
210.0
 21
297.0
 12
0.0
 22
0.0
 32
0.0
 14
0.0
 24
0.0
 34
0.0
 15
0.0
 25
0.0
 35
0.0
146
0.0
 13
0.0
 23
0.0
 33
0.0
 16
1.0
 26
0.0
 36
0.0
 17
0.0
 27
1.0
 37
0.0
 76
0
330
210
345
0
346
0
  0
LAYOUT
  5
276
102
{ACAD_REACTORS
330
1A
102
}
100
AcDbPlotSettings
  1

  2
none_device
  4

  6

 40
0.0
 41
0.0
 42
0.0
 43
0.0
 44
210.0
 45
297.0
 46
0.0
 47
0.0
 48
0.0
 49
0.0
140
0.0
141
0.0
142
1.0
143
1.0
 70
0
 72
1
 73
0
 74
0
  7

 75
0
147
1.0
148
0.0
149
0.0
100
AcDbLayout
  1
Layout1
 70
0
 71
1
 10
0.0
 20
0.0
 11
210.0
 21
297.0
 12
0.0
 22
0.0
 32
0.0
 14
0.0
 24
0.0
 34
0.0
 15
0.0
 25
0.0
 35
0.0
146
0.0
 13
0.0
 23
0.0
 33
0.0
 16
1.0
 26
0.0
 36
0.0
 17
0.0
 27
1.0
 37
0.0
 76
0
330
211
345
0
346
0
  0
ENDSEC
  0
EOF
