999
DXF file: C:\Users\sesa63760\Dev\_Creo\CAD\MCADID0004763_3D-CAD\drw0001_4.dxf
999
Pro/ENGINEER 2019471 by Parametric Technology Corporation
  0
SECTION
  2
HEADER
  9
$ACADVER
  1
AC1024
  9
$DWGCODEPAGE
  3
ANSI_1252
  9
$EXTMAX
 10
33.6148119122
 20
47.5409482759
 30
0.0
  9
$EXTMIN
 10
0.0
 20
0.0
 30
0.0
  9
$LIMMIN
 10
0.0
 20
0.0
  9
$LIMMAX
 10
33.6148119122
 20
47.5409482759
  9
$VIEWCTR
 10
16.8074059561
 20
23.7704741379
  9
$VIEWSIZE
 40
47.5409482759
  9
$CLAYER
  8
0
  9
$LTSCALE
 40
3.0989655172
  9
$CELTYPE
  6
BYLAYER
  9
$DIMSCALE
 40
1.0
  9
$DIMASZ
 40
0.4001763323
  9
$DIMEXO
 40
1.0
  9
$DIMDLI
 40
2.1411034483
  9
$DIMEXE
 40
1.0
  9
$DIMCEN
 40
0.5071034483
  9
$DIMLFAC
 40
1.0
  9
$DIMBLK
  1
_FILLED
  9
$DIMALT
 70
0
  9
$DIMALTF
 40
0.0393700787
  9
$DIMTXT
 40
0.5602468652
  9
$DIMTOL
 70
1
  9
$DIMLIM
 70
0
  9
$DIMTFAC
 40
1.0
  9
$DIMTP
 40
0.01
  9
$DIMTM
 40
0.01
  9
$DIMGAP
 40
0.625
  9
$DIMDSEP
 70
46
  9
$AUNITS
 70
0
  9
$PDMODE
 70
3
  9
$PDSIZE
 40
0.3125
  9
$HANDSEED
  5
2AA
  9
$TILEMODE
 70
1
  9
$MEASUREMENT
 70
1
  9
$INSUNITS
 70
4
  0
ENDSEC
  0
SECTION
  2
CLASSES
  0
CLASS
  1
ACDBDICTIONARYWDFLT
  2
AcDbDictionaryWithDefault
  3
AutoCAD 2000
 90
0
 91
1
280
0
281
0
  0
CLASS
  1
ACDBPLACEHOLDER
  2
AcDbPlaceHolder
  3
AutoCAD 2000
 90
0
 91
1
280
0
281
0
  0
CLASS
  1
LAYOUT
  2
AcDbLayout
  3
AutoCAD 2000
 90
0
 91
0
280
0
281
0
  0
ENDSEC
  0
SECTION
  2
TABLES
  0
TABLE
  2
VPORT
  5
8
100
AcDbSymbolTable
 70
2
  0
VPORT
  5
1F4
100
AcDbSymbolTableRecord
100
AcDbViewportTableRecord
  2
*ACTIVE
 70
0
 10
0.0
 20
0.0
 11
1.0
 21
1.0
 12
16.8074059561
 22
23.7704741379
 13
0.0
 23
0.0
 14
1.0
 24
1.0
 15
0.0
 25
0.0
 16
0.0
 26
0.0
 36
1.0
 17
0.0
 27
0.0
 37
0.0
 40
47.5409482759
 41
0.7070707071
 42
50.0
 43
0.0
 44
0.0
 50
0.0
 51
0.0
 71
0
 72
100
 73
1
 74
1
 75
0
 76
0
 77
0
 78
0
  0
ENDTAB
  0
TABLE
  2
LTYPE
  5
5
100
AcDbSymbolTable
 70
6
  0
LTYPE
  5
14
100
AcDbSymbolTableRecord
100
AcDbLinetypeTableRecord
  2
BYBLOCK
 70
0
  3

 72
65
 73
0
 40
0.0
  0
LTYPE
  5
15
100
AcDbSymbolTableRecord
100
AcDbLinetypeTableRecord
  2
BYLAYER
 70
0
  3

 72
65
 73
0
 40
0.0
  0
LTYPE
  5
16
100
AcDbSymbolTableRecord
100
AcDbLinetypeTableRecord
  2
CONTINUOUS
 70
64
  3
Solid line
 72
65
 73
0
 40
0.0
  0
LTYPE
  5
1F5
100
AcDbSymbolTableRecord
100
AcDbLinetypeTableRecord
  2
CENTER
 70
64
  3
____ _ ____ _ ____ _ ____ _ ____ _ ____ _ ____
 72
65
 73
4
 40
0.6
 49
0.375
 74
0
 49
-0.075
 74
0
 49
0.075
 74
0
 49
-0.075
 74
0
  0
LTYPE
  5
1F6
100
AcDbSymbolTableRecord
100
AcDbLinetypeTableRecord
  2
HIDDEN
 70
64
  3
- - - - - - - - - - - - - - - - - - - -
 72
65
 73
2
 40
0.2
 49
0.1
 74
0
 49
-0.1
 74
0
  0
LTYPE
  5
1F7
100
AcDbSymbolTableRecord
100
AcDbLinetypeTableRecord
  2
PHANTOM
 70
64
  3
_____ _ _ _____ _ _ _____ _ _ _____
 72
65
 73
6
 40
0.8
 49
0.45
 74
0
 49
-0.05
 74
0
 49
0.1
 74
0
 49
-0.05
 74
0
 49
0.1
 74
0
 49
-0.05
 74
0
  0
LTYPE
  5
1F8
100
AcDbSymbolTableRecord
100
AcDbLinetypeTableRecord
  2
DOT
 70
64
  3
. . . . . . . . . . . . . . . . . . . .
 72
65
 73
2
 40
0.2
 49
0.1
 74
0
 49
-0.1
 74
0
  0
LTYPE
  5
1F9
100
AcDbSymbolTableRecord
100
AcDbLinetypeTableRecord
  2
DASHED
 70
64
  3
- - - - - - - - - - - - - - - - - - - -
 72
65
 73
2
 40
0.2
 49
0.1
 74
0
 49
-0.1
 74
0
  0
ENDTAB
  0
TABLE
  2
LAYER
  5
2
100
AcDbSymbolTable
 70
36
  0
LAYER
  5
10
100
AcDbSymbolTableRecord
100
AcDbLayerTableRecord
  2
0
 70
0
 62
7
  6
CONTINUOUS
370
-3
390
F
  0
LAYER
  5
1FA
100
AcDbSymbolTableRecord
100
AcDbLayerTableRecord
  2
DEFAULT_1
 70
0
 62
7
  6
CENTER
370
-3
390
F
  0
LAYER
  5
1FB
100
AcDbSymbolTableRecord
100
AcDbLayerTableRecord
  2
DEFAULT_2
 70
0
 62
7
  6
HIDDEN
370
-3
390
F
  0
LAYER
  5
1FC
100
AcDbSymbolTableRecord
100
AcDbLayerTableRecord
  2
DEFAULT_3
 70
0
 62
7
  6
PHANTOM
370
-3
390
F
  0
LAYER
  5
1FD
100
AcDbSymbolTableRecord
100
AcDbLayerTableRecord
  2
00_COMPONENTS
 70
0
 62
7
  6
CONTINUOUS
370
-3
390
F
  0
LAYER
  5
1FE
100
AcDbSymbolTableRecord
100
AcDbLayerTableRecord
  2
01_1_DEFAULT_DATUMS
 70
0
 62
7
  6
CONTINUOUS
370
-3
390
F
  0
LAYER
  5
1FF
100
AcDbSymbolTableRecord
100
AcDbLayerTableRecord
  2
01_PLANES
 70
0
 62
7
  6
CONTINUOUS
370
-3
390
F
  0
LAYER
  5
200
100
AcDbSymbolTableRecord
100
AcDbLayerTableRecord
  2
02_COORD_SYS
 70
0
 62
7
  6
CONTINUOUS
370
-3
390
F
  0
LAYER
  5
201
100
AcDbSymbolTableRecord
100
AcDbLayerTableRecord
  2
03_AXES
 70
0
 62
7
  6
CONTINUOUS
370
-3
390
F
  0
LAYER
  5
202
100
AcDbSymbolTableRecord
100
AcDbLayerTableRecord
  2
04_POINTS
 70
0
 62
7
  6
CONTINUOUS
370
-3
390
F
  0
LAYER
  5
203
100
AcDbSymbolTableRecord
100
AcDbLayerTableRecord
  2
05_CURVES
 70
0
 62
7
  6
CONTINUOUS
370
-3
390
F
  0
LAYER
  5
204
100
AcDbSymbolTableRecord
100
AcDbLayerTableRecord
  2
06_SURFS
 70
0
 62
7
  6
CONTINUOUS
370
-3
390
F
  0
LAYER
  5
205
100
AcDbSymbolTableRecord
100
AcDbLayerTableRecord
  2
07_COSMETICS
 70
0
 62
7
  6
CONTINUOUS
370
-3
390
F
  0
LAYER
  5
206
100
AcDbSymbolTableRecord
100
AcDbLayerTableRecord
  2
10_NOTES
 70
0
 62
7
  6
CONTINUOUS
370
-3
390
F
  0
LAYER
  5
207
100
AcDbSymbolTableRecord
100
AcDbLayerTableRecord
  2
11_NOTES_PUB
 70
0
 62
7
  6
CONTINUOUS
370
-3
390
F
  0
LAYER
  5
208
100
AcDbSymbolTableRecord
100
AcDbLayerTableRecord
  2
13_REF_GTOL
 70
0
 62
7
  6
CONTINUOUS
370
-3
390
F
  0
LAYER
  5
209
100
AcDbSymbolTableRecord
100
AcDbLayerTableRecord
  2
16_MISC
 70
0
 62
7
  6
CONTINUOUS
370
-3
390
F
  0
LAYER
  5
20A
100
AcDbSymbolTableRecord
100
AcDbLayerTableRecord
  2
17_NO_PRINT
 70
0
 62
7
  6
CONTINUOUS
370
-3
390
F
  0
LAYER
  5
20B
100
AcDbSymbolTableRecord
100
AcDbLayerTableRecord
  2
18_DATUM_CAMS_JOINTS
 70
0
 62
7
  6
CONTINUOUS
370
-3
390
F
  0
LAYER
  5
20C
100
AcDbSymbolTableRecord
100
AcDbLayerTableRecord
  2
19_DATUM_FUNCTIONAL
 70
0
 62
7
  6
CONTINUOUS
370
-3
390
F
  0
LAYER
  5
20D
100
AcDbSymbolTableRecord
100
AcDbLayerTableRecord
  2
20_DATUM_KINEMATIC_SCHEME
 70
0
 62
7
  6
CONTINUOUS
370
-3
390
F
  0
ENDTAB
  0
TABLE
  2
STYLE
  5
3
100
AcDbSymbolTable
 70
1
  0
STYLE
  5
11
100
AcDbSymbolTableRecord
100
AcDbTextStyleTableRecord
  2
STANDARD
 70
0
 40
0.0
 41
1.0
 50
0.0
 71
0
 42
0.2
  3
ARIAL.TTF
  4

  0
STYLE
  5
20E
100
AcDbSymbolTableRecord
100
AcDbTextStyleTableRecord
  2
TEXTSTYLE_1
 70
0
 40
0.0
 41
0.8
 50
0.0
 71
0
 42
0.2
  3
gdt
  4

  0
ENDTAB
  0
TABLE
  2
VIEW
  5
6
100
AcDbSymbolTable
 70
0
  0
ENDTAB
  0
TABLE
  2
UCS
  5
7
100
AcDbSymbolTable
 70
0
  0
ENDTAB
  0
TABLE
  2
APPID
  5
9
100
AcDbSymbolTable
 70
1
  0
APPID
  5
20F
100
AcDbSymbolTableRecord
100
AcDbRegAppTableRecord
  2
ACAD
 70
0
  0
ENDTAB
  0
TABLE
  2
BLOCK_RECORD
  5
1
100
AcDbSymbolTable
 70
0
  0
BLOCK_RECORD
  5
210
100
AcDbSymbolTableRecord
100
AcDbBlockTableRecord
  2
*Model_Space
  0
BLOCK_RECORD
  5
211
100
AcDbSymbolTableRecord
100
AcDbBlockTableRecord
  2
*Paper_Space
  0
BLOCK_RECORD
  5
212
100
AcDbSymbolTableRecord
100
AcDbBlockTableRecord
  2
_FILLED
  0
ENDTAB
  0
TABLE
  2
DIMSTYLE
  5
A
100
AcDbSymbolTable
 70
1
100
AcDbDimStyleTable
 71
0
  0
DIMSTYLE
105
213
100
AcDbSymbolTableRecord
100
AcDbDimStyleTableRecord
  2
STANDARD
 70
0
  3

  4

 40
1.0
 41
0.4001763323
 42
1.0
 43
0.38
 44
1.0
 45
0.0
 46
0.0
 47
0.01
 48
0.01
140
0.5602468652
141
0.09
142
0.0
143
25.4
144
1.0
145
0.0
146
1.0
147
0.625
 71
1
 72
0
 73
0
 74
0
 75
0
 76
0
 77
1
 78
8
 79
2
170
0
171
1
172
0
173
0
174
0
175
0
176
0
177
0
178
0
270
2
179
2
271
2
272
2
273
2
274
2
275
0
280
0
281
0
282
0
283
1
284
8
285
0
286
0
287
3
288
0
340
11
278
46
341
212
342
212
343
212
344
212
  0
ENDTAB
  0
ENDSEC
  0
SECTION
  2
BLOCKS
  0
BLOCK
  5
20
100
AcDbEntity
  8
0
100
AcDbBlockBegin
  2
*Model_Space
 70
0
 10
0.0
 20
0.0
 30
0.0
  3
*Model_Space
  1

  0
ENDBLK
  5
21
100
AcDbEntity
  8
0
100
AcDbBlockEnd
  0
BLOCK
  5
1C
100
AcDbEntity
  8
0
100
AcDbBlockBegin
  2
*Paper_Space
 70
0
 10
0.0
 20
0.0
 30
0.0
  3
*Paper_Space
  1

  0
ENDBLK
  5
1D
100
AcDbEntity
  8
0
100
AcDbBlockEnd
  0
BLOCK
  5
214
100
AcDbEntity
  8
0
100
AcDbBlockBegin
  2
_FILLED
 70
64
 10
0.0
 20
0.0
  3
_FILLED
  1

  0
SOLID
  5
215
100
AcDbEntity
  8
0
  6
BYBLOCK
 62
0
100
AcDbTrace
 10
0.0
 20
0.0
 11
-1.0
 21
0.25
 12
-1.0
 22
-0.25
 13
-1.0
 23
-0.25
  0
ENDBLK
  5
216
100
AcDbEntity
  8
0
  6
BYBLOCK
 62
0
100
AcDbBlockEnd
  0
ENDSEC
  0
SECTION
  2
ENTITIES
  0
LINE
  5
217
100
AcDbEntity
  8
0
100
AcDbLine
 62
7
  6
BYLAYER
 10
3.7438283699
 20
36.625
 11
3.7438283699
 21
10.625
  0
LINE
  5
218
100
AcDbEntity
  8
0
100
AcDbLine
 62
7
  6
BYLAYER
 10
4.2438283699
 20
10.125
 11
30.2438283699
 21
10.125
  0
LINE
  5
219
100
AcDbEntity
  8
0
100
AcDbLine
 62
7
  6
BYLAYER
 10
6.3703600719
 20
18.0925785435
 11
5.3119767173
 21
14.1426380903
  0
LINE
  5
21A
100
AcDbEntity
  8
0
100
AcDbLine
 62
7
  6
BYLAYER
 10
7.7614664601
 20
11.6931483474
 11
11.7114069134
 21
12.751531702
  0
LINE
  5
21B
100
AcDbEntity
  8
0
100
AcDbLine
 62
7
  6
BYLAYER
 10
22.7762498264
 20
12.751531702
 11
26.7261902797
 21
11.6931483474
  0
LINE
  5
21C
100
AcDbEntity
  8
0
100
AcDbLine
 62
7
  6
BYLAYER
 10
9.9252731846
 20
17.0135515959
 11
10.5264431671
 21
16.4126400503
  0
LINE
  5
21D
100
AcDbEntity
  8
0
100
AcDbLine
 62
7
  6
BYLAYER
 10
10.137405219
 20
17.0135515959
 11
10.6323799658
 21
16.5185768491
  0
LINE
  5
21E
100
AcDbEntity
  8
0
100
AcDbLine
 62
7
  6
BYLAYER
 10
10.6887960314
 20
16.5749929146
 11
10.1938212845
 21
17.0699676615
  0
LINE
  5
21F
100
AcDbEntity
  8
0
100
AcDbLine
 62
7
  6
BYLAYER
 10
10.7450804031
 20
16.6312772863
 11
10.2501056562
 21
17.1262520331
  0
LINE
  5
220
100
AcDbEntity
  8
0
100
AcDbLine
 62
7
  6
BYLAYER
 10
5.3119767173
 20
33.1073619097
 11
6.3703600719
 21
29.1574214565
  0
LINE
  5
221
100
AcDbEntity
  8
0
100
AcDbLine
 62
7
  6
BYLAYER
 10
11.325216313
 20
17.2114131962
 11
10.8302415662
 21
17.7063879431
  0
LINE
  5
222
100
AcDbEntity
  8
0
100
AcDbLine
 62
7
  6
BYLAYER
 10
10.9882322684
 20
17.8643786453
 11
11.4832070151
 21
17.3694038984
  0
LINE
  5
223
100
AcDbEntity
  8
0
100
AcDbLine
 62
7
  6
BYLAYER
 10
11.8214532467
 20
17.7076501299
 11
11.3264784998
 21
18.2026248768
  0
LINE
  5
224
100
AcDbEntity
  8
0
100
AcDbLine
 62
7
  6
BYLAYER
 10
11.3248671186
 20
18.4131455299
 11
12.0319738999
 21
17.7060387488
  0
LINE
  5
225
100
AcDbEntity
  8
0
100
AcDbLine
 62
7
  6
BYLAYER
 10
12.541568275
 20
19.6298466863
 11
13.2486750562
 21
18.9227399051
  0
LINE
  5
226
100
AcDbEntity
  8
0
100
AcDbLine
 62
7
  6
BYLAYER
 10
12.7537003094
 20
19.6298466863
 11
13.2486750562
 21
19.1348719395
  0
LINE
  5
227
100
AcDbEntity
  8
0
100
AcDbLine
 62
7
  6
BYLAYER
 10
10.1476393937
 20
17.9430245862
 11
12.7265159128
 21
20.5219011834
  0
LINE
  5
228
100
AcDbEntity
  8
0
100
AcDbLine
 62
7
  6
BYLAYER
 10
20.3469272142
 20
28.142312445
 11
22.9258037837
 21
30.7211889762
  0
LINE
  5
229
100
AcDbEntity
  8
0
100
AcDbLine
 62
7
  6
BYLAYER
 10
5.4024872238
 20
12.8443190257
 11
5.6054311485
 21
13.0472629504
  0
LINE
  5
22A
100
AcDbEntity
  8
0
100
AcDbLine
 62
7
  6
BYLAYER
 10
27.8215654195
 20
35.2633972214
 11
28.0245093442
 21
35.4663411461
  0
LINE
  5
22B
100
AcDbEntity
  8
0
100
AcDbLine
 62
7
  6
BYLAYER
 10
9.6156861516
 20
16.7039645629
 11
12.541568275
 21
19.6298466863
  0
LINE
  5
22C
100
AcDbEntity
  8
0
100
AcDbLine
 62
7
  6
BYLAYER
 10
23.5992029462
 20
30.6874813574
 11
24.164863807
 21
31.2531422183
  0
LINE
  5
22D
100
AcDbEntity
  8
0
100
AcDbLine
 62
7
  6
BYLAYER
 10
9.7173472474
 20
16.5934936243
 11
12.7537003094
 21
19.6298466863
  0
LINE
  5
22E
100
AcDbEntity
  8
0
100
AcDbLine
 62
7
  6
BYLAYER
 10
12.7265159299
 20
26.7280988418
 11
10.1476393937
 21
29.3069754138
  0
LINE
  5
22F
100
AcDbEntity
  8
0
100
AcDbLine
 62
7
  6
BYLAYER
 10
20.3469272111
 20
19.1076875598
 11
22.9258037837
 21
16.5288110238
  0
LINE
  5
230
100
AcDbEntity
  8
0
100
AcDbLine
 62
7
  6
BYLAYER
 10
5.6054311485
 20
34.2027370496
 11
5.4024872238
 21
34.4056809743
  0
LINE
  5
231
100
AcDbEntity
  8
0
100
AcDbLine
 62
7
  6
BYLAYER
 10
27.8215654195
 20
11.9866027786
 11
28.0245093442
 21
11.7836588539
  0
LINE
  5
232
100
AcDbEntity
  8
0
100
AcDbLine
 62
7
  6
BYLAYER
 10
10.2123219942
 20
16.0985188774
 11
13.2486750562
 21
19.1348719395
  0
LINE
  5
233
100
AcDbEntity
  8
0
100
AcDbLine
 62
7
  6
BYLAYER
 10
10.3227929328
 20
15.9968577817
 11
13.2486750562
 21
18.9227399051
  0
LINE
  5
234
100
AcDbEntity
  8
0
100
AcDbLine
 62
7
  6
BYLAYER
 10
24.3063097273
 20
29.9803745762
 11
24.8719705882
 21
30.5460354371
  0
LINE
  5
235
100
AcDbEntity
  8
0
100
AcDbLine
 62
7
  6
BYLAYER
 10
6.4631473956
 20
11.7836588539
 11
6.6660913203
 21
11.9866027786
  0
LINE
  5
236
100
AcDbEntity
  8
0
100
AcDbLine
 62
7
  6
BYLAYER
 10
28.8822255913
 20
34.2027370496
 11
29.085169516
 21
34.4056809743
  0
LINE
  5
237
100
AcDbEntity
  8
0
100
AcDbLine
 62
7
  6
BYLAYER
 10
21.761140815
 20
26.7280988441
 11
24.3400173461
 21
29.3069754138
  0
LINE
  5
238
100
AcDbEntity
  8
0
100
AcDbLine
 62
7
  6
BYLAYER
 10
11.5618529561
 20
16.5288110238
 11
14.1407295531
 21
19.1076875431
  0
LINE
  5
239
100
AcDbEntity
  8
0
100
AcDbLine
 62
7
  6
BYLAYER
 10
6.6660913203
 20
35.2633972214
 11
6.4631473956
 21
35.4663411461
  0
LINE
  5
23A
100
AcDbEntity
  8
0
100
AcDbLine
 62
7
  6
BYLAYER
 10
28.8822255913
 20
13.0472629504
 11
29.085169516
 21
12.8443190257
  0
LINE
  5
23B
100
AcDbEntity
  8
0
100
AcDbLine
 62
7
  6
BYLAYER
 10
24.3400173461
 20
17.9430245862
 11
21.7611408207
 21
20.5219012053
  0
LINE
  5
23C
100
AcDbEntity
  8
0
100
AcDbLine
 62
7
  6
BYLAYER
 10
14.1407295743
 20
28.1423124507
 11
11.5618529561
 21
30.7211889762
  0
LINE
  5
23D
100
AcDbEntity
  8
0
100
AcDbLine
 62
7
  6
BYLAYER
 10
28.1172966679
 20
29.1574214565
 11
29.1756800225
 21
33.1073619097
  0
LINE
  5
23E
100
AcDbEntity
  8
0
100
AcDbLine
 62
7
  6
BYLAYER
 10
26.7261902797
 20
35.5568516526
 11
22.7762498264
 21
34.498468298
  0
LINE
  5
23F
100
AcDbEntity
  8
0
100
AcDbLine
 62
7
  6
BYLAYER
 10
11.7114069134
 20
34.498468298
 11
7.7614664601
 21
35.5568516526
  0
LINE
  5
240
100
AcDbEntity
  8
0
100
AcDbLine
 62
7
  6
BYLAYER
 10
29.1756800225
 20
14.1426380903
 11
28.1172966679
 21
18.0925785435
  0
LINE
  5
241
100
AcDbEntity
  8
0
100
AcDbLine
 62
7
  6
BYLAYER
 10
23.5992029462
 20
30.6874813574
 11
24.3063097273
 21
29.9803745762
  0
LINE
  5
242
100
AcDbEntity
  8
0
100
AcDbLine
 62
7
  6
BYLAYER
 10
30.7438283699
 20
10.625
 11
30.7438283699
 21
36.625
  0
LINE
  5
243
100
AcDbEntity
  8
0
100
AcDbLine
 62
7
  6
BYLAYER
 10
30.2438283699
 20
37.125
 11
4.2438283699
 21
37.125
  0
ARC
  5
244
100
AcDbEntity
  8
0
100
AcDbCircle
 62
7
  6
BYLAYER
 10
7.2438283699
 20
13.625
 40
2.0
100
AcDbArc
 50
164.9999999972
 51
202.9756871631
  0
ARC
  5
245
100
AcDbEntity
  8
0
100
AcDbCircle
 62
7
  6
BYLAYER
 10
7.2438283699
 20
13.625
 40
2.0
100
AcDbArc
 50
247.024312837
 51
285.0000000007
  0
ARC
  5
246
100
AcDbEntity
  8
0
100
AcDbCircle
 62
7
  6
BYLAYER
 10
7.2438283699
 20
13.625
 40
1.7477483636
100
AcDbArc
 50
250.4119519198
 51
199.5880480804
  0
ARC
  5
247
100
AcDbEntity
  8
0
100
AcDbCircle
 62
7
  6
BYLAYER
 10
7.2438283699
 20
13.625
 40
1.7372753246
100
AcDbArc
 50
250.5761618724
 51
199.4238381276
  0
CIRCLE
  5
248
100
AcDbEntity
  8
0
100
AcDbCircle
 62
7
  6
BYLAYER
 10
7.2438283699
 20
13.625
 40
1.5
  0
CIRCLE
  5
249
100
AcDbEntity
  8
0
100
AcDbCircle
 62
7
  6
BYLAYER
 10
7.2438283699
 20
13.625
 40
1.3
  0
ARC
  5
24A
100
AcDbEntity
  8
0
100
AcDbCircle
 62
7
  6
BYLAYER
 10
4.4436791197
 20
10.8248507349
 40
0.6998475836
100
AcDbArc
 50
179.9956089185
 51
270.0043897916
  0
ARC
  5
24B
100
AcDbEntity
  8
0
100
AcDbCircle
 62
7
  6
BYLAYER
 10
4.2438283699
 20
10.625
 40
0.5
100
AcDbArc
 50
180.0
 51
270.0
  0
ARC
  5
24C
100
AcDbEntity
  8
0
100
AcDbCircle
 62
7
  6
BYLAYER
 10
10.5263139486
 20
16.4125108319
 40
0.15
100
AcDbArc
 50
315.0
 51
45.0
  0
ARC
  5
24D
100
AcDbEntity
  8
0
100
AcDbCircle
 62
7
  6
BYLAYER
 10
13.142609039
 20
19.0288059223
 40
0.15
100
AcDbArc
 50
315.0
 51
45.0
  0
ARC
  5
24E
100
AcDbEntity
  8
0
100
AcDbCircle
 62
7
  6
BYLAYER
 10
12.6476342922
 20
19.5237806691
 40
0.15
100
AcDbArc
 50
44.9999999999
 51
135.0
  0
ARC
  5
24F
100
AcDbEntity
  8
0
100
AcDbCircle
 62
7
  6
BYLAYER
 10
10.0313392018
 20
16.9074855787
 40
0.15
100
AcDbArc
 50
45.0
 51
134.999999411
  0
ARC
  5
250
100
AcDbEntity
  8
0
100
AcDbCircle
 62
7
  6
BYLAYER
 10
10.5827691685
 20
16.4689173715
 40
0.1499655779
100
AcDbArc
 50
315.0007241248
 51
45.0007237923
  0
ARC
  5
251
100
AcDbEntity
  8
0
100
AcDbCircle
 62
7
  6
BYLAYER
 10
10.0877457414
 20
16.9639407986
 40
0.1499655779
100
AcDbArc
 50
44.9992762075
 51
134.9992758752
  0
ARC
  5
252
100
AcDbEntity
  8
0
100
AcDbCircle
 62
7
  6
BYLAYER
 10
11.3788508122
 20
17.2627317461
 40
0.1487660548
100
AcDbArc
 50
347.4034011301
 51
0.4152223124
  0
ARC
  5
253
100
AcDbEntity
  8
0
100
AcDbCircle
 62
7
  6
BYLAYER
 10
10.881560094
 20
17.760022555
 40
0.1487659425
100
AcDbArc
 50
89.5847687864
 51
102.5938890624
  0
ARC
  5
254
100
AcDbEntity
  8
0
100
AcDbCircle
 62
7
  6
BYLAYER
 10
11.3811726521
 20
17.2622806906
 40
0.1464017487
100
AcDbArc
 50
315.0687125123
 51
347.3775084855
  0
ARC
  5
255
100
AcDbEntity
  8
0
100
AcDbCircle
 62
7
  6
BYLAYER
 10
10.8811090306
 20
17.7623443341
 40
0.1464016908
100
AcDbArc
 50
102.6197297668
 51
134.9312934222
  0
ARC
  5
256
100
AcDbEntity
  8
0
100
AcDbCircle
 62
7
  6
BYLAYER
 10
7.2438283699
 20
33.625
 40
2.0
100
AcDbArc
 50
74.9999999992
 51
112.9756871631
  0
ARC
  5
257
100
AcDbEntity
  8
0
100
AcDbCircle
 62
7
  6
BYLAYER
 10
7.2438283699
 20
33.625
 40
2.0
100
AcDbArc
 50
157.024312837
 51
195.0000000019
  0
ARC
  5
258
100
AcDbEntity
  8
0
100
AcDbCircle
 62
7
  6
BYLAYER
 10
7.2438283699
 20
33.625
 40
1.7477483636
100
AcDbArc
 50
160.4119519198
 51
109.5880480804
  0
ARC
  5
259
100
AcDbEntity
  8
0
100
AcDbCircle
 62
7
  6
BYLAYER
 10
7.2438283699
 20
33.625
 40
1.7372753246
100
AcDbArc
 50
160.5761618724
 51
109.4238381276
  0
CIRCLE
  5
25A
100
AcDbEntity
  8
0
100
AcDbCircle
 62
7
  6
BYLAYER
 10
7.2438283699
 20
33.625
 40
1.5
  0
CIRCLE
  5
25B
100
AcDbEntity
  8
0
100
AcDbCircle
 62
7
  6
BYLAYER
 10
7.2438283699
 20
33.625
 40
1.3
  0
ARC
  5
25C
100
AcDbEntity
  8
0
100
AcDbCircle
 62
7
  6
BYLAYER
 10
4.4436791048
 20
36.4251492502
 40
0.6998475836
100
AcDbArc
 50
89.9956089185
 51
180.0043897916
  0
ARC
  5
25D
100
AcDbEntity
  8
0
100
AcDbCircle
 62
7
  6
BYLAYER
 10
4.2438283699
 20
36.625
 40
0.5
100
AcDbArc
 50
90.0
 51
180.0
  0
ARC
  5
25E
100
AcDbEntity
  8
0
100
AcDbCircle
 62
7
  6
BYLAYER
 10
27.2438283699
 20
13.625
 40
2.0
100
AcDbArc
 50
254.9999999992
 51
292.9756871631
  0
ARC
  5
25F
100
AcDbEntity
  8
0
100
AcDbCircle
 62
7
  6
BYLAYER
 10
27.2438283699
 20
13.625
 40
2.0
100
AcDbArc
 50
337.024312837
 51
15.0000000019
  0
ARC
  5
260
100
AcDbEntity
  8
0
100
AcDbCircle
 62
7
  6
BYLAYER
 10
27.2438283699
 20
13.625
 40
1.7477483636
100
AcDbArc
 50
340.4119519198
 51
289.5880480804
  0
ARC
  5
261
100
AcDbEntity
  8
0
100
AcDbCircle
 62
7
  6
BYLAYER
 10
27.2438283699
 20
13.625
 40
1.7372753246
100
AcDbArc
 50
340.5761618724
 51
289.4238381276
  0
CIRCLE
  5
262
100
AcDbEntity
  8
0
100
AcDbCircle
 62
7
  6
BYLAYER
 10
27.2438283699
 20
13.625
 40
1.5
  0
CIRCLE
  5
263
100
AcDbEntity
  8
0
100
AcDbCircle
 62
7
  6
BYLAYER
 10
27.2438283699
 20
13.625
 40
1.3
  0
ARC
  5
264
100
AcDbEntity
  8
0
100
AcDbCircle
 62
7
  6
BYLAYER
 10
30.0439787676
 20
10.8248496173
 40
0.6998464524
100
AcDbArc
 50
269.9956948457
 51
0.0043038724
  0
ARC
  5
265
100
AcDbEntity
  8
0
100
AcDbCircle
 62
7
  6
BYLAYER
 10
30.2438283699
 20
10.625
 40
0.5
100
AcDbArc
 50
270.0
 51
360.0
  0
ARC
  5
266
100
AcDbEntity
  8
0
100
AcDbCircle
 62
7
  6
BYLAYER
 10
17.2438283699
 20
23.625
 40
12.2
100
AcDbArc
 50
296.9669953084
 51
333.0330046916
  0
ARC
  5
267
100
AcDbEntity
  8
0
100
AcDbCircle
 62
7
  6
BYLAYER
 10
17.2438283699
 20
23.625
 40
12.2
100
AcDbArc
 50
206.9669953084
 51
243.0330046916
  0
ARC
  5
268
100
AcDbEntity
  8
0
100
AcDbCircle
 62
7
  6
BYLAYER
 10
17.2438283699
 20
23.625
 40
12.2
100
AcDbArc
 50
26.9669953084
 51
63.0330046916
  0
ARC
  5
269
100
AcDbEntity
  8
0
100
AcDbCircle
 62
7
  6
BYLAYER
 10
17.2438283699
 20
23.625
 40
12.2
100
AcDbArc
 50
116.9669953084
 51
153.0330046916
  0
ARC
  5
26A
100
AcDbEntity
  8
0
100
AcDbCircle
 62
7
  6
BYLAYER
 10
17.2438283699
 20
23.625
 40
10.3
100
AcDbArc
 50
226.9473188417
 51
227.7824420499
  0
ARC
  5
26B
100
AcDbEntity
  8
0
100
AcDbCircle
 62
7
  6
BYLAYER
 10
17.2438283699
 20
23.625
 40
10.3
100
AcDbArc
 50
227.7864143261
 51
42.215571812
  0
ARC
  5
26C
100
AcDbEntity
  8
0
100
AcDbCircle
 62
7
  6
BYLAYER
 10
17.2438283699
 20
23.625
 40
10.3
100
AcDbArc
 50
47.7864143261
 51
223.0526811583
  0
ARC
  5
26D
100
AcDbEntity
  8
0
100
AcDbCircle
 62
7
  6
BYLAYER
 10
17.2438283699
 20
23.625
 40
10.212260565
100
AcDbArc
 50
227.8023640742
 51
42.1976359258
  0
ARC
  5
26E
100
AcDbEntity
  8
0
100
AcDbCircle
 62
7
  6
BYLAYER
 10
17.2438283699
 20
23.625
 40
10.212260565
100
AcDbArc
 50
47.8023640742
 51
222.1976359258
  0
ARC
  5
26F
100
AcDbEntity
  8
0
100
AcDbCircle
 62
7
  6
BYLAYER
 10
17.2438283699
 20
23.625
 40
10.1453494193
100
AcDbArc
 50
227.8248903327
 51
42.1751096673
  0
ARC
  5
270
100
AcDbEntity
  8
0
100
AcDbCircle
 62
7
  6
BYLAYER
 10
17.2438283699
 20
23.625
 40
10.1453494193
100
AcDbArc
 50
47.8248903327
 51
222.1751096673
  0
ARC
  5
271
100
AcDbEntity
  8
0
100
AcDbCircle
 62
7
  6
BYLAYER
 10
17.2438283699
 20
23.625
 40
9.5783121635
100
AcDbArc
 50
227.9922715395
 51
42.0077278721
  0
ARC
  5
272
100
AcDbEntity
  8
0
100
AcDbCircle
 62
7
  6
BYLAYER
 10
17.2438283699
 20
23.625
 40
9.5783121635
100
AcDbArc
 50
47.9922721279
 51
222.0077285176
  0
ARC
  5
273
100
AcDbEntity
  8
0
100
AcDbCircle
 62
7
  6
BYLAYER
 10
17.2438283699
 20
23.625
 40
9.1452994616
100
AcDbArc
 50
228.1340888208
 51
221.8659111567
  0
ARC
  5
274
100
AcDbEntity
  8
0
100
AcDbCircle
 62
7
  6
BYLAYER
 10
17.2438283699
 20
23.625
 40
9.0906953854
100
AcDbArc
 50
38.684535365
 51
51.315464635
  0
ARC
  5
275
100
AcDbEntity
  8
0
100
AcDbCircle
 62
7
  6
BYLAYER
 10
17.2438283699
 20
23.625
 40
9.0906953854
100
AcDbArc
 50
128.684535365
 51
141.315464635
  0
ARC
  5
276
100
AcDbEntity
  8
0
100
AcDbCircle
 62
7
  6
BYLAYER
 10
17.2438283699
 20
23.625
 40
9.0906953854
100
AcDbArc
 50
218.684535365
 51
221.8470670031
  0
ARC
  5
277
100
AcDbEntity
  8
0
100
AcDbCircle
 62
7
  6
BYLAYER
 10
17.2438283699
 20
23.625
 40
9.0906953854
100
AcDbArc
 50
228.1529329969
 51
231.315464635
  0
ARC
  5
278
100
AcDbEntity
  8
0
100
AcDbCircle
 62
7
  6
BYLAYER
 10
17.2438283699
 20
23.625
 40
9.0906953854
100
AcDbArc
 50
308.684535365
 51
321.315464635
  0
ARC
  5
279
100
AcDbEntity
  8
0
100
AcDbCircle
 62
7
  6
BYLAYER
 10
17.2438283699
 20
23.625
 40
8.5728540609
100
AcDbArc
 50
128.3013539597
 51
141.6986460403
  0
ARC
  5
27A
100
AcDbEntity
  8
0
100
AcDbCircle
 62
7
  6
BYLAYER
 10
17.2438283699
 20
23.625
 40
8.5728540609
100
AcDbArc
 50
38.3013539597
 51
51.6986460403
  0
ARC
  5
27B
100
AcDbEntity
  8
0
100
AcDbCircle
 62
7
  6
BYLAYER
 10
17.2438283699
 20
23.625
 40
8.5728540609
100
AcDbArc
 50
228.3435920359
 51
231.6986460403
  0
ARC
  5
27C
100
AcDbEntity
  8
0
100
AcDbCircle
 62
7
  6
BYLAYER
 10
17.2438283699
 20
23.625
 40
8.5728540609
100
AcDbArc
 50
308.3013539597
 51
321.6986460403
  0
ARC
  5
27D
100
AcDbEntity
  8
0
100
AcDbCircle
 62
7
  6
BYLAYER
 10
17.2438283699
 20
23.625
 40
8.5728540609
100
AcDbArc
 50
218.3013539597
 51
221.656407959
  0
ARC
  5
27E
100
AcDbEntity
  8
0
100
AcDbCircle
 62
7
  6
BYLAYER
 10
17.2438283699
 20
23.625
 40
8.0804501844
100
AcDbArc
 50
217.8911079232
 51
221.4524002862
  0
ARC
  5
27F
100
AcDbEntity
  8
0
100
AcDbCircle
 62
7
  6
BYLAYER
 10
17.2438283699
 20
23.625
 40
8.0804501844
100
AcDbArc
 50
127.8911079232
 51
142.1088920718
  0
ARC
  5
280
100
AcDbEntity
  8
0
100
AcDbCircle
 62
7
  6
BYLAYER
 10
17.2438283699
 20
23.625
 40
8.0804501844
100
AcDbArc
 50
37.8911079232
 51
52.1088920718
  0
ARC
  5
281
100
AcDbEntity
  8
0
100
AcDbCircle
 62
7
  6
BYLAYER
 10
17.2438283699
 20
23.625
 40
8.0804501844
100
AcDbArc
 50
307.8911079232
 51
322.1088920718
  0
ARC
  5
282
100
AcDbEntity
  8
0
100
AcDbCircle
 62
7
  6
BYLAYER
 10
17.2438283699
 20
23.625
 40
8.0804501844
100
AcDbArc
 50
228.5475996953
 51
232.1088920718
  0
ARC
  5
283
100
AcDbEntity
  8
0
100
AcDbCircle
 62
7
  6
BYLAYER
 10
17.2438283699
 20
23.625
 40
6.910245201
100
AcDbArc
 50
53.3206405961
 51
126.6793595753
  0
ARC
  5
284
100
AcDbEntity
  8
0
100
AcDbCircle
 62
7
  6
BYLAYER
 10
17.2438283699
 20
23.625
 40
6.910245201
100
AcDbArc
 50
143.3206404647
 51
216.6793591627
  0
ARC
  5
285
100
AcDbEntity
  8
0
100
AcDbCircle
 62
7
  6
BYLAYER
 10
17.2438283699
 20
23.625
 40
6.910245201
100
AcDbArc
 50
233.3206406488
 51
306.6793598611
  0
ARC
  5
286
100
AcDbEntity
  8
0
100
AcDbCircle
 62
7
  6
BYLAYER
 10
17.2438283699
 20
23.625
 40
6.910245201
100
AcDbArc
 50
323.3206406122
 51
36.6793594315
  0
ARC
  5
287
100
AcDbEntity
  8
0
100
AcDbCircle
 62
7
  6
BYLAYER
 10
17.2438283699
 20
23.625
 40
6.4178413245
100
AcDbArc
 50
143.9641032688
 51
216.0358967312
  0
ARC
  5
288
100
AcDbEntity
  8
0
100
AcDbCircle
 62
7
  6
BYLAYER
 10
17.2438283699
 20
23.625
 40
6.4178413245
100
AcDbArc
 50
53.9641032688
 51
126.0358967312
  0
ARC
  5
289
100
AcDbEntity
  8
0
100
AcDbCircle
 62
7
  6
BYLAYER
 10
17.2438283699
 20
23.625
 40
6.4178413245
100
AcDbArc
 50
323.9641032688
 51
36.0358967312
  0
ARC
  5
28A
100
AcDbEntity
  8
0
100
AcDbCircle
 62
7
  6
BYLAYER
 10
17.2438283699
 20
23.625
 40
6.4178413245
100
AcDbArc
 50
233.9641032688
 51
306.0358967312
  0
ARC
  5
28B
100
AcDbEntity
  8
0
100
AcDbCircle
 62
7
  6
BYLAYER
 10
17.2438283699
 20
23.625
 40
5.9728540609
100
AcDbArc
 50
234.6380871911
 51
305.3619128089
  0
ARC
  5
28C
100
AcDbEntity
  8
0
100
AcDbCircle
 62
7
  6
BYLAYER
 10
17.2438283699
 20
23.625
 40
5.9728540609
100
AcDbArc
 50
324.6380871911
 51
35.3619128089
  0
ARC
  5
28D
100
AcDbEntity
  8
0
100
AcDbCircle
 62
7
  6
BYLAYER
 10
17.2438283699
 20
23.625
 40
5.9728540609
100
AcDbArc
 50
54.6380871911
 51
125.3619128089
  0
ARC
  5
28E
100
AcDbEntity
  8
0
100
AcDbCircle
 62
7
  6
BYLAYER
 10
17.2438283699
 20
23.625
 40
5.9728540609
100
AcDbArc
 50
144.6380871911
 51
215.3619128089
  0
ARC
  5
28F
100
AcDbEntity
  8
0
100
AcDbCircle
 62
7
  6
BYLAYER
 10
17.2438283699
 20
23.625
 40
5.4804501844
100
AcDbArc
 50
145.5134750987
 51
214.4865245831
  0
ARC
  5
290
100
AcDbEntity
  8
0
100
AcDbCircle
 62
7
  6
BYLAYER
 10
17.2438283699
 20
23.625
 40
5.4804501844
100
AcDbArc
 50
55.5134751067
 51
124.48652444
  0
ARC
  5
291
100
AcDbEntity
  8
0
100
AcDbCircle
 62
7
  6
BYLAYER
 10
17.2438283699
 20
23.625
 40
5.4804501844
100
AcDbArc
 50
325.5134755684
 51
34.4865248917
  0
ARC
  5
292
100
AcDbEntity
  8
0
100
AcDbCircle
 62
7
  6
BYLAYER
 10
17.2438283699
 20
23.625
 40
5.4804501844
100
AcDbArc
 50
235.5134754135
 51
304.4865248956
  0
CIRCLE
  5
293
100
AcDbEntity
  8
0
100
AcDbCircle
 62
7
  6
BYLAYER
 10
17.2438283699
 20
23.625
 40
2.5
  0
CIRCLE
  5
294
100
AcDbEntity
  8
0
100
AcDbCircle
 62
7
  6
BYLAYER
 10
17.2438283699
 20
23.625
 40
1.9
  0
ARC
  5
295
100
AcDbEntity
  8
0
100
AcDbCircle
 62
7
  6
BYLAYER
 10
27.2438283699
 20
33.625
 40
2.0
100
AcDbArc
 50
344.9999999972
 51
22.9756871631
  0
ARC
  5
296
100
AcDbEntity
  8
0
100
AcDbCircle
 62
7
  6
BYLAYER
 10
27.2438283699
 20
33.625
 40
2.0
100
AcDbArc
 50
67.024312837
 51
105.0000000007
  0
ARC
  5
297
100
AcDbEntity
  8
0
100
AcDbCircle
 62
7
  6
BYLAYER
 10
27.2438283699
 20
33.625
 40
1.7477483636
100
AcDbArc
 50
70.4119519198
 51
19.5880480804
  0
ARC
  5
298
100
AcDbEntity
  8
0
100
AcDbCircle
 62
7
  6
BYLAYER
 10
27.2438283699
 20
33.625
 40
1.7372753246
100
AcDbArc
 50
70.5761618724
 51
19.4238381276
  0
CIRCLE
  5
299
100
AcDbEntity
  8
0
100
AcDbCircle
 62
7
  6
BYLAYER
 10
27.2438283699
 20
33.625
 40
1.5
  0
CIRCLE
  5
29A
100
AcDbEntity
  8
0
100
AcDbCircle
 62
7
  6
BYLAYER
 10
27.2438283699
 20
33.625
 40
1.3
  0
ARC
  5
29B
100
AcDbEntity
  8
0
100
AcDbCircle
 62
7
  6
BYLAYER
 10
30.0439787526
 20
36.4251503977
 40
0.6998464524
100
AcDbArc
 50
359.9956948457
 51
90.0043038724
  0
ARC
  5
29C
100
AcDbEntity
  8
0
100
AcDbCircle
 62
7
  6
BYLAYER
 10
30.2438283699
 20
36.625
 40
0.5
100
AcDbArc
 50
0.0
 51
90.0
  0
SPLINE
  5
29D
100
AcDbEntity
  8
0
100
AcDbSpline
 62
7
  6
BYLAYER
 70
0
 71
3
 72
26
 73
22
 74
0
 42
0.0000001
 43
0.0000001
 44
0.0000000001
 40
0.0
 40
0.0
 40
0.0
 40
0.0
 40
0.0003044412
 40
0.0012158728
 40
0.0027314563
 40
0.0048483536
 40
0.010874736
 40
0.0192723136
 40
0.0300183799
 40
0.0430902288
 40
0.0584651536
 40
0.0761204483
 40
0.1181213389
 40
0.1686114037
 40
0.2270491971
 40
0.2928932756
 40
0.3655680257
 40
0.4443611484
 40
0.6173167187
 40
0.805313056
 40
1.0
 40
1.0
 40
1.0
 40
1.0
 10
10.6323806389
 20
16.3064454878
 30
0.0
 10
10.6323914026
 20
16.3064562515
 30
0.0
 10
10.6322960772
 20
16.3064992554
 30
0.0
 10
10.6322499249
 20
16.3065957911
 30
0.0
 10
10.632060754
 20
16.3067564195
 30
0.0
 10
10.6317364451
 20
16.3070978337
 30
0.0
 10
10.6311387367
 20
16.307682534
 30
0.0
 10
10.630254839
 20
16.3085722919
 30
0.0
 10
10.6291133477
 20
16.3097111627
 30
0.0
 10
10.6277284432
 20
16.311096762
 30
0.0
 10
10.6260981867
 20
16.3127267106
 30
0.0
 10
10.6234456865
 20
16.3153795987
 30
0.0
 10
10.6195518368
 20
16.3192743553
 30
0.0
 10
10.614216043
 20
16.3246108274
 30
0.0
 10
10.6080363584
 20
16.3307894201
 30
0.0
 10
10.6010707705
 20
16.337750793
 30
0.0
 10
10.5933833913
 20
16.3454297193
 30
0.0
 10
10.5819089433
 20
16.3568955169
 30
0.0
 10
10.5663680762
 20
16.3724493954
 30
0.0
 10
10.5467718275
 20
16.3921427303
 30
0.0
 10
10.5332951575
 20
16.4057257081
 30
0.0
 10
10.5264431671
 20
16.4126400503
 30
0.0
  0
SPLINE
  5
29E
100
AcDbEntity
  8
0
100
AcDbSpline
 62
7
  6
BYLAYER
 70
0
 71
3
 72
9
 73
5
 74
0
 42
0.0000001
 43
0.0000001
 44
0.0000000001
 40
0.0
 40
0.0
 40
0.0
 40
0.0
 40
0.5010253052
 40
1.0
 40
1.0
 40
1.0
 40
1.0
 10
11.8214532467
 20
17.7076501299
 30
0.0
 10
11.8352402974
 20
17.6938630792
 30
0.0
 10
11.8576457529
 20
17.6606987196
 30
0.0
 10
11.8657105657
 20
17.6214735394
 30
0.0
 10
11.8658591921
 20
17.6020560754
 30
0.0
  0
SPLINE
  5
29F
100
AcDbEntity
  8
0
100
AcDbSpline
 62
7
  6
BYLAYER
 70
0
 71
3
 72
9
 73
5
 74
0
 42
0.0000001
 43
0.0000001
 44
0.0000000001
 40
0.0
 40
0.0
 40
0.0
 40
0.0
 40
0.501046019
 40
1.0
 40
1.0
 40
1.0
 40
1.0
 10
11.8658591921
 20
17.6020560754
 30
0.0
 10
11.8660069504
 20
17.5827520272
 30
0.0
 10
11.8586567112
 20
17.543765869
 30
0.0
 10
11.8366580559
 20
17.5107229048
 30
0.0
 10
11.8230646278
 20
17.4971294767
 30
0.0
  0
SPLINE
  5
2A0
100
AcDbEntity
  8
0
100
AcDbSpline
 62
7
  6
BYLAYER
 70
0
 71
3
 72
9
 73
5
 74
0
 42
0.0000001
 43
0.0000001
 44
0.0000000001
 40
0.0
 40
0.0
 40
0.0
 40
0.0
 40
0.4989746948
 40
1.0
 40
1.0
 40
1.0
 40
1.0
 10
11.5276129605
 20
17.2638098438
 30
0.0
 10
11.5274643341
 20
17.2832273078
 30
0.0
 10
11.5193995213
 20
17.322452488
 30
0.0
 10
11.4969940658
 20
17.3556168476
 30
0.0
 10
11.4832070151
 20
17.3694038984
 30
0.0
  0
SPLINE
  5
2A1
100
AcDbEntity
  8
0
100
AcDbSpline
 62
7
  6
BYLAYER
 70
0
 71
3
 72
13
 73
9
 74
0
 42
0.0000001
 43
0.0000001
 44
0.0000000001
 40
0.0
 40
0.0
 40
0.0
 40
0.0
 40
0.0864315158
 40
0.1805941114
 40
0.3451802904
 40
0.5414080061
 40
0.7638122646
 40
1.0
 40
1.0
 40
1.0
 40
1.0
 10
11.3742250606
 20
17.0482899095
 30
0.0
 10
11.3779899883
 20
17.0520548758
 30
0.0
 10
11.3843694115
 20
17.061512775
 30
0.0
 10
11.3898276556
 20
17.082381704
 30
0.0
 10
11.3873561728
 20
17.1108797214
 30
0.0
 10
11.3749722987
 20
17.1448729931
 30
0.0
 10
11.353963189
 20
17.1795589427
 30
0.0
 10
11.3355046225
 20
17.2011248842
 30
0.0
 10
11.3252163117
 20
17.211413195
 30
0.0
  0
SPLINE
  5
2A2
100
AcDbEntity
  8
0
100
AcDbSpline
 62
7
  6
BYLAYER
 70
0
 71
3
 72
11
 73
7
 74
0
 42
0.0000001
 43
0.0000001
 44
0.0000000001
 40
0.0
 40
0.0
 40
0.0
 40
0.0
 40
0.2438241529
 40
0.4913108957
 40
0.7438867015
 40
1.0
 40
1.0
 40
1.0
 40
1.0
 10
10.7505784198
 20
16.4246432687
 30
0.0
 10
10.7636862806
 20
16.4377510246
 30
0.0
 10
10.7847800408
 20
16.470100158
 30
0.0
 10
10.7943872062
 20
16.5273396458
 30
0.0
 10
10.7813312256
 20
16.5847430018
 30
0.0
 10
10.7588488669
 20
16.6175088224
 30
0.0
 10
10.745080403
 20
16.6312772863
 30
0.0
  0
SPLINE
  5
2A3
100
AcDbEntity
  8
0
100
AcDbSpline
 62
7
  6
BYLAYER
 70
0
 71
3
 72
9
 73
5
 74
0
 42
0.0000001
 43
0.0000001
 44
0.0000000001
 40
0.0
 40
0.0
 40
0.0
 40
0.0
 40
0.4989542597
 40
1.0
 40
1.0
 40
1.0
 40
1.0
 10
11.1159578466
 20
18.2042362579
 30
0.0
 10
11.1295516783
 20
18.2178300896
 30
0.0
 10
11.1625957961
 20
18.2398292256
 30
0.0
 10
11.2015832838
 20
18.2471790082
 30
0.0
 10
11.2208878803
 20
18.2470307958
 30
0.0
  0
SPLINE
  5
2A4
100
AcDbEntity
  8
0
100
AcDbSpline
 62
7
  6
BYLAYER
 70
0
 71
3
 72
9
 73
5
 74
0
 42
0.0000001
 43
0.0000001
 44
0.0000000001
 40
0.0
 40
0.0
 40
0.0
 40
0.0
 40
0.4989747473
 40
1.0
 40
1.0
 40
1.0
 40
1.0
 10
11.2208878803
 20
18.2470307958
 30
0.0
 10
11.2403047825
 20
18.2468817212
 30
0.0
 10
11.2795286241
 20
18.2388164844
 30
0.0
 10
11.3126918485
 20
18.2164115281
 30
0.0
 10
11.3264784998
 20
18.2026248768
 30
0.0
  0
SPLINE
  5
2A5
100
AcDbEntity
  8
0
100
AcDbSpline
 62
7
  6
BYLAYER
 70
0
 71
3
 72
13
 73
9
 74
0
 42
0.0000001
 43
0.0000001
 44
0.0000000001
 40
0.0
 40
0.0
 40
0.0
 40
0.0
 40
0.0864314889
 40
0.1805936624
 40
0.3451791742
 40
0.5414067442
 40
0.7638114577
 40
1.0
 40
1.0
 40
1.0
 40
1.0
 10
10.6671172663
 20
17.7553956776
 30
0.0
 10
10.6708821357
 20
17.7591607573
 30
0.0
 10
10.6803398937
 20
17.7655405145
 30
0.0
 10
10.7012088131
 20
17.7709992486
 30
0.0
 10
10.729707031
 20
17.7685280877
 30
0.0
 10
10.7637006212
 20
17.7561443221
 30
0.0
 10
10.7983869589
 20
17.7351351102
 30
0.0
 10
10.8199531421
 20
17.716676368
 30
0.0
 10
10.8302415666
 20
17.7063879435
 30
0.0
  0
SPLINE
  5
2A6
100
AcDbEntity
  8
0
100
AcDbSpline
 62
7
  6
BYLAYER
 70
0
 71
3
 72
9
 73
5
 74
0
 42
0.0000001
 43
0.0000001
 44
0.0000000001
 40
0.0
 40
0.0
 40
0.0
 40
0.0
 40
0.5010253052
 40
1.0
 40
1.0
 40
1.0
 40
1.0
 10
10.9882322685
 20
17.8643786454
 30
0.0
 10
10.9744452177
 20
17.8781656961
 30
0.0
 10
10.9412808581
 20
17.9005711516
 30
0.0
 10
10.902055678
 20
17.9086359644
 30
0.0
 10
10.8826382139
 20
17.9087845908
 30
0.0
  0
SPLINE
  5
2A7
100
AcDbEntity
  8
0
100
AcDbSpline
 62
7
  6
BYLAYER
 70
0
 71
3
 72
11
 73
7
 74
0
 42
0.0000001
 43
0.0000001
 44
0.0000000001
 40
0.0
 40
0.0
 40
0.0
 40
0.0
 40
0.2438241548
 40
0.4913109201
 40
0.7438867268
 40
1.0
 40
1.0
 40
1.0
 40
1.0
 10
10.0434722984
 20
17.1317507096
 30
0.0
 10
10.0565800926
 20
17.1448584274
 30
0.0
 10
10.0889292165
 20
17.1659519015
 30
0.0
 10
10.1461685027
 20
17.1755587893
 30
0.0
 10
10.2035715855
 20
17.1625027275
 30
0.0
 10
10.2363372489
 20
17.1400204405
 30
0.0
 10
10.2501056562
 20
17.1262520332
 30
0.0
  0
ENDSEC
  0
SECTION
  2
OBJECTS
  0
DICTIONARY
  5
C
100
AcDbDictionary
280
0
281
1
  3
ACAD_GROUP
350
D
  3
ACAD_MLINESTYLE
350
17
  3
ACAD_LAYOUT
350
1A
  3
ACAD_PLOTSETTINGS
350
19
  3
ACAD_PLOTSTYLENAME
350
E
  0
DICTIONARY
  5
D
102
{ACAD_REACTORS
330
C
102
}
100
AcDbDictionary
280
0
281
1
  0
ACDBDICTIONARYWDFLT
  5
E
102
{ACAD_REACTORS
330
C
102
}
100
AcDbDictionary
281
1
  3
Normal
350
F
100
AcDbDictionaryWithDefault
340
F
  0
DICTIONARY
  5
17
102
{ACAD_REACTORS
330
C
102
}
100
AcDbDictionary
280
0
281
1
  3
Standard
350
18
  0
DICTIONARY
  5
19
102
{ACAD_REACTORS
330
C
102
}
100
AcDbDictionary
281
1
  0
DICTIONARY
  5
1A
102
{ACAD_REACTORS
330
C
102
}
100
AcDbDictionary
281
1
  3
Model
350
2A8
  3
Layout1
350
2A9
  0
ACDBPLACEHOLDER
  5
F
102
{ACAD_REACTORS
330
E
102
}
  0
MLINESTYLE
  5
18
102
{ACAD_REACTORS
330
17
102
}
100
AcDbMlineStyle
  2
STANDARD
 70
0
  3

 62
256
 51
90.0
 52
90.0
 71
2
 49
0.5
 62
256
  6
BYLAYER
 49
-0.5
 62
256
  6
BYLAYER
  0
LAYOUT
  5
2A8
102
{ACAD_REACTORS
330
1A
102
}
100
AcDbPlotSettings
  1

  2
none_device
  4

  6

 40
0.0
 41
0.0
 42
0.0
 43
0.0
 44
210.0
 45
297.0
 46
0.0
 47
0.0
 48
0.0
 49
0.0
140
0.0
141
0.0
142
1.0
143
1.0
 70
1024
 72
1
 73
0
 74
0
  7

 75
0
147
1.0
148
0.0
149
0.0
100
AcDbLayout
  1
Model
 70
0
 71
0
 10
0.0
 20
0.0
 11
210.0
 21
297.0
 12
0.0
 22
0.0
 32
0.0
 14
0.0
 24
0.0
 34
0.0
 15
0.0
 25
0.0
 35
0.0
146
0.0
 13
0.0
 23
0.0
 33
0.0
 16
1.0
 26
0.0
 36
0.0
 17
0.0
 27
1.0
 37
0.0
 76
0
330
210
345
0
346
0
  0
LAYOUT
  5
2A9
102
{ACAD_REACTORS
330
1A
102
}
100
AcDbPlotSettings
  1

  2
none_device
  4

  6

 40
0.0
 41
0.0
 42
0.0
 43
0.0
 44
210.0
 45
297.0
 46
0.0
 47
0.0
 48
0.0
 49
0.0
140
0.0
141
0.0
142
1.0
143
1.0
 70
0
 72
1
 73
0
 74
0
  7

 75
0
147
1.0
148
0.0
149
0.0
100
AcDbLayout
  1
Layout1
 70
0
 71
1
 10
0.0
 20
0.0
 11
210.0
 21
297.0
 12
0.0
 22
0.0
 32
0.0
 14
0.0
 24
0.0
 34
0.0
 15
0.0
 25
0.0
 35
0.0
146
0.0
 13
0.0
 23
0.0
 33
0.0
 16
1.0
 26
0.0
 36
0.0
 17
0.0
 27
1.0
 37
0.0
 76
0
330
211
345
0
346
0
  0
ENDSEC
  0
EOF
