999
DXF file: C:\Users\sesa63760\Dev\_Creo\CAD\MCADID0004420_3D-CAD\drw0001_1.dxf
999
Pro/ENGINEER 2019471 by Parametric Technology Corporation
  0
SECTION
  2
HEADER
  9
$ACADVER
  1
AC1024
  9
$DWGCODEPAGE
  3
ANSI_1252
  9
$EXTMAX
 10
80.3693691909
 20
113.6652507129
 30
0.0
  9
$EXTMIN
 10
0.0
 20
0.0
 30
0.0
  9
$LIMMIN
 10
0.0
 20
0.0
  9
$LIMMAX
 10
80.3693691909
 20
113.6652507129
  9
$VIEWCTR
 10
40.1846845955
 20
56.8326253565
  9
$VIEWSIZE
 40
113.6652507129
  9
$CLAYER
  8
0
  9
$LTSCALE
 40
7.4092904168
  9
$CELTYPE
  6
BYLAYER
  9
$DIMSCALE
 40
1.0
  9
$DIMASZ
 40
0.9567782047
  9
$DIMEXO
 40
1.0
  9
$DIMDLI
 40
5.1191461062
  9
$DIMEXE
 40
1.0
  9
$DIMCEN
 40
1.2124293409
  9
$DIMLFAC
 40
1.0
  9
$DIMBLK
  1
_FILLED
  9
$DIMALT
 70
0
  9
$DIMALTF
 40
0.0393700787
  9
$DIMTXT
 40
1.3394894865
  9
$DIMTOL
 70
1
  9
$DIMLIM
 70
0
  9
$DIMTFAC
 40
1.0
  9
$DIMTP
 40
0.01
  9
$DIMTM
 40
0.01
  9
$DIMGAP
 40
0.625
  9
$DIMDSEP
 70
46
  9
$AUNITS
 70
0
  9
$PDMODE
 70
3
  9
$PDSIZE
 40
0.3125
  9
$HANDSEED
  5
259
  9
$TILEMODE
 70
1
  9
$MEASUREMENT
 70
1
  9
$INSUNITS
 70
4
  0
ENDSEC
  0
SECTION
  2
CLASSES
  0
CLASS
  1
ACDBDICTIONARYWDFLT
  2
AcDbDictionaryWithDefault
  3
AutoCAD 2000
 90
0
 91
1
280
0
281
0
  0
CLASS
  1
ACDBPLACEHOLDER
  2
AcDbPlaceHolder
  3
AutoCAD 2000
 90
0
 91
1
280
0
281
0
  0
CLASS
  1
LAYOUT
  2
AcDbLayout
  3
AutoCAD 2000
 90
0
 91
0
280
0
281
0
  0
ENDSEC
  0
SECTION
  2
TABLES
  0
TABLE
  2
VPORT
  5
8
100
AcDbSymbolTable
 70
2
  0
VPORT
  5
1F4
100
AcDbSymbolTableRecord
100
AcDbViewportTableRecord
  2
*ACTIVE
 70
0
 10
0.0
 20
0.0
 11
1.0
 21
1.0
 12
40.1846845955
 22
56.8326253565
 13
0.0
 23
0.0
 14
1.0
 24
1.0
 15
0.0
 25
0.0
 16
0.0
 26
0.0
 36
1.0
 17
0.0
 27
0.0
 37
0.0
 40
113.6652507129
 41
0.7070707071
 42
50.0
 43
0.0
 44
0.0
 50
0.0
 51
0.0
 71
0
 72
100
 73
1
 74
1
 75
0
 76
0
 77
0
 78
0
  0
ENDTAB
  0
TABLE
  2
LTYPE
  5
5
100
AcDbSymbolTable
 70
6
  0
LTYPE
  5
14
100
AcDbSymbolTableRecord
100
AcDbLinetypeTableRecord
  2
BYBLOCK
 70
0
  3

 72
65
 73
0
 40
0.0
  0
LTYPE
  5
15
100
AcDbSymbolTableRecord
100
AcDbLinetypeTableRecord
  2
BYLAYER
 70
0
  3

 72
65
 73
0
 40
0.0
  0
LTYPE
  5
16
100
AcDbSymbolTableRecord
100
AcDbLinetypeTableRecord
  2
CONTINUOUS
 70
64
  3
Solid line
 72
65
 73
0
 40
0.0
  0
LTYPE
  5
1F5
100
AcDbSymbolTableRecord
100
AcDbLinetypeTableRecord
  2
CENTER
 70
64
  3
____ _ ____ _ ____ _ ____ _ ____ _ ____ _ ____
 72
65
 73
4
 40
0.6
 49
0.375
 74
0
 49
-0.075
 74
0
 49
0.075
 74
0
 49
-0.075
 74
0
  0
LTYPE
  5
1F6
100
AcDbSymbolTableRecord
100
AcDbLinetypeTableRecord
  2
HIDDEN
 70
64
  3
- - - - - - - - - - - - - - - - - - - -
 72
65
 73
2
 40
0.2
 49
0.1
 74
0
 49
-0.1
 74
0
  0
LTYPE
  5
1F7
100
AcDbSymbolTableRecord
100
AcDbLinetypeTableRecord
  2
PHANTOM
 70
64
  3
_____ _ _ _____ _ _ _____ _ _ _____
 72
65
 73
6
 40
0.8
 49
0.45
 74
0
 49
-0.05
 74
0
 49
0.1
 74
0
 49
-0.05
 74
0
 49
0.1
 74
0
 49
-0.05
 74
0
  0
LTYPE
  5
1F8
100
AcDbSymbolTableRecord
100
AcDbLinetypeTableRecord
  2
DOT
 70
64
  3
. . . . . . . . . . . . . . . . . . . .
 72
65
 73
2
 40
0.2
 49
0.1
 74
0
 49
-0.1
 74
0
  0
LTYPE
  5
1F9
100
AcDbSymbolTableRecord
100
AcDbLinetypeTableRecord
  2
DASHED
 70
64
  3
- - - - - - - - - - - - - - - - - - - -
 72
65
 73
2
 40
0.2
 49
0.1
 74
0
 49
-0.1
 74
0
  0
ENDTAB
  0
TABLE
  2
LAYER
  5
2
100
AcDbSymbolTable
 70
36
  0
LAYER
  5
10
100
AcDbSymbolTableRecord
100
AcDbLayerTableRecord
  2
0
 70
0
 62
7
  6
CONTINUOUS
370
-3
390
F
  0
LAYER
  5
1FA
100
AcDbSymbolTableRecord
100
AcDbLayerTableRecord
  2
DEFAULT_1
 70
0
 62
7
  6
CENTER
370
-3
390
F
  0
LAYER
  5
1FB
100
AcDbSymbolTableRecord
100
AcDbLayerTableRecord
  2
DEFAULT_2
 70
0
 62
7
  6
HIDDEN
370
-3
390
F
  0
LAYER
  5
1FC
100
AcDbSymbolTableRecord
100
AcDbLayerTableRecord
  2
DEFAULT_3
 70
0
 62
7
  6
PHANTOM
370
-3
390
F
  0
LAYER
  5
1FD
100
AcDbSymbolTableRecord
100
AcDbLayerTableRecord
  2
00_COMPONENTS
 70
0
 62
7
  6
CONTINUOUS
370
-3
390
F
  0
LAYER
  5
1FE
100
AcDbSymbolTableRecord
100
AcDbLayerTableRecord
  2
01_1_DEFAULT_DATUMS
 70
0
 62
7
  6
CONTINUOUS
370
-3
390
F
  0
LAYER
  5
1FF
100
AcDbSymbolTableRecord
100
AcDbLayerTableRecord
  2
01_PLANES
 70
0
 62
7
  6
CONTINUOUS
370
-3
390
F
  0
LAYER
  5
200
100
AcDbSymbolTableRecord
100
AcDbLayerTableRecord
  2
02_COORD_SYS
 70
0
 62
7
  6
CONTINUOUS
370
-3
390
F
  0
LAYER
  5
201
100
AcDbSymbolTableRecord
100
AcDbLayerTableRecord
  2
03_AXES
 70
0
 62
7
  6
CONTINUOUS
370
-3
390
F
  0
LAYER
  5
202
100
AcDbSymbolTableRecord
100
AcDbLayerTableRecord
  2
04_POINTS
 70
0
 62
7
  6
CONTINUOUS
370
-3
390
F
  0
LAYER
  5
203
100
AcDbSymbolTableRecord
100
AcDbLayerTableRecord
  2
05_CURVES
 70
0
 62
7
  6
CONTINUOUS
370
-3
390
F
  0
LAYER
  5
204
100
AcDbSymbolTableRecord
100
AcDbLayerTableRecord
  2
06_SURFS
 70
0
 62
7
  6
CONTINUOUS
370
-3
390
F
  0
LAYER
  5
205
100
AcDbSymbolTableRecord
100
AcDbLayerTableRecord
  2
07_COSMETICS
 70
0
 62
7
  6
CONTINUOUS
370
-3
390
F
  0
LAYER
  5
206
100
AcDbSymbolTableRecord
100
AcDbLayerTableRecord
  2
10_NOTES
 70
0
 62
7
  6
CONTINUOUS
370
-3
390
F
  0
LAYER
  5
207
100
AcDbSymbolTableRecord
100
AcDbLayerTableRecord
  2
11_NOTES_PUB
 70
0
 62
7
  6
CONTINUOUS
370
-3
390
F
  0
LAYER
  5
208
100
AcDbSymbolTableRecord
100
AcDbLayerTableRecord
  2
13_REF_GTOL
 70
0
 62
7
  6
CONTINUOUS
370
-3
390
F
  0
LAYER
  5
209
100
AcDbSymbolTableRecord
100
AcDbLayerTableRecord
  2
16_MISC
 70
0
 62
7
  6
CONTINUOUS
370
-3
390
F
  0
LAYER
  5
20A
100
AcDbSymbolTableRecord
100
AcDbLayerTableRecord
  2
17_NO_PRINT
 70
0
 62
7
  6
CONTINUOUS
370
-3
390
F
  0
LAYER
  5
20B
100
AcDbSymbolTableRecord
100
AcDbLayerTableRecord
  2
18_DATUM_CAMS_JOINTS
 70
0
 62
7
  6
CONTINUOUS
370
-3
390
F
  0
LAYER
  5
20C
100
AcDbSymbolTableRecord
100
AcDbLayerTableRecord
  2
19_DATUM_FUNCTIONAL
 70
0
 62
7
  6
CONTINUOUS
370
-3
390
F
  0
LAYER
  5
20D
100
AcDbSymbolTableRecord
100
AcDbLayerTableRecord
  2
20_DATUM_KINEMATIC_SCHEME
 70
0
 62
7
  6
CONTINUOUS
370
-3
390
F
  0
ENDTAB
  0
TABLE
  2
STYLE
  5
3
100
AcDbSymbolTable
 70
1
  0
STYLE
  5
11
100
AcDbSymbolTableRecord
100
AcDbTextStyleTableRecord
  2
STANDARD
 70
0
 40
0.0
 41
1.0
 50
0.0
 71
0
 42
0.2
  3
ARIAL.TTF
  4

  0
STYLE
  5
20E
100
AcDbSymbolTableRecord
100
AcDbTextStyleTableRecord
  2
TEXTSTYLE_1
 70
0
 40
0.0
 41
0.8
 50
0.0
 71
0
 42
0.2
  3
gdt
  4

  0
ENDTAB
  0
TABLE
  2
VIEW
  5
6
100
AcDbSymbolTable
 70
0
  0
ENDTAB
  0
TABLE
  2
UCS
  5
7
100
AcDbSymbolTable
 70
0
  0
ENDTAB
  0
TABLE
  2
APPID
  5
9
100
AcDbSymbolTable
 70
1
  0
APPID
  5
20F
100
AcDbSymbolTableRecord
100
AcDbRegAppTableRecord
  2
ACAD
 70
0
  0
ENDTAB
  0
TABLE
  2
BLOCK_RECORD
  5
1
100
AcDbSymbolTable
 70
0
  0
BLOCK_RECORD
  5
210
100
AcDbSymbolTableRecord
100
AcDbBlockTableRecord
  2
*Model_Space
  0
BLOCK_RECORD
  5
211
100
AcDbSymbolTableRecord
100
AcDbBlockTableRecord
  2
*Paper_Space
  0
BLOCK_RECORD
  5
212
100
AcDbSymbolTableRecord
100
AcDbBlockTableRecord
  2
_FILLED
  0
ENDTAB
  0
TABLE
  2
DIMSTYLE
  5
A
100
AcDbSymbolTable
 70
1
100
AcDbDimStyleTable
 71
0
  0
DIMSTYLE
105
213
100
AcDbSymbolTableRecord
100
AcDbDimStyleTableRecord
  2
STANDARD
 70
0
  3

  4

 40
1.0
 41
0.9567782047
 42
1.0
 43
0.38
 44
1.0
 45
0.0
 46
0.0
 47
0.01
 48
0.01
140
1.3394894865
141
0.09
142
0.0
143
25.4
144
1.0
145
0.0
146
1.0
147
0.625
 71
1
 72
0
 73
0
 74
0
 75
0
 76
0
 77
1
 78
8
 79
2
170
0
171
1
172
0
173
0
174
0
175
0
176
0
177
0
178
0
270
2
179
2
271
2
272
2
273
2
274
2
275
0
280
0
281
0
282
0
283
1
284
8
285
0
286
0
287
3
288
0
340
11
278
46
341
212
342
212
343
212
344
212
  0
ENDTAB
  0
ENDSEC
  0
SECTION
  2
BLOCKS
  0
BLOCK
  5
20
100
AcDbEntity
  8
0
100
AcDbBlockBegin
  2
*Model_Space
 70
0
 10
0.0
 20
0.0
 30
0.0
  3
*Model_Space
  1

  0
ENDBLK
  5
21
100
AcDbEntity
  8
0
100
AcDbBlockEnd
  0
BLOCK
  5
1C
100
AcDbEntity
  8
0
100
AcDbBlockBegin
  2
*Paper_Space
 70
0
 10
0.0
 20
0.0
 30
0.0
  3
*Paper_Space
  1

  0
ENDBLK
  5
1D
100
AcDbEntity
  8
0
100
AcDbBlockEnd
  0
BLOCK
  5
214
100
AcDbEntity
  8
0
100
AcDbBlockBegin
  2
_FILLED
 70
64
 10
0.0
 20
0.0
  3
_FILLED
  1

  0
SOLID
  5
215
100
AcDbEntity
  8
0
  6
BYBLOCK
 62
0
100
AcDbTrace
 10
0.0
 20
0.0
 11
-1.0
 21
0.25
 12
-1.0
 22
-0.25
 13
-1.0
 23
-0.25
  0
ENDBLK
  5
216
100
AcDbEntity
  8
0
  6
BYBLOCK
 62
0
100
AcDbBlockEnd
  0
ENDSEC
  0
SECTION
  2
ENTITIES
  0
LINE
  5
217
100
AcDbEntity
  8
0
100
AcDbLine
 62
7
  6
BYLAYER
 10
12.8966755471
 20
83.0990927366
 11
19.9677139192
 21
87.1815342753
  0
LINE
  5
218
100
AcDbEntity
  8
0
100
AcDbLine
 62
7
  6
BYLAYER
 10
9.3170332903
 20
65.4933061539
 11
9.3239179593
 21
64.7161297613
  0
LINE
  5
219
100
AcDbEntity
  8
0
100
AcDbLine
 62
7
  6
BYLAYER
 10
12.1966368603
 20
59.9300277145
 11
12.1966368603
 21
64.63467846
  0
LINE
  5
21A
100
AcDbEntity
  8
0
100
AcDbLine
 62
7
  6
BYLAYER
 10
12.8966755471
 20
83.0990927366
 11
12.8966755471
 21
74.1175661481
  0
LINE
  5
21B
100
AcDbEntity
  8
0
100
AcDbLine
 62
7
  6
BYLAYER
 10
12.8966755471
 20
72.4844796636
 11
12.8966755471
 21
56.9709337382
  0
LINE
  5
21C
100
AcDbEntity
  8
0
100
AcDbLine
 62
7
  6
BYLAYER
 10
13.2502304096
 20
73.9134457709
 11
13.2502304096
 21
72.2803592864
  0
LINE
  5
21D
100
AcDbEntity
  8
0
100
AcDbLine
 62
7
  6
BYLAYER
 10
12.1966368603
 20
64.63467846
 11
12.8966755471
 21
65.5055413084
  0
LINE
  5
21E
100
AcDbEntity
  8
0
100
AcDbLine
 62
7
  6
BYLAYER
 10
12.8966755471
 20
72.4844796636
 11
13.2502304096
 21
72.6886034403
  0
LINE
  5
21F
100
AcDbEntity
  8
0
100
AcDbLine
 62
7
  6
BYLAYER
 10
12.1521868466
 20
69.6482681328
 11
12.1808978774
 21
69.664676084
  0
LINE
  5
220
100
AcDbEntity
  8
0
100
AcDbLine
 62
7
  6
BYLAYER
 10
11.4824266571
 20
69.2694745947
 11
12.1521147343
 21
69.6483956242
  0
LINE
  5
221
100
AcDbEntity
  8
0
100
AcDbLine
 62
7
  6
BYLAYER
 10
24.2104311494
 20
65.1362068244
 11
24.9174642762
 21
66.3608309208
  0
LINE
  5
222
100
AcDbEntity
  8
0
100
AcDbLine
 62
7
  6
BYLAYER
 10
24.9174642762
 20
66.3608309208
 11
26.3318676947
 21
67.1774322408
  0
LINE
  5
223
100
AcDbEntity
  8
0
100
AcDbLine
 62
7
  6
BYLAYER
 10
12.8966755471
 20
56.9709337382
 11
65.2227952079
 21
26.7611179037
  0
LINE
  5
224
100
AcDbEntity
  8
0
100
AcDbLine
 62
7
  6
BYLAYER
 10
12.9037465854
 20
59.52178696
 11
12.1966368603
 21
59.9300277145
  0
LINE
  5
225
100
AcDbEntity
  8
0
100
AcDbLine
 62
7
  6
BYLAYER
 10
10.1522207806
 20
62.9181372576
 11
12.1966368603
 21
61.737819786
  0
LINE
  5
226
100
AcDbEntity
  8
0
100
AcDbLine
 62
7
  6
BYLAYER
 10
12.9037465854
 20
64.2264377054
 11
12.1966368603
 21
64.63467846
  0
LINE
  5
227
100
AcDbEntity
  8
0
100
AcDbLine
 62
7
  6
BYLAYER
 10
24.2104311494
 20
65.1362068244
 11
65.222724497
 21
41.4582838863
  0
LINE
  5
228
100
AcDbEntity
  8
0
100
AcDbLine
 62
7
  6
BYLAYER
 10
13.2502304096
 20
72.2803592864
 11
12.8966755471
 21
72.4844796636
  0
LINE
  5
229
100
AcDbEntity
  8
0
100
AcDbLine
 62
7
  6
BYLAYER
 10
65.2227186096
 20
43.0911079131
 11
24.9174642762
 21
66.3608309208
  0
LINE
  5
22A
100
AcDbEntity
  8
0
100
AcDbLine
 62
7
  6
BYLAYER
 10
12.8966755471
 20
74.1175661481
 11
13.2502304096
 21
73.9134457709
  0
LINE
  5
22B
100
AcDbEntity
  8
0
100
AcDbLine
 62
7
  6
BYLAYER
 10
65.2227952079
 20
44.7242527308
 11
24.2104311494
 21
68.4022164929
  0
LINE
  5
22C
100
AcDbEntity
  8
0
100
AcDbLine
 62
7
  6
BYLAYER
 10
69.4653639079
 20
47.1736862906
 11
72.2937628691
 21
45.540725425
  0
LINE
  5
22D
100
AcDbEntity
  8
0
100
AcDbLine
 62
7
  6
BYLAYER
 10
65.2227952079
 20
52.8892769021
 11
12.8966755471
 21
83.0990927366
  0
LINE
  5
22E
100
AcDbEntity
  8
0
100
AcDbLine
 62
7
  6
BYLAYER
 10
65.2227952079
 20
52.8892769021
 11
72.2938335801
 21
56.9717184408
  0
LINE
  5
22F
100
AcDbEntity
  8
0
100
AcDbLine
 62
7
  6
BYLAYER
 10
72.2938335801
 20
56.9717184408
 11
19.9677139192
 21
87.1815342753
  0
LINE
  5
230
100
AcDbEntity
  8
0
100
AcDbLine
 62
7
  6
BYLAYER
 10
65.2227952079
 20
44.7242527308
 11
72.2938335801
 21
48.8066942695
  0
LINE
  5
231
100
AcDbEntity
  8
0
100
AcDbLine
 62
7
  6
BYLAYER
 10
65.2227952079
 20
26.7611179037
 11
65.2227186096
 21
43.0911079131
  0
LINE
  5
232
100
AcDbEntity
  8
0
100
AcDbLine
 62
7
  6
BYLAYER
 10
65.2227952079
 20
44.7242527308
 11
65.2227952079
 21
52.8892769021
  0
LINE
  5
233
100
AcDbEntity
  8
0
100
AcDbLine
 62
7
  6
BYLAYER
 10
65.2227186096
 20
43.0911079131
 11
70.8796907281
 21
46.3571427929
  0
LINE
  5
234
100
AcDbEntity
  8
0
100
AcDbLine
 62
7
  6
BYLAYER
 10
65.2227244975
 20
41.4581205876
 11
72.2939042905
 21
45.5406437751
  0
LINE
  5
235
100
AcDbEntity
  8
0
100
AcDbLine
 62
7
  6
BYLAYER
 10
72.2938335801
 20
30.8435594424
 11
72.2938335801
 21
45.5406029507
  0
LINE
  5
236
100
AcDbEntity
  8
0
100
AcDbLine
 62
7
  6
BYLAYER
 10
72.2938335801
 20
48.8066942695
 11
72.2938335801
 21
56.9717184408
  0
LINE
  5
237
100
AcDbEntity
  8
0
100
AcDbLine
 62
7
  6
BYLAYER
 10
65.2227952079
 20
26.7611179037
 11
72.2938335801
 21
30.8435594424
  0
ARC
  5
238
100
AcDbEntity
  8
0
100
AcDbCircle
 62
7
  6
BYLAYER
 10
67.5956758483
 20
45.3285528455
 40
0.542149009
100
AcDbArc
 50
13.4038878605
 51
18.6289891361
  0
SPLINE
  5
239
100
AcDbEntity
  8
0
100
AcDbSpline
 62
7
  6
BYLAYER
 70
0
 71
3
 72
9
 73
5
 74
0
 42
0.0000001
 43
0.0000001
 44
0.0000000001
 40
0.0
 40
0.0
 40
0.0
 40
0.0
 40
0.247313099
 40
1.0
 40
1.0
 40
1.0
 40
1.0
 10
68.1369537758
 20
45.5406069633
 30
0.0
 10
68.1369478975
 20
45.5258082102
 30
0.0
 10
68.1342898153
 20
45.4659871514
 30
0.0
 10
68.1208353826
 20
45.4067509388
 30
0.0
 10
68.1055898037
 20
45.3643703064
 30
0.0
  0
SPLINE
  5
23A
100
AcDbEntity
  8
0
100
AcDbSpline
 62
7
  6
BYLAYER
 70
0
 71
3
 72
11
 73
7
 74
0
 42
0.0000001
 43
0.0000001
 44
0.0000000001
 40
0.0
 40
0.0
 40
0.0
 40
0.0
 40
0.2212023972
 40
0.4597731379
 40
0.7192971959
 40
1.0
 40
1.0
 40
1.0
 40
1.0
 10
68.1055898037
 20
45.3643703064
 30
0.0
 10
68.0904006911
 20
45.3221466428
 30
0.0
 10
68.0481182128
 20
45.2380140964
 30
0.0
 10
67.9570755602
 20
45.1229629151
 30
0.0
 10
67.8386880493
 20
45.0173699633
 30
0.0
 10
67.7469636753
 20
44.9567169359
 30
0.0
 10
67.6976498063
 20
44.9282457303
 30
0.0
  0
SPLINE
  5
23B
100
AcDbEntity
  8
0
100
AcDbSpline
 62
7
  6
BYLAYER
 70
0
 71
3
 72
11
 73
7
 74
0
 42
0.0000001
 43
0.0000001
 44
0.0000000001
 40
0.0
 40
0.0
 40
0.0
 40
0.0
 40
0.217751359
 40
0.4508943812
 40
0.7104652431
 40
1.0
 40
1.0
 40
1.0
 40
1.0
 10
24.4175602124
 20
68.0434421128
 30
0.0
 10
24.4505408165
 20
68.0624833679
 30
0.0
 10
24.5262945301
 20
68.0900711431
 30
0.0
 10
24.6522283028
 20
68.0932288757
 30
0.0
 10
24.7863727312
 20
68.0607588695
 30
0.0
 10
24.8736818873
 20
68.0192762556
 30
0.0
 10
24.9175349866
 20
67.9939582297
 30
0.0
  0
SPLINE
  5
23C
100
AcDbEntity
  8
0
100
AcDbSpline
 62
7
  6
BYLAYER
 70
0
 71
3
 72
18
 73
14
 74
0
 42
0.0000001
 43
0.0000001
 44
0.0000000001
 40
0.0
 40
0.0
 40
0.0
 40
0.0
 40
0.0428479429
 40
0.0874623066
 40
0.1352840435
 40
0.1872323096
 40
0.2437220832
 40
0.3047263631
 40
0.4383562007
 40
0.5826594577
 40
0.729784539
 40
0.8713400481
 40
1.0
 40
1.0
 40
1.0
 40
1.0
 10
15.4322320615
 20
67.276390529
 30
0.0
 10
15.4815364507
 20
67.3048612292
 30
0.0
 10
15.5902362863
 20
67.3499967271
 30
0.0
 10
15.7696389844
 20
67.3763326687
 30
0.0
 10
15.962299428
 20
67.3621230613
 30
0.0
 10
16.163928154
 20
67.3085671174
 30
0.0
 10
16.3705888436
 20
67.2172562847
 30
0.0
 10
16.6558545383
 20
67.0426338424
 30
0.0
 10
16.9957030535
 20
66.7416650254
 30
0.0
 10
17.3449700854
 20
66.2945355545
 30
0.0
 10
17.6201085422
 20
65.7860518105
 30
0.0
 10
17.7986177323
 20
65.2582815243
 30
0.0
 10
17.8464436231
 20
64.8988184397
 30
0.0
 10
17.8464436231
 20
64.7278615295
 30
0.0
  0
SPLINE
  5
23D
100
AcDbEntity
  8
0
100
AcDbSpline
 62
7
  6
BYLAYER
 70
0
 71
3
 72
18
 73
14
 74
0
 42
0.0000001
 43
0.0000001
 44
0.0000000001
 40
0.0
 40
0.0
 40
0.0
 40
0.0
 40
0.0428479429
 40
0.0874623066
 40
0.1352840435
 40
0.1872323096
 40
0.2437220832
 40
0.3047263631
 40
0.4383562007
 40
0.5826594577
 40
0.729784539
 40
0.8713400481
 40
1.0
 40
1.0
 40
1.0
 40
1.0
 10
15.4322320615
 20
72.1754050318
 30
0.0
 10
15.4815364507
 20
72.203875732
 30
0.0
 10
15.5902362863
 20
72.2490112299
 30
0.0
 10
15.7696389844
 20
72.2753471715
 30
0.0
 10
15.962299428
 20
72.2611375641
 30
0.0
 10
16.163928154
 20
72.2075816201
 30
0.0
 10
16.3705888436
 20
72.1162707874
 30
0.0
 10
16.6558545383
 20
71.9416483452
 30
0.0
 10
16.9957030535
 20
71.6406795282
 30
0.0
 10
17.3449700854
 20
71.1935500573
 30
0.0
 10
17.6201085422
 20
70.6850663132
 30
0.0
 10
17.7986177323
 20
70.1572960271
 30
0.0
 10
17.8464436231
 20
69.7978329425
 30
0.0
 10
17.8464436231
 20
69.6268760322
 30
0.0
  0
SPLINE
  5
23E
100
AcDbEntity
  8
0
100
AcDbSpline
 62
7
  6
BYLAYER
 70
0
 71
3
 72
18
 73
14
 74
0
 42
0.0000001
 43
0.0000001
 44
0.0000000001
 40
0.0
 40
0.0
 40
0.0
 40
0.0
 40
0.0428479429
 40
0.0874623066
 40
0.1352840435
 40
0.1872323096
 40
0.2437220832
 40
0.3047263631
 40
0.4383562007
 40
0.5826594577
 40
0.729784539
 40
0.8713400481
 40
1.0
 40
1.0
 40
1.0
 40
1.0
 10
15.4322320615
 20
78.7074243688
 30
0.0
 10
15.4815364507
 20
78.735895069
 30
0.0
 10
15.5902362863
 20
78.781030567
 30
0.0
 10
15.7696389844
 20
78.8073665085
 30
0.0
 10
15.962299428
 20
78.7931569011
 30
0.0
 10
16.163928154
 20
78.7396009572
 30
0.0
 10
16.3705888436
 20
78.6482901245
 30
0.0
 10
16.6558545383
 20
78.4736676822
 30
0.0
 10
16.9957030535
 20
78.1726988652
 30
0.0
 10
17.3449700854
 20
77.7255693943
 30
0.0
 10
17.6201085422
 20
77.2170856503
 30
0.0
 10
17.7986177323
 20
76.6893153641
 30
0.0
 10
17.8464436231
 20
76.3298522795
 30
0.0
 10
17.8464436231
 20
76.1588953693
 30
0.0
  0
SPLINE
  5
23F
100
AcDbEntity
  8
0
100
AcDbSpline
 62
7
  6
BYLAYER
 70
0
 71
3
 72
11
 73
7
 74
0
 42
0.0000001
 43
0.0000001
 44
0.0000000001
 40
0.0
 40
0.0
 40
0.0
 40
0.0
 40
0.2897016594
 40
0.5490895814
 40
0.7822189142
 40
1.0
 40
1.0
 40
1.0
 40
1.0
 10
60.2730271319
 20
40.2334162582
 30
0.0
 10
60.2730271319
 20
40.1320803263
 30
0.0
 10
60.2576632221
 20
39.9393598718
 30
0.0
 10
60.179617833
 20
39.6745701144
 30
0.0
 10
60.0482057436
 20
39.4597083867
 30
0.0
 10
59.9247695634
 20
39.355944361
 30
0.0
 10
59.8587997929
 20
39.3178502768
 30
0.0
  0
SPLINE
  5
240
100
AcDbEntity
  8
0
100
AcDbSpline
 62
7
  6
BYLAYER
 70
0
 71
3
 72
11
 73
7
 74
0
 42
0.0000001
 43
0.0000001
 44
0.0000000001
 40
0.0
 40
0.0
 40
0.0
 40
0.0
 40
0.2897016594
 40
0.5490895814
 40
0.7822189142
 40
1.0
 40
1.0
 40
1.0
 40
1.0
 10
17.8464436231
 20
76.1588953693
 30
0.0
 10
17.8464436231
 20
76.0575594374
 30
0.0
 10
17.8310797133
 20
75.8648389828
 30
0.0
 10
17.7530343242
 20
75.6000492254
 30
0.0
 10
17.6216222348
 20
75.3851874978
 30
0.0
 10
17.4981860546
 20
75.281423472
 30
0.0
 10
17.4322162841
 20
75.2433293878
 30
0.0
  0
SPLINE
  5
241
100
AcDbEntity
  8
0
100
AcDbSpline
 62
7
  6
BYLAYER
 70
0
 71
3
 72
11
 73
7
 74
0
 42
0.0000001
 43
0.0000001
 44
0.0000000001
 40
0.0
 40
0.0
 40
0.0
 40
0.0
 40
0.2897016594
 40
0.5490895814
 40
0.7822189142
 40
1.0
 40
1.0
 40
1.0
 40
1.0
 10
17.8464436231
 20
69.6268760322
 30
0.0
 10
17.8464436231
 20
69.5255401003
 30
0.0
 10
17.8310797133
 20
69.3328196458
 30
0.0
 10
17.7530343242
 20
69.0680298884
 30
0.0
 10
17.6216222348
 20
68.8531681607
 30
0.0
 10
17.4981860546
 20
68.749404135
 30
0.0
 10
17.4322162841
 20
68.7113100508
 30
0.0
  0
SPLINE
  5
242
100
AcDbEntity
  8
0
100
AcDbSpline
 62
7
  6
BYLAYER
 70
0
 71
3
 72
11
 73
7
 74
0
 42
0.0000001
 43
0.0000001
 44
0.0000000001
 40
0.0
 40
0.0
 40
0.0
 40
0.0
 40
0.2897016594
 40
0.5490895814
 40
0.7822189142
 40
1.0
 40
1.0
 40
1.0
 40
1.0
 10
17.8464436231
 20
64.7278615295
 30
0.0
 10
17.8464436231
 20
64.6265255976
 30
0.0
 10
17.8310797133
 20
64.433805143
 30
0.0
 10
17.7530343242
 20
64.1690153856
 30
0.0
 10
17.6216222348
 20
63.9541536579
 30
0.0
 10
17.4981860546
 20
63.8503896322
 30
0.0
 10
17.4322162841
 20
63.812295548
 30
0.0
  0
SPLINE
  5
243
100
AcDbEntity
  8
0
100
AcDbSpline
 62
7
  6
BYLAYER
 70
0
 71
3
 72
15
 73
11
 74
0
 42
0.0000001
 43
0.0000001
 44
0.0000000001
 40
0.0
 40
0.0
 40
0.0
 40
0.0
 40
0.1141073334
 40
0.2373632191
 40
0.3669894228
 40
0.500012404
 40
0.633033979
 40
0.7626802362
 40
0.8858530977
 40
1.0
 40
1.0
 40
1.0
 40
1.0
 10
67.6976498063
 20
44.9282457303
 30
0.0
 10
67.6250662108
 20
44.886339822
 30
0.0
 10
67.4662367178
 20
44.8124407673
 30
0.0
 10
67.2076827324
 20
44.7337742189
 30
0.0
 10
66.927687998
 20
44.6854275909
 30
0.0
 10
66.6369100519
 20
44.6691231623
 30
0.0
 10
66.3461172243
 20
44.685456377
 30
0.0
 10
66.0661793856
 20
44.7338297364
 30
0.0
 10
65.807619629
 20
44.8124304024
 30
0.0
 10
65.648853106
 20
44.8863927212
 30
0.0
 10
65.5762472967
 20
44.9283182807
 30
0.0
  0
SPLINE
  5
244
100
AcDbEntity
  8
0
100
AcDbSpline
 62
7
  6
BYLAYER
 70
0
 71
3
 72
18
 73
14
 74
0
 42
0.0000001
 43
0.0000001
 44
0.0000000001
 40
0.0
 40
0.0
 40
0.0
 40
0.0
 40
0.0428479429
 40
0.0874623066
 40
0.1352840435
 40
0.1872323096
 40
0.2437220832
 40
0.3047263631
 40
0.4383562007
 40
0.5826594577
 40
0.729784539
 40
0.8713400481
 40
1.0
 40
1.0
 40
1.0
 40
1.0
 10
57.8588155703
 20
42.7819452578
 30
0.0
 10
57.9081199596
 20
42.810415958
 30
0.0
 10
58.0168197951
 20
42.8555514559
 30
0.0
 10
58.1962224932
 20
42.8818873975
 30
0.0
 10
58.3888829369
 20
42.8676777901
 30
0.0
 10
58.5905116628
 20
42.8141218461
 30
0.0
 10
58.7971723524
 20
42.7228110134
 30
0.0
 10
59.0824380471
 20
42.5481885712
 30
0.0
 10
59.4222865623
 20
42.2472197542
 30
0.0
 10
59.7715535942
 20
41.8000902833
 30
0.0
 10
60.046692051
 20
41.2916065392
 30
0.0
 10
60.2252012412
 20
40.7638362531
 30
0.0
 10
60.2730271319
 20
40.4043731685
 30
0.0
 10
60.2730271319
 20
40.2334162582
 30
0.0
  0
SPLINE
  5
245
100
AcDbEntity
  8
0
100
AcDbSpline
 62
7
  6
BYLAYER
 70
0
 71
3
 72
14
 73
10
 74
0
 42
0.0000001
 43
0.0000001
 44
0.0000000001
 40
0.0
 40
0.0
 40
0.0
 40
0.0
 40
0.1083456523
 40
0.2186846247
 40
0.3328291943
 40
0.4522890555
 40
0.578201262
 40
0.7113021513
 40
1.0
 40
1.0
 40
1.0
 40
1.0
 10
10.1522321387
 20
62.9181569308
 30
0.0
 10
10.0875038903
 20
62.9555275855
 30
0.0
 10
9.9629773982
 20
63.0421602757
 30
0.0
 10
9.7981668931
 20
63.2033869737
 30
0.0
 10
9.6559540604
 20
63.3944504366
 30
0.0
 10
9.5377293424
 20
63.613349699
 30
0.0
 10
9.4443671846
 20
63.857906897
 30
0.0
 10
9.3514661599
 20
64.2248016443
 30
0.0
 10
9.3256892294
 20
64.5169813902
 30
0.0
 10
9.3239185255
 20
64.7161300948
 30
0.0
  0
SPLINE
  5
246
100
AcDbEntity
  8
0
100
AcDbSpline
 62
7
  6
BYLAYER
 70
0
 71
3
 72
9
 73
5
 74
0
 42
0.0000001
 43
0.0000001
 44
0.0000000001
 40
0.0
 40
0.0
 40
0.0
 40
0.0
 40
0.2636698379
 40
1.0
 40
1.0
 40
1.0
 40
1.0
 10
12.1808978658
 20
69.6646747767
 30
0.0
 10
12.2416904216
 20
69.6990552887
 30
0.0
 10
12.4758154957
 20
69.8228302155
 30
0.0
 10
12.7252100597
 20
69.9194043545
 30
0.0
 10
12.9142347355
 20
69.9674667744
 30
0.0
  0
SPLINE
  5
247
100
AcDbEntity
  8
0
100
AcDbSpline
 62
7
  6
BYLAYER
 70
0
 71
3
 72
15
 73
11
 74
0
 42
0.0000001
 43
0.0000001
 44
0.0000000001
 40
0.0
 40
0.0
 40
0.0
 40
0.0
 40
0.1137552237
 40
0.2366909247
 40
0.3662663439
 40
0.4993461544
 40
0.6325237569
 40
0.7623513354
 40
0.8857360629
 40
1.0
 40
1.0
 40
1.0
 40
1.0
 10
9.3170616219
 20
65.4933228166
 30
0.0
 10
9.3155448098
 20
65.6648559882
 30
0.0
 10
9.3443618146
 20
66.0223866387
 30
0.0
 10
9.4668553122
 20
66.5624639701
 30
0.0
 10
9.6657844943
 20
67.1103619732
 30
0.0
 10
9.9336182209
 20
67.6452397391
 30
0.0
 10
10.2602214522
 20
68.1468438688
 30
0.0
 10
10.6332100511
 20
68.5963352064
 30
0.0
 10
11.0384696496
 20
68.9764173081
 30
0.0
 10
11.3332041914
 20
69.1833214782
 30
0.0
 10
11.4824266571
 20
69.2694745947
 30
0.0
  0
SPLINE
  5
248
100
AcDbEntity
  8
0
100
AcDbSpline
 62
7
  6
BYLAYER
 70
0
 71
3
 72
11
 73
7
 74
0
 42
0.0000001
 43
0.0000001
 44
0.0000000001
 40
0.0
 40
0.0
 40
0.0
 40
0.0
 40
0.2898065546
 40
0.5490664214
 40
0.7822322913
 40
1.0
 40
1.0
 40
1.0
 40
1.0
 10
67.6975062156
 20
46.1530206791
 30
0.0
 10
67.763362947
 20
46.1150078123
 30
0.0
 10
67.882826653
 20
46.0328005067
 30
0.0
 10
68.0255470898
 20
45.8827664082
 30
0.0
 10
68.1158458537
 20
45.7168596657
 30
0.0
 10
68.1369764721
 20
45.5977452954
 30
0.0
 10
68.1369537758
 20
45.5406069633
 30
0.0
  0
SPLINE
  5
249
100
AcDbEntity
  8
0
100
AcDbSpline
 62
7
  6
BYLAYER
 70
0
 71
3
 72
18
 73
14
 74
0
 42
0.0000001
 43
0.0000001
 44
0.0000000001
 40
0.0
 40
0.0
 40
0.0
 40
0.0
 40
0.0428479429
 40
0.0874623066
 40
0.1352840435
 40
0.1872323096
 40
0.2437220832
 40
0.3047263631
 40
0.4383562007
 40
0.5826594577
 40
0.729784539
 40
0.8713400481
 40
1.0
 40
1.0
 40
1.0
 40
1.0
 10
17.4322162841
 20
75.2433293878
 30
0.0
 10
17.3829118948
 20
75.2148586876
 30
0.0
 10
17.2742120593
 20
75.1697231897
 30
0.0
 10
17.0948093612
 20
75.1433872481
 30
0.0
 10
16.9021489175
 20
75.1575968555
 30
0.0
 10
16.7005201916
 20
75.2111527995
 30
0.0
 10
16.493859502
 20
75.3024636322
 30
0.0
 10
16.2085938073
 20
75.4770860744
 30
0.0
 10
15.8687452921
 20
75.7780548914
 30
0.0
 10
15.5194782602
 20
76.2251843623
 30
0.0
 10
15.2443398034
 20
76.7336681063
 30
0.0
 10
15.0658306132
 20
77.2614383925
 30
0.0
 10
15.0180047225
 20
77.6209014771
 30
0.0
 10
15.0180047225
 20
77.7918583874
 30
0.0
  0
SPLINE
  5
24A
100
AcDbEntity
  8
0
100
AcDbSpline
 62
7
  6
BYLAYER
 70
0
 71
3
 72
13
 73
9
 74
0
 42
0.0000001
 43
0.0000001
 44
0.0000000001
 40
0.0
 40
0.0
 40
0.0
 40
0.0
 40
0.1141678874
 40
0.2375547833
 40
0.4999882868
 40
0.7624216606
 40
0.8858179461
 40
1.0
 40
1.0
 40
1.0
 40
1.0
 10
24.9174642759
 20
66.3608309206
 30
0.0
 10
24.869094647
 20
66.3887565072
 30
0.0
 10
24.7735087527
 20
66.455844232
 30
0.0
 10
24.5944303112
 20
66.6233155193
 30
0.0
 10
24.4054230407
 20
66.8816957425
 30
0.0
 10
24.2761263835
 20
67.174568056
 30
0.0
 10
24.2206852248
 20
67.4134187248
 30
0.0
 10
24.21042525
 20
67.5297558591
 30
0.0
 10
24.21042525
 20
67.5856149102
 30
0.0
  0
SPLINE
  5
24B
100
AcDbEntity
  8
0
100
AcDbSpline
 62
7
  6
BYLAYER
 70
0
 71
3
 72
11
 73
7
 74
0
 42
0.0000001
 43
0.0000001
 44
0.0000000001
 40
0.0
 40
0.0
 40
0.0
 40
0.0
 40
0.289538234
 40
0.5491182222
 40
0.7822569943
 40
1.0
 40
1.0
 40
1.0
 40
1.0
 10
24.210425265
 20
67.5856149148
 30
0.0
 10
24.2104164928
 20
67.6362615961
 30
0.0
 10
24.2181399588
 20
67.7326359697
 30
0.0
 10
24.2570926024
 20
67.8650706135
 30
0.0
 10
24.3227974805
 20
67.9725777503
 30
0.0
 10
24.3845749058
 20
68.0243981426
 30
0.0
 10
24.4175602124
 20
68.0434421128
 30
0.0
  0
SPLINE
  5
24C
100
AcDbEntity
  8
0
100
AcDbSpline
 62
7
  6
BYLAYER
 70
0
 71
3
 72
18
 73
14
 74
0
 42
0.0000001
 43
0.0000001
 44
0.0000000001
 40
0.0
 40
0.0
 40
0.0
 40
0.0
 40
0.0428479429
 40
0.0874623066
 40
0.1352840435
 40
0.1872323096
 40
0.2437220832
 40
0.3047263631
 40
0.4383562007
 40
0.5826594577
 40
0.729784539
 40
0.8713400481
 40
1.0
 40
1.0
 40
1.0
 40
1.0
 10
59.8587997929
 20
39.3178502768
 30
0.0
 10
59.8094954036
 20
39.2893795766
 30
0.0
 10
59.7007955681
 20
39.2442440786
 30
0.0
 10
59.52139287
 20
39.2179081371
 30
0.0
 10
59.3287324263
 20
39.2321177445
 30
0.0
 10
59.1271037004
 20
39.2856736884
 30
0.0
 10
58.9204430108
 20
39.3769845211
 30
0.0
 10
58.6351773161
 20
39.5516069634
 30
0.0
 10
58.2953288009
 20
39.8525757804
 30
0.0
 10
57.946061769
 20
40.2997052513
 30
0.0
 10
57.6709233122
 20
40.8081889953
 30
0.0
 10
57.4924141221
 20
41.3359592815
 30
0.0
 10
57.4445882313
 20
41.695422366
 30
0.0
 10
57.4445882313
 20
41.8663792763
 30
0.0
  0
SPLINE
  5
24D
100
AcDbEntity
  8
0
100
AcDbSpline
 62
7
  6
BYLAYER
 70
0
 71
3
 72
18
 73
14
 74
0
 42
0.0000001
 43
0.0000001
 44
0.0000000001
 40
0.0
 40
0.0
 40
0.0
 40
0.0
 40
0.0428479429
 40
0.0874623066
 40
0.1352840435
 40
0.1872323096
 40
0.2437220832
 40
0.3047263631
 40
0.4383562007
 40
0.5826594577
 40
0.729784539
 40
0.8713400481
 40
1.0
 40
1.0
 40
1.0
 40
1.0
 10
17.4322162841
 20
63.812295548
 30
0.0
 10
17.3829118948
 20
63.7838248478
 30
0.0
 10
17.2742120593
 20
63.7386893499
 30
0.0
 10
17.0948093612
 20
63.7123534083
 30
0.0
 10
16.9021489175
 20
63.7265630157
 30
0.0
 10
16.7005201916
 20
63.7801189596
 30
0.0
 10
16.493859502
 20
63.8714297923
 30
0.0
 10
16.2085938073
 20
64.0460522346
 30
0.0
 10
15.8687452921
 20
64.3470210516
 30
0.0
 10
15.5194782602
 20
64.7941505225
 30
0.0
 10
15.2443398034
 20
65.3026342665
 30
0.0
 10
15.0658306132
 20
65.8304045527
 30
0.0
 10
15.0180047225
 20
66.1898676373
 30
0.0
 10
15.0180047225
 20
66.3608245475
 30
0.0
  0
SPLINE
  5
24E
100
AcDbEntity
  8
0
100
AcDbSpline
 62
7
  6
BYLAYER
 70
0
 71
3
 72
23
 73
19
 74
0
 42
0.0000001
 43
0.0000001
 44
0.0000000001
 40
0.0
 40
0.0
 40
0.0
 40
0.0
 40
0.0665683776
 40
0.1384455768
 40
0.2140577917
 40
0.2916527583
 40
0.3692432281
 40
0.4448644449
 40
0.5167096936
 40
0.5832963211
 40
0.6436741191
 40
0.6976870354
 40
0.7462701876
 40
0.7916442227
 40
0.8370209949
 40
0.8855954532
 40
0.9396408553
 40
1.0
 40
1.0
 40
1.0
 40
1.0
 10
24.2104311494
 20
65.1362068244
 30
0.0
 10
24.1136439354
 20
65.1920856843
 30
0.0
 10
23.9224277867
 20
65.3261767921
 30
0.0
 10
23.6592666002
 20
65.5722894313
 30
0.0
 10
23.4168067408
 20
65.8633315749
 30
0.0
 10
23.2040900282
 20
66.1881775159
 30
0.0
 10
23.0290944138
 20
66.5348351049
 30
0.0
 10
22.8983491293
 20
66.8902795979
 30
0.0
 10
22.8167094602
 20
67.2413083918
 30
0.0
 10
22.787292101
 20
67.5750780931
 30
0.0
 10
22.8115422818
 20
67.879680781
 30
0.0
 10
22.8896258754
 20
68.1444684874
 30
0.0
 10
23.0210973346
 20
68.3594300669
 30
0.0
 10
23.2036029406
 20
68.513004294
 30
0.0
 10
23.427823668
 20
68.5942784826
 30
0.0
 10
23.6797817747
 20
68.6007599752
 30
0.0
 10
23.948072742
 20
68.5359286841
 30
0.0
 10
24.1226718608
 20
68.4528831956
 30
0.0
 10
24.2104311494
 20
68.4022164929
 30
0.0
  0
SPLINE
  5
24F
100
AcDbEntity
  8
0
100
AcDbSpline
 62
7
  6
BYLAYER
 70
0
 71
3
 72
11
 73
7
 74
0
 42
0.0000001
 43
0.0000001
 44
0.0000000001
 40
0.0
 40
0.0
 40
0.0
 40
0.0
 40
0.2897016594
 40
0.5490895814
 40
0.7822189142
 40
1.0
 40
1.0
 40
1.0
 40
1.0
 10
57.4445882313
 20
41.8663792763
 30
0.0
 10
57.4445882313
 20
41.9677152082
 30
0.0
 10
57.4599521411
 20
42.1604356628
 30
0.0
 10
57.5379975302
 20
42.4252254202
 30
0.0
 10
57.6694096196
 20
42.6400871478
 30
0.0
 10
57.7928457998
 20
42.7438511736
 30
0.0
 10
57.8588155703
 20
42.7819452578
 30
0.0
  0
SPLINE
  5
250
100
AcDbEntity
  8
0
100
AcDbSpline
 62
7
  6
BYLAYER
 70
0
 71
3
 72
11
 73
7
 74
0
 42
0.0000001
 43
0.0000001
 44
0.0000000001
 40
0.0
 40
0.0
 40
0.0
 40
0.0
 40
0.2897016594
 40
0.5490895814
 40
0.7822189142
 40
1.0
 40
1.0
 40
1.0
 40
1.0
 10
15.0180047225
 20
77.7918583874
 30
0.0
 10
15.0180047225
 20
77.8931943192
 30
0.0
 10
15.0333686323
 20
78.0859147738
 30
0.0
 10
15.1114140214
 20
78.3507045312
 30
0.0
 10
15.2428261108
 20
78.5655662589
 30
0.0
 10
15.366262291
 20
78.6693302846
 30
0.0
 10
15.4322320615
 20
78.7074243688
 30
0.0
  0
SPLINE
  5
251
100
AcDbEntity
  8
0
100
AcDbSpline
 62
7
  6
BYLAYER
 70
0
 71
3
 72
11
 73
7
 74
0
 42
0.0000001
 43
0.0000001
 44
0.0000000001
 40
0.0
 40
0.0
 40
0.0
 40
0.0
 40
0.2897016594
 40
0.5490895814
 40
0.7822189142
 40
1.0
 40
1.0
 40
1.0
 40
1.0
 10
15.0180047225
 20
71.2598390503
 30
0.0
 10
15.0180047225
 20
71.3611749822
 30
0.0
 10
15.0333686323
 20
71.5538954368
 30
0.0
 10
15.1114140214
 20
71.8186851942
 30
0.0
 10
15.2428261108
 20
72.0335469218
 30
0.0
 10
15.366262291
 20
72.1373109476
 30
0.0
 10
15.4322320615
 20
72.1754050318
 30
0.0
  0
SPLINE
  5
252
100
AcDbEntity
  8
0
100
AcDbSpline
 62
7
  6
BYLAYER
 70
0
 71
3
 72
11
 73
7
 74
0
 42
0.0000001
 43
0.0000001
 44
0.0000000001
 40
0.0
 40
0.0
 40
0.0
 40
0.0
 40
0.2126755766
 40
0.4481983971
 40
0.7107350897
 40
1.0
 40
1.0
 40
1.0
 40
1.0
 10
68.1094199951
 20
45.501736273
 30
0.0
 10
68.0905373244
 20
45.5578225364
 30
0.0
 10
68.0314364917
 20
45.6699389063
 30
0.0
 10
67.8963073779
 20
45.8165528917
 30
0.0
 10
67.7172198828
 20
45.9448490479
 30
0.0
 10
67.5787149286
 20
46.0126879422
 30
0.0
 10
67.5042129312
 20
46.0431565581
 30
0.0
  0
SPLINE
  5
253
100
AcDbEntity
  8
0
100
AcDbSpline
 62
7
  6
BYLAYER
 70
0
 71
3
 72
15
 73
11
 74
0
 42
0.0000001
 43
0.0000001
 44
0.0000000001
 40
0.0
 40
0.0
 40
0.0
 40
0.0
 40
0.1117256342
 40
0.2315840067
 40
0.3577815632
 40
0.4880864531
 40
0.6200048845
 40
0.7509497753
 40
0.8783711469
 40
1.0
 40
1.0
 40
1.0
 40
1.0
 10
9.3239185255
 20
64.7161300948
 30
0.0
 10
9.3221933298
 20
64.9101605427
 30
0.0
 10
9.3499427392
 20
65.3129514689
 30
0.0
 10
9.4711387571
 20
65.923756902
 30
0.0
 10
9.6699520068
 20
66.5477874064
 30
0.0
 10
9.9406337411
 20
67.1669293302
 30
0.0
 10
10.2753727423
 20
67.7633501564
 30
0.0
 10
10.6645053918
 20
68.3197552769
 30
0.0
 10
11.0966227472
 20
68.820064191
 30
0.0
 10
11.4144369268
 20
69.1151979161
 30
0.0
 10
11.578061301
 20
69.2487954752
 30
0.0
  0
SPLINE
  5
254
100
AcDbEntity
  8
0
100
AcDbSpline
 62
7
  6
BYLAYER
 70
0
 71
3
 72
9
 73
5
 74
0
 42
0.0000001
 43
0.0000001
 44
0.0000000001
 40
0.0
 40
0.0
 40
0.0
 40
0.0
 40
0.258663766
 40
1.0
 40
1.0
 40
1.0
 40
1.0
 10
11.578061301
 20
69.2487954752
 30
0.0
 10
11.6248014767
 20
69.286958331
 30
0.0
 10
11.8081759333
 20
69.4311546306
 30
0.0
 10
12.0024171024
 20
69.5617990469
 30
0.0
 10
12.1521868466
 20
69.6482681328
 30
0.0
  0
SPLINE
  5
255
100
AcDbEntity
  8
0
100
AcDbSpline
 62
7
  6
BYLAYER
 70
0
 71
3
 72
11
 73
7
 74
0
 42
0.0000001
 43
0.0000001
 44
0.0000000001
 40
0.0
 40
0.0
 40
0.0
 40
0.0
 40
0.2897016594
 40
0.5490895814
 40
0.7822189142
 40
1.0
 40
1.0
 40
1.0
 40
1.0
 10
15.0180047225
 20
66.3608245475
 30
0.0
 10
15.0180047225
 20
66.4621604794
 30
0.0
 10
15.0333686323
 20
66.654880934
 30
0.0
 10
15.1114140214
 20
66.9196706914
 30
0.0
 10
15.2428261108
 20
67.1345324191
 30
0.0
 10
15.366262291
 20
67.2382964448
 30
0.0
 10
15.4322320615
 20
67.276390529
 30
0.0
  0
SPLINE
  5
256
100
AcDbEntity
  8
0
100
AcDbSpline
 62
7
  6
BYLAYER
 70
0
 71
3
 72
18
 73
14
 74
0
 42
0.0000001
 43
0.0000001
 44
0.0000000001
 40
0.0
 40
0.0
 40
0.0
 40
0.0
 40
0.0428479429
 40
0.0874623066
 40
0.1352840435
 40
0.1872323096
 40
0.2437220832
 40
0.3047263631
 40
0.4383562007
 40
0.5826594577
 40
0.729784539
 40
0.8713400481
 40
1.0
 40
1.0
 40
1.0
 40
1.0
 10
17.4322162841
 20
68.7113100508
 30
0.0
 10
17.3829118948
 20
68.6828393506
 30
0.0
 10
17.2742120593
 20
68.6377038526
 30
0.0
 10
17.0948093612
 20
68.6113679111
 30
0.0
 10
16.9021489175
 20
68.6255775185
 30
0.0
 10
16.7005201916
 20
68.6791334624
 30
0.0
 10
16.493859502
 20
68.7704442951
 30
0.0
 10
16.2085938073
 20
68.9450667373
 30
0.0
 10
15.8687452921
 20
69.2460355544
 30
0.0
 10
15.5194782602
 20
69.6931650253
 30
0.0
 10
15.2443398034
 20
70.2016487693
 30
0.0
 10
15.0658306132
 20
70.7294190555
 30
0.0
 10
15.0180047225
 20
71.08888214
 30
0.0
 10
15.0180047225
 20
71.2598390503
 30
0.0
  0
ENDSEC
  0
SECTION
  2
OBJECTS
  0
DICTIONARY
  5
C
100
AcDbDictionary
280
0
281
1
  3
ACAD_GROUP
350
D
  3
ACAD_MLINESTYLE
350
17
  3
ACAD_LAYOUT
350
1A
  3
ACAD_PLOTSETTINGS
350
19
  3
ACAD_PLOTSTYLENAME
350
E
  0
DICTIONARY
  5
D
102
{ACAD_REACTORS
330
C
102
}
100
AcDbDictionary
280
0
281
1
  0
ACDBDICTIONARYWDFLT
  5
E
102
{ACAD_REACTORS
330
C
102
}
100
AcDbDictionary
281
1
  3
Normal
350
F
100
AcDbDictionaryWithDefault
340
F
  0
DICTIONARY
  5
17
102
{ACAD_REACTORS
330
C
102
}
100
AcDbDictionary
280
0
281
1
  3
Standard
350
18
  0
DICTIONARY
  5
19
102
{ACAD_REACTORS
330
C
102
}
100
AcDbDictionary
281
1
  0
DICTIONARY
  5
1A
102
{ACAD_REACTORS
330
C
102
}
100
AcDbDictionary
281
1
  3
Model
350
257
  3
Layout1
350
258
  0
ACDBPLACEHOLDER
  5
F
102
{ACAD_REACTORS
330
E
102
}
  0
MLINESTYLE
  5
18
102
{ACAD_REACTORS
330
17
102
}
100
AcDbMlineStyle
  2
STANDARD
 70
0
  3

 62
256
 51
90.0
 52
90.0
 71
2
 49
0.5
 62
256
  6
BYLAYER
 49
-0.5
 62
256
  6
BYLAYER
  0
LAYOUT
  5
257
102
{ACAD_REACTORS
330
1A
102
}
100
AcDbPlotSettings
  1

  2
none_device
  4

  6

 40
0.0
 41
0.0
 42
0.0
 43
0.0
 44
210.0
 45
297.0
 46
0.0
 47
0.0
 48
0.0
 49
0.0
140
0.0
141
0.0
142
1.0
143
1.0
 70
1024
 72
1
 73
0
 74
0
  7

 75
0
147
1.0
148
0.0
149
0.0
100
AcDbLayout
  1
Model
 70
0
 71
0
 10
0.0
 20
0.0
 11
210.0
 21
297.0
 12
0.0
 22
0.0
 32
0.0
 14
0.0
 24
0.0
 34
0.0
 15
0.0
 25
0.0
 35
0.0
146
0.0
 13
0.0
 23
0.0
 33
0.0
 16
1.0
 26
0.0
 36
0.0
 17
0.0
 27
1.0
 37
0.0
 76
0
330
210
345
0
346
0
  0
LAYOUT
  5
258
102
{ACAD_REACTORS
330
1A
102
}
100
AcDbPlotSettings
  1

  2
none_device
  4

  6

 40
0.0
 41
0.0
 42
0.0
 43
0.0
 44
210.0
 45
297.0
 46
0.0
 47
0.0
 48
0.0
 49
0.0
140
0.0
141
0.0
142
1.0
143
1.0
 70
0
 72
1
 73
0
 74
0
  7

 75
0
147
1.0
148
0.0
149
0.0
100
AcDbLayout
  1
Layout1
 70
0
 71
1
 10
0.0
 20
0.0
 11
210.0
 21
297.0
 12
0.0
 22
0.0
 32
0.0
 14
0.0
 24
0.0
 34
0.0
 15
0.0
 25
0.0
 35
0.0
146
0.0
 13
0.0
 23
0.0
 33
0.0
 16
1.0
 26
0.0
 36
0.0
 17
0.0
 27
1.0
 37
0.0
 76
0
330
211
345
0
346
0
  0
ENDSEC
  0
EOF
